ISO-10303-21;
HEADER;
FILE_DESCRIPTION (( 'STEP AP214' ),
    '1' );
FILE_NAME ('83818.STEP',
    '2023-07-05T16:11:29',
    ( '' ),
    ( '' ),
    'SwSTEP 2.0',
    'SolidWorks 2023',
    '' );
FILE_SCHEMA (( 'AUTOMOTIVE_DESIGN' ));
ENDSEC;

DATA;
#1 = DIRECTION ( 'NONE',  ( -0.8660254037844397068, 0.4999999999999979461, 0.000000000000000000 ) ) ;
#2 = STYLED_ITEM ( 'NONE', ( #206 ), #224 ) ;
#3 = ORIENTED_EDGE ( 'NONE', *, *, #119, .F. ) ;
#4 =( LENGTH_UNIT ( ) NAMED_UNIT ( * ) SI_UNIT ( $, .METRE. ) );
#5 = ORIENTED_EDGE ( 'NONE', *, *, #65, .F. ) ;
#6 = COLOUR_RGB ( '',0.7921568627450980005, 0.8196078431372548767, 0.9333333333333333481 ) ;
#7 = ORIENTED_EDGE ( 'NONE', *, *, #189, .T. ) ;
#8 =( NAMED_UNIT ( * ) PLANE_ANGLE_UNIT ( ) SI_UNIT ( $, .RADIAN. ) );
#9 = AXIS2_PLACEMENT_3D ( 'NONE', #259, #51, #255 ) ;
#10 = CIRCLE ( 'NONE', #61, 0.06249999999999999306 ) ;
#11 = LINE ( 'NONE', #158, #100 ) ;
#12 = CARTESIAN_POINT ( 'NONE',  ( 0.000000000000000000, 0.000000000000000000, 0.000000000000000000 ) ) ;
#13 =( CONVERSION_BASED_UNIT ( 'INCH', #48 ) LENGTH_UNIT ( ) NAMED_UNIT ( #74 ) );
#14 = CARTESIAN_POINT ( 'NONE',  ( 3.756290991288361679E-16, 0.03608439182435149023, 0.000000000000000000 ) ) ;
#15 = SURFACE_STYLE_FILL_AREA ( #205 ) ;
#16 = APPLICATION_CONTEXT ( 'automotive_design' ) ;
#17 = AXIS2_PLACEMENT_3D ( 'NONE', #55, #204, #239 ) ;
#18 =( NAMED_UNIT ( * ) PLANE_ANGLE_UNIT ( ) SI_UNIT ( $, .RADIAN. ) );
#19 = CARTESIAN_POINT ( 'NONE',  ( -0.06249999999999951428, 1.500000000000000222, 0.000000000000000000 ) ) ;
#20 = COLOUR_RGB ( '',0.7921568627450980005, 0.8196078431372548767, 0.9333333333333333481 ) ;
#21 = PRESENTATION_LAYER_ASSIGNMENT (  '', '', ( #2 ) ) ;
#22 = ORIENTED_EDGE ( 'NONE', *, *, #221, .F. ) ;
#23 = EDGE_LOOP ( 'NONE', ( #5, #113, #125, #107 ) ) ;
#24 = PLANE ( 'NONE',  #144 ) ;
#25 = VERTEX_POINT ( 'NONE', #130 ) ;
#26 = DIRECTION ( 'NONE',  ( 1.000000000000000000, 0.000000000000000000, 0.000000000000000000 ) ) ;
#27 = AXIS2_PLACEMENT_3D ( 'NONE', #69, #177, #157 ) ;
#28 = AXIS2_PLACEMENT_3D ( 'NONE', #146, #112, #192 ) ;
#29 = UNCERTAINTY_MEASURE_WITH_UNIT (LENGTH_MEASURE( 1.000000000000000082E-05 ), #31, 'distance_accuracy_value', 'NONE');
#30 = EDGE_LOOP ( 'NONE', ( #226, #3 ) ) ;
#31 =( CONVERSION_BASED_UNIT ( 'INCH', #94 ) LENGTH_UNIT ( ) NAMED_UNIT ( #182 ) );
#32 = CONICAL_SURFACE ( 'NONE', #195, 68.19097667594041923, 1.047197551196600074 ) ;
#33 = AXIS2_PLACEMENT_3D ( 'NONE', #56, #164, #142 ) ;
#34 = CONICAL_SURFACE ( 'NONE', #116, 68.19097667594041923, 1.047197551196600074 ) ;
#35 = FILL_AREA_STYLE_COLOUR ( '', #6 ) ;
#36 = SURFACE_SIDE_STYLE ('',( #66 ) ) ;
#37 = MECHANICAL_DESIGN_GEOMETRIC_PRESENTATION_REPRESENTATION (  '', ( #229 ), #79 ) ;
#38 = FILL_AREA_STYLE ('',( #241 ) ) ;
#39 = PRESENTATION_LAYER_ASSIGNMENT (  '', '', ( #159 ) ) ;
#40 = MECHANICAL_DESIGN_GEOMETRIC_PRESENTATION_REPRESENTATION (  '', ( #2 ), #68 ) ;
#41 = DIRECTION ( 'NONE',  ( -2.181055688107446795E-17, -1.000000000000000000, -0.000000000000000000 ) ) ;
#42 = DIRECTION ( 'NONE',  ( -1.311087047537675563E-16, 1.000000000000000000, -0.000000000000000000 ) ) ;
#43 = DIRECTION ( 'NONE',  ( 2.181055688107446795E-17, 1.000000000000000000, 0.000000000000000000 ) ) ;
#44 = LENGTH_MEASURE_WITH_UNIT ( LENGTH_MEASURE( 0.02539999999999999897 ), #4 );
#45 = VERTEX_POINT ( 'NONE', #155 ) ;
#46 =( NAMED_UNIT ( * ) PLANE_ANGLE_UNIT ( ) SI_UNIT ( $, .RADIAN. ) );
#47 = CIRCLE ( 'NONE', #262, 0.06249999999999960448 ) ;
#48 = LENGTH_MEASURE_WITH_UNIT ( LENGTH_MEASURE( 0.02539999999999999897 ), #217 );
#49 = ADVANCED_FACE ( 'NONE', ( #111 ), #120, .T. ) ;
#50 = PRODUCT_DEFINITION_CONTEXT ( 'detailed design', #16, 'design' ) ;
#51 = DIRECTION ( 'NONE',  ( -1.311087047537675563E-16, 1.000000000000000000, -0.000000000000000000 ) ) ;
#52 = SURFACE_SIDE_STYLE ('',( #160 ) ) ;
#53 =( CONVERSION_BASED_UNIT ( 'INCH', #163 ) LENGTH_UNIT ( ) NAMED_UNIT ( #96 ) );
#54 = PRESENTATION_LAYER_ASSIGNMENT (  '', '', ( #60 ) ) ;
#55 = CARTESIAN_POINT ( 'NONE',  ( 1.836970198721030181E-16, 1.500000000000000222, 0.000000000000000000 ) ) ;
#56 = CARTESIAN_POINT ( 'NONE',  ( 1.836970198721030181E-16, 1.500000000000000222, 0.000000000000000000 ) ) ;
#57 = DIRECTION ( 'NONE',  ( -1.311087047537675563E-16, 1.000000000000000000, -0.000000000000000000 ) ) ;
#58 = PRODUCT_DEFINITION_SHAPE ( 'NONE', 'NONE',  #131 ) ;
#59 = LENGTH_MEASURE_WITH_UNIT ( LENGTH_MEASURE( 0.02539999999999999897 ), #110 );
#60 = STYLED_ITEM ( 'NONE', ( #140 ), #194 ) ;
#61 = AXIS2_PLACEMENT_3D ( 'NONE', #86, #154, #26 ) ;
#62 = CARTESIAN_POINT ( 'NONE',  ( 0.000000000000000000, 0.000000000000000000, 0.000000000000000000 ) ) ;
#63 = ORIENTED_EDGE ( 'NONE', *, *, #77, .T. ) ;
#64 =( NAMED_UNIT ( * ) SI_UNIT ( $, .STERADIAN. ) SOLID_ANGLE_UNIT ( ) );
#65 = EDGE_CURVE ( 'NONE', #45, #170, #11, .T. ) ;
#66 = SURFACE_STYLE_FILL_AREA ( #114 ) ;
#67 = CIRCLE ( 'NONE', #17, 0.06249999999999979183 ) ;
#68 =( GEOMETRIC_REPRESENTATION_CONTEXT ( 3 ) GLOBAL_UNCERTAINTY_ASSIGNED_CONTEXT ( ( #135 ) ) GLOBAL_UNIT_ASSIGNED_CONTEXT ( ( #186, #46, #64 ) ) REPRESENTATION_CONTEXT ( 'NONE', 'WORKASPACE' ) );
#69 = CARTESIAN_POINT ( 'NONE',  ( 1.836970198721030181E-16, 1.500000000000000222, 0.000000000000000000 ) ) ;
#70 = FILL_AREA_STYLE ('',( #35 ) ) ;
#71 = MECHANICAL_DESIGN_GEOMETRIC_PRESENTATION_REPRESENTATION (  '', ( #159 ), #126 ) ;
#72 = DIRECTION ( 'NONE',  ( 1.000000000000000000, 0.000000000000000000, 0.000000000000000000 ) ) ;
#73 = LINE ( 'NONE', #91, #253 ) ;
#74 = DIMENSIONAL_EXPONENTS ( 1.000000000000000000, 0.000000000000000000, 0.000000000000000000, 0.000000000000000000, 0.000000000000000000, 0.000000000000000000, 0.000000000000000000 ) ;
#75 = DIRECTION ( 'NONE',  ( -1.000000000000000000, -1.365923996832140237E-16, 0.000000000000000000 ) ) ;
#76 = FACE_OUTER_BOUND ( 'NONE', #228, .T. ) ;
#77 = EDGE_CURVE ( 'NONE', #212, #133, #73, .T. ) ;
#78 = PRESENTATION_STYLE_ASSIGNMENT (( #202 ) ) ;
#79 =( GEOMETRIC_REPRESENTATION_CONTEXT ( 3 ) GLOBAL_UNCERTAINTY_ASSIGNED_CONTEXT ( ( #258 ) ) GLOBAL_UNIT_ASSIGNED_CONTEXT ( ( #13, #8, #242 ) ) REPRESENTATION_CONTEXT ( 'NONE', 'WORKASPACE' ) );
#80 = CARTESIAN_POINT ( 'NONE',  ( 8.586833417745853746E-16, 39.37007874015748143, 0.000000000000000000 ) ) ;
#81 = CARTESIAN_POINT ( 'NONE',  ( -0.06249999999999960448, 1.500000000000000222, 0.000000000000000000 ) ) ;
#82 = VERTEX_POINT ( 'NONE', #216 ) ;
#83 = SURFACE_SIDE_STYLE ('',( #106 ) ) ;
#84 = ORIENTED_EDGE ( 'NONE', *, *, #77, .F. ) ;
#85 =( GEOMETRIC_REPRESENTATION_CONTEXT ( 3 ) GLOBAL_UNCERTAINTY_ASSIGNED_CONTEXT ( ( #97 ) ) GLOBAL_UNIT_ASSIGNED_CONTEXT ( ( #53, #18, #203 ) ) REPRESENTATION_CONTEXT ( 'NONE', 'WORKASPACE' ) );
#86 = CARTESIAN_POINT ( 'NONE',  ( 7.870206804039950360E-19, 0.03608439182435141390, 0.000000000000000000 ) ) ;
#87 = EDGE_CURVE ( 'NONE', #25, #45, #47, .T. ) ;
#88 = EDGE_LOOP ( 'NONE', ( #128, #231, #147, #22 ) ) ;
#89 = DIRECTION ( 'NONE',  ( -1.000000000000000000, -1.365923996832140237E-16, 0.000000000000000000 ) ) ;
#90 = ADVANCED_FACE ( 'NONE', ( #236 ), #174, .T. ) ;
#91 = CARTESIAN_POINT ( 'NONE',  ( 0.000000000000000000, 0.000000000000000000, 0.000000000000000000 ) ) ;
#92 = APPLICATION_PROTOCOL_DEFINITION ( 'draft international standard', 'automotive_design', 1998, #16 ) ;
#93 = FACE_OUTER_BOUND ( 'NONE', #150, .T. ) ;
#94 = LENGTH_MEASURE_WITH_UNIT ( LENGTH_MEASURE( 0.02539999999999999897 ), #197 );
#95 = VECTOR ( 'NONE', #42, 39.37007874015748143 ) ;
#96 = DIMENSIONAL_EXPONENTS ( 1.000000000000000000, 0.000000000000000000, 0.000000000000000000, 0.000000000000000000, 0.000000000000000000, 0.000000000000000000, 0.000000000000000000 ) ;
#97 = UNCERTAINTY_MEASURE_WITH_UNIT (LENGTH_MEASURE( 1.000000000000000082E-05 ), #53, 'distance_accuracy_value', 'NONE');
#98 =( LENGTH_UNIT ( ) NAMED_UNIT ( * ) SI_UNIT ( $, .METRE. ) );
#99 =( CONVERSION_BASED_UNIT ( 'INCH', #184 ) LENGTH_UNIT ( ) NAMED_UNIT ( #139 ) );
#100 = VECTOR ( 'NONE', #118, 39.37007874015748143 ) ;
#101 = ADVANCED_FACE ( 'NONE', ( #93 ), #32, .T. ) ;
#102 = FILL_AREA_STYLE_COLOUR ( '', #20 ) ;
#103 = FACE_OUTER_BOUND ( 'NONE', #153, .T. ) ;
#104 = CIRCLE ( 'NONE', #33, 0.06249999999999979183 ) ;
#105 = AXIS2_PLACEMENT_3D ( 'NONE', #12, #117, #72 ) ;
#106 = SURFACE_STYLE_FILL_AREA ( #149 ) ;
#107 = ORIENTED_EDGE ( 'NONE', *, *, #180, .F. ) ;
#108 = MANIFOLD_SOLID_BREP ( 'Revolve - Cutting Edge', #219 ) ;
#109 = DIRECTION ( 'NONE',  ( 1.311087047537675563E-16, -1.000000000000000000, 0.000000000000000000 ) ) ;
#110 =( LENGTH_UNIT ( ) NAMED_UNIT ( * ) SI_UNIT ( $, .METRE. ) );
#111 = FACE_OUTER_BOUND ( 'NONE', #88, .T. ) ;
#112 = DIRECTION ( 'NONE',  ( -1.311087047537675563E-16, 1.000000000000000000, 0.000000000000000000 ) ) ;
#113 = ORIENTED_EDGE ( 'NONE', *, *, #119, .T. ) ;
#114 = FILL_AREA_STYLE ('',( #234 ) ) ;
#115 = SURFACE_STYLE_USAGE ( .BOTH. , #36 ) ;
#116 = AXIS2_PLACEMENT_3D ( 'NONE', #80, #213, #173 ) ;
#117 = DIRECTION ( 'NONE',  ( 0.000000000000000000, 0.000000000000000000, 1.000000000000000000 ) ) ;
#118 = DIRECTION ( 'NONE',  ( -1.311087047537675563E-16, 1.000000000000000000, -0.000000000000000000 ) ) ;
#119 = EDGE_CURVE ( 'NONE', #45, #25, #187, .T. ) ;
#120 = CYLINDRICAL_SURFACE ( 'NONE', #9, 0.06249999999999970163 ) ;
#121 = SURFACE_STYLE_FILL_AREA ( #38 ) ;
#122 = EDGE_CURVE ( 'NONE', #250, #170, #67, .T. ) ;
#123 = COLOUR_RGB ( '',1.000000000000000000, 0.000000000000000000, 0.000000000000000000 ) ;
#124 = CARTESIAN_POINT ( 'NONE',  ( 0.06250000000000000000, 0.03608439182435141390, 7.654042494670957545E-18 ) ) ;
#125 = ORIENTED_EDGE ( 'NONE', *, *, #221, .T. ) ;
#126 =( GEOMETRIC_REPRESENTATION_CONTEXT ( 3 ) GLOBAL_UNCERTAINTY_ASSIGNED_CONTEXT ( ( #161 ) ) GLOBAL_UNIT_ASSIGNED_CONTEXT ( ( #99, #263, #261 ) ) REPRESENTATION_CONTEXT ( 'NONE', 'WORKASPACE' ) );
#127 = CARTESIAN_POINT ( 'NONE',  ( 0.000000000000000000, 0.000000000000000000, 0.000000000000000000 ) ) ;
#128 = ORIENTED_EDGE ( 'NONE', *, *, #87, .T. ) ;
#129 = FILL_AREA_STYLE_COLOUR ( '', #188 ) ;
#130 = CARTESIAN_POINT ( 'NONE',  ( -0.06249999999999922978, 0.03608439182435148329, 0.000000000000000000 ) ) ;
#131 = PRODUCT_DEFINITION ( 'UNKNOWN', '', #209, #50 ) ;
#132 = AXIS2_PLACEMENT_3D ( 'NONE', #167, #43, #225 ) ;
#133 = VERTEX_POINT ( 'NONE', #124 ) ;
#134 = PRESENTATION_STYLE_ASSIGNMENT (( #115 ) ) ;
#135 = UNCERTAINTY_MEASURE_WITH_UNIT (LENGTH_MEASURE( 1.000000000000000082E-05 ), #186, 'distance_accuracy_value', 'NONE');
#136 =( GEOMETRIC_REPRESENTATION_CONTEXT ( 3 ) GLOBAL_UNCERTAINTY_ASSIGNED_CONTEXT ( ( #29 ) ) GLOBAL_UNIT_ASSIGNED_CONTEXT ( ( #31, #237, #137 ) ) REPRESENTATION_CONTEXT ( 'NONE', 'WORKASPACE' ) );
#137 =( NAMED_UNIT ( * ) SI_UNIT ( $, .STERADIAN. ) SOLID_ANGLE_UNIT ( ) );
#138 =( GEOMETRIC_REPRESENTATION_CONTEXT ( 3 ) GLOBAL_UNCERTAINTY_ASSIGNED_CONTEXT ( ( #196 ) ) GLOBAL_UNIT_ASSIGNED_CONTEXT ( ( #171, #152, #230 ) ) REPRESENTATION_CONTEXT ( 'NONE', 'WORKASPACE' ) );
#139 = DIMENSIONAL_EXPONENTS ( 1.000000000000000000, 0.000000000000000000, 0.000000000000000000, 0.000000000000000000, 0.000000000000000000, 0.000000000000000000, 0.000000000000000000 ) ;
#140 = PRESENTATION_STYLE_ASSIGNMENT (( #220 ) ) ;
#141 = STYLED_ITEM ( 'NONE', ( #134 ), #101 ) ;
#142 = DIRECTION ( 'NONE',  ( -1.000000000000000000, 0.000000000000000000, 0.000000000000000000 ) ) ;
#143 = PRODUCT ( '83818', '83818', '', ( #176 ) ) ;
#144 = AXIS2_PLACEMENT_3D ( 'NONE', #169, #109, #249 ) ;
#145 =( LENGTH_UNIT ( ) NAMED_UNIT ( * ) SI_UNIT ( $, .METRE. ) );
#146 = CARTESIAN_POINT ( 'NONE',  ( 3.756290991288361679E-16, 0.03608439182435138615, 0.000000000000000000 ) ) ;
#147 = ORIENTED_EDGE ( 'NONE', *, *, #122, .F. ) ;
#148 = APPLICATION_CONTEXT ( 'automotive_design' ) ;
#149 = FILL_AREA_STYLE ('',( #129 ) ) ;
#150 = EDGE_LOOP ( 'NONE', ( #84, #246, #207 ) ) ;
#151 = AXIS2_PLACEMENT_3D ( 'NONE', #162, #57, #75 ) ;
#152 =( NAMED_UNIT ( * ) PLANE_ANGLE_UNIT ( ) SI_UNIT ( $, .RADIAN. ) );
#153 = EDGE_LOOP ( 'NONE', ( #156, #63, #7 ) ) ;
#154 = DIRECTION ( 'NONE',  ( -2.181055688107446795E-17, -1.000000000000000000, -0.000000000000000000 ) ) ;
#155 = CARTESIAN_POINT ( 'NONE',  ( 0.06249999999999999306, 0.03608439182435150411, 7.654042494670926730E-18 ) ) ;
#156 = ORIENTED_EDGE ( 'NONE', *, *, #210, .F. ) ;
#157 = DIRECTION ( 'NONE',  ( -1.000000000000000000, 0.000000000000000000, 0.000000000000000000 ) ) ;
#158 = CARTESIAN_POINT ( 'NONE',  ( 0.06249999999999988898, 1.500000000000000222, 7.654042494670920567E-18 ) ) ;
#159 = STYLED_ITEM ( 'NONE', ( #78 ), #198 ) ;
#160 = SURFACE_STYLE_FILL_AREA ( #70 ) ;
#161 = UNCERTAINTY_MEASURE_WITH_UNIT (LENGTH_MEASURE( 1.000000000000000082E-05 ), #99, 'distance_accuracy_value', 'NONE');
#162 = CARTESIAN_POINT ( 'NONE',  ( 3.756290991288361679E-16, 0.03608439182435149023, 0.000000000000000000 ) ) ;
#163 = LENGTH_MEASURE_WITH_UNIT ( LENGTH_MEASURE( 0.02539999999999999897 ), #98 );
#164 = DIRECTION ( 'NONE',  ( -1.311087047537675563E-16, 1.000000000000000000, -0.000000000000000000 ) ) ;
#165 = COLOUR_RGB ( '',1.000000000000000000, 0.000000000000000000, 0.000000000000000000 ) ;
#166 = CARTESIAN_POINT ( 'NONE',  ( 0.06249999999999999306, 1.500000000000000222, 7.654042494670926730E-18 ) ) ;
#167 = CARTESIAN_POINT ( 'NONE',  ( 7.870206804039945545E-19, 0.03608439182435140696, 0.000000000000000000 ) ) ;
#168 = FACE_OUTER_BOUND ( 'NONE', #215, .T. ) ;
#169 = CARTESIAN_POINT ( 'NONE',  ( 0.06249999999999997918, 1.500000000000000222, 0.000000000000000000 ) ) ;
#170 = VERTEX_POINT ( 'NONE', #166 ) ;
#171 =( CONVERSION_BASED_UNIT ( 'INCH', #59 ) LENGTH_UNIT ( ) NAMED_UNIT ( #191 ) );
#172 = VECTOR ( 'NONE', #1, 39.37007874015748854 ) ;
#173 = DIRECTION ( 'NONE',  ( -1.000000000000000000, 0.000000000000000000, 0.000000000000000000 ) ) ;
#174 = CYLINDRICAL_SURFACE ( 'NONE', #27, 0.06249999999999970163 ) ;
#175 = AXIS2_PLACEMENT_3D ( 'NONE', #240, #41, #222 ) ;
#176 = PRODUCT_CONTEXT ( 'NONE', #148, 'mechanical' ) ;
#177 = DIRECTION ( 'NONE',  ( -1.311087047537675563E-16, 1.000000000000000000, -0.000000000000000000 ) ) ;
#178 = DIRECTION ( 'NONE',  ( 2.181055688107446795E-17, 1.000000000000000000, 0.000000000000000000 ) ) ;
#179 = DIRECTION ( 'NONE',  ( -1.000000000000000000, 0.000000000000000000, 0.000000000000000000 ) ) ;
#180 = EDGE_CURVE ( 'NONE', #170, #250, #104, .T. ) ;
#181 = DIRECTION ( 'NONE',  ( -1.311087047537675563E-16, 1.000000000000000000, -0.000000000000000000 ) ) ;
#182 = DIMENSIONAL_EXPONENTS ( 1.000000000000000000, 0.000000000000000000, 0.000000000000000000, 0.000000000000000000, 0.000000000000000000, 0.000000000000000000, 0.000000000000000000 ) ;
#183 = CIRCLE ( 'NONE', #175, 0.06249999999999999306 ) ;
#184 = LENGTH_MEASURE_WITH_UNIT ( LENGTH_MEASURE( 0.02539999999999999897 ), #145 );
#185 = PLANE ( 'NONE',  #132 ) ;
#186 =( CONVERSION_BASED_UNIT ( 'INCH', #44 ) LENGTH_UNIT ( ) NAMED_UNIT ( #235 ) );
#187 = CIRCLE ( 'NONE', #151, 0.06249999999999960448 ) ;
#188 = COLOUR_RGB ( '',1.000000000000000000, 0.000000000000000000, 0.000000000000000000 ) ;
#189 = EDGE_CURVE ( 'NONE', #133, #82, #183, .T. ) ;
#190 = ORIENTED_EDGE ( 'NONE', *, *, #189, .F. ) ;
#191 = DIMENSIONAL_EXPONENTS ( 1.000000000000000000, 0.000000000000000000, 0.000000000000000000, 0.000000000000000000, 0.000000000000000000, 0.000000000000000000, 0.000000000000000000 ) ;
#192 = DIRECTION ( 'NONE',  ( -1.000000000000000000, -1.311087047537675563E-16, 0.000000000000000000 ) ) ;
#193 = ORIENTED_EDGE ( 'NONE', *, *, #218, .F. ) ;
#194 = MANIFOLD_SOLID_BREP ( 'Revolve - Tool Body (Pointed)', #208 ) ;
#195 = AXIS2_PLACEMENT_3D ( 'NONE', #200, #178, #179 ) ;
#196 = UNCERTAINTY_MEASURE_WITH_UNIT (LENGTH_MEASURE( 1.000000000000000082E-05 ), #171, 'distance_accuracy_value', 'NONE');
#197 =( LENGTH_UNIT ( ) NAMED_UNIT ( * ) SI_UNIT ( $, .METRE. ) );
#198 = ADVANCED_FACE ( 'NONE', ( #76 ), #185, .T. ) ;
#199 = PRESENTATION_LAYER_ASSIGNMENT (  '', '', ( #229 ) ) ;
#200 = CARTESIAN_POINT ( 'NONE',  ( 8.586833417745853746E-16, 39.37007874015748143, 0.000000000000000000 ) ) ;
#201 = SURFACE_SIDE_STYLE ('',( #15 ) ) ;
#202 = SURFACE_STYLE_USAGE ( .BOTH. , #265 ) ;
#203 =( NAMED_UNIT ( * ) SI_UNIT ( $, .STERADIAN. ) SOLID_ANGLE_UNIT ( ) );
#204 = DIRECTION ( 'NONE',  ( -1.311087047537675563E-16, 1.000000000000000000, -0.000000000000000000 ) ) ;
#205 = FILL_AREA_STYLE ('',( #102 ) ) ;
#206 = PRESENTATION_STYLE_ASSIGNMENT (( #232 ) ) ;
#207 = ORIENTED_EDGE ( 'NONE', *, *, #218, .T. ) ;
#208 = CLOSED_SHELL ( 'NONE', ( #49, #248, #90, #256 ) ) ;
#209 = PRODUCT_DEFINITION_FORMATION_WITH_SPECIFIED_SOURCE ( 'ANY', '', #143, .NOT_KNOWN. ) ;
#210 = EDGE_CURVE ( 'NONE', #212, #82, #245, .T. ) ;
#211 = PLANE ( 'NONE',  #28 ) ;
#212 = VERTEX_POINT ( 'NONE', #62 ) ;
#213 = DIRECTION ( 'NONE',  ( 2.181055688107446795E-17, 1.000000000000000000, 0.000000000000000000 ) ) ;
#214 = MECHANICAL_DESIGN_GEOMETRIC_PRESENTATION_REPRESENTATION (  '', ( #141 ), #136 ) ;
#215 = EDGE_LOOP ( 'NONE', ( #233, #243 ) ) ;
#216 = CARTESIAN_POINT ( 'NONE',  ( -0.06250000000000000000, 0.03608439182435141390, 0.000000000000000000 ) ) ;
#217 =( LENGTH_UNIT ( ) NAMED_UNIT ( * ) SI_UNIT ( $, .METRE. ) );
#218 = EDGE_CURVE ( 'NONE', #82, #133, #10, .T. ) ;
#219 = CLOSED_SHELL ( 'NONE', ( #224, #198, #101 ) ) ;
#220 = SURFACE_STYLE_USAGE ( .BOTH. , #201 ) ;
#221 = EDGE_CURVE ( 'NONE', #25, #250, #244, .T. ) ;
#222 = DIRECTION ( 'NONE',  ( 1.000000000000000000, 0.000000000000000000, 0.000000000000000000 ) ) ;
#223 = MECHANICAL_DESIGN_GEOMETRIC_PRESENTATION_REPRESENTATION (  '', ( #60 ), #85 ) ;
#224 = ADVANCED_FACE ( 'NONE', ( #103 ), #34, .T. ) ;
#225 = DIRECTION ( 'NONE',  ( -1.000000000000000000, 2.181055688107446795E-17, 0.000000000000000000 ) ) ;
#226 = ORIENTED_EDGE ( 'NONE', *, *, #87, .F. ) ;
#227 = FACE_OUTER_BOUND ( 'NONE', #30, .T. ) ;
#228 = EDGE_LOOP ( 'NONE', ( #193, #190 ) ) ;
#229 = STYLED_ITEM ( 'NONE', ( #238 ), #108 ) ;
#230 =( NAMED_UNIT ( * ) SI_UNIT ( $, .STERADIAN. ) SOLID_ANGLE_UNIT ( ) );
#231 = ORIENTED_EDGE ( 'NONE', *, *, #65, .T. ) ;
#232 = SURFACE_STYLE_USAGE ( .BOTH. , #83 ) ;
#233 = ORIENTED_EDGE ( 'NONE', *, *, #122, .T. ) ;
#234 = FILL_AREA_STYLE_COLOUR ( '', #165 ) ;
#235 = DIMENSIONAL_EXPONENTS ( 1.000000000000000000, 0.000000000000000000, 0.000000000000000000, 0.000000000000000000, 0.000000000000000000, 0.000000000000000000, 0.000000000000000000 ) ;
#236 = FACE_OUTER_BOUND ( 'NONE', #23, .T. ) ;
#237 =( NAMED_UNIT ( * ) PLANE_ANGLE_UNIT ( ) SI_UNIT ( $, .RADIAN. ) );
#238 = PRESENTATION_STYLE_ASSIGNMENT (( #260 ) ) ;
#239 = DIRECTION ( 'NONE',  ( -1.000000000000000000, 0.000000000000000000, 0.000000000000000000 ) ) ;
#240 = CARTESIAN_POINT ( 'NONE',  ( 7.870206804039950360E-19, 0.03608439182435141390, 0.000000000000000000 ) ) ;
#241 = FILL_AREA_STYLE_COLOUR ( '', #123 ) ;
#242 =( NAMED_UNIT ( * ) SI_UNIT ( $, .STERADIAN. ) SOLID_ANGLE_UNIT ( ) );
#243 = ORIENTED_EDGE ( 'NONE', *, *, #180, .T. ) ;
#244 = LINE ( 'NONE', #19, #95 ) ;
#245 = LINE ( 'NONE', #127, #172 ) ;
#246 = ORIENTED_EDGE ( 'NONE', *, *, #210, .T. ) ;
#247 = PRESENTATION_LAYER_ASSIGNMENT (  '', '', ( #141 ) ) ;
#248 = ADVANCED_FACE ( 'NONE', ( #227 ), #211, .F. ) ;
#249 = DIRECTION ( 'NONE',  ( 1.000000000000000000, 1.311087047537675563E-16, 0.000000000000000000 ) ) ;
#250 = VERTEX_POINT ( 'NONE', #81 ) ;
#251 = PRODUCT_RELATED_PRODUCT_CATEGORY ( 'part', '', ( #143 ) ) ;
#252 = DIRECTION ( 'NONE',  ( 0.8660254037844397068, 0.4999999999999979461, 1.060575238724908024E-16 ) ) ;
#253 = VECTOR ( 'NONE', #252, 39.37007874015748854 ) ;
#254 = APPLICATION_PROTOCOL_DEFINITION ( 'draft international standard', 'automotive_design', 1998, #148 ) ;
#255 = DIRECTION ( 'NONE',  ( -1.000000000000000000, 0.000000000000000000, 0.000000000000000000 ) ) ;
#256 = ADVANCED_FACE ( 'NONE', ( #168 ), #24, .F. ) ;
#257 = SHAPE_DEFINITION_REPRESENTATION ( #58, #264 ) ;
#258 = UNCERTAINTY_MEASURE_WITH_UNIT (LENGTH_MEASURE( 1.000000000000000082E-05 ), #13, 'distance_accuracy_value', 'NONE');
#259 = CARTESIAN_POINT ( 'NONE',  ( 1.836970198721030181E-16, 1.500000000000000222, 0.000000000000000000 ) ) ;
#260 = SURFACE_STYLE_USAGE ( .BOTH. , #52 ) ;
#261 =( NAMED_UNIT ( * ) SI_UNIT ( $, .STERADIAN. ) SOLID_ANGLE_UNIT ( ) );
#262 = AXIS2_PLACEMENT_3D ( 'NONE', #14, #181, #89 ) ;
#263 =( NAMED_UNIT ( * ) PLANE_ANGLE_UNIT ( ) SI_UNIT ( $, .RADIAN. ) );
#264 = ADVANCED_BREP_SHAPE_REPRESENTATION ( '83818', ( #108, #194, #105 ), #138 ) ;
#265 = SURFACE_SIDE_STYLE ('',( #121 ) ) ;
ENDSEC;
END-ISO-10303-21;
