ISO-10303-21;
HEADER;
FILE_DESCRIPTION (( 'STEP AP214' ),
    '1' );
FILE_NAME ('81838.STEP',
    '2023-07-12T13:07:14',
    ( '' ),
    ( '' ),
    'SwSTEP 2.0',
    'SolidWorks 2023',
    '' );
FILE_SCHEMA (( 'AUTOMOTIVE_DESIGN' ));
ENDSEC;

DATA;
#1 = FILL_AREA_STYLE_COLOUR ( '', #36 ) ;
#2 = VERTEX_POINT ( 'NONE', #238 ) ;
#3 =( GEOMETRIC_REPRESENTATION_CONTEXT ( 3 ) GLOBAL_UNCERTAINTY_ASSIGNED_CONTEXT ( ( #65 ) ) GLOBAL_UNIT_ASSIGNED_CONTEXT ( ( #218, #111, #55 ) ) REPRESENTATION_CONTEXT ( 'NONE', 'WORKASPACE' ) );
#4 = MECHANICAL_DESIGN_GEOMETRIC_PRESENTATION_REPRESENTATION (  '', ( #135 ), #301 ) ;
#5 = CARTESIAN_POINT ( 'NONE',  ( 0.03500000000000000333, 0.000000000000000000, 4.286263797015735979E-18 ) ) ;
#6 = CARTESIAN_POINT ( 'NONE',  ( 0.03500000000000000333, 0.000000000000000000, 1.362419564051430970E-17 ) ) ;
#7 = AXIS2_PLACEMENT_3D ( 'NONE', #92, #270, #15 ) ;
#8 = SURFACE_STYLE_FILL_AREA ( #57 ) ;
#9 = DIRECTION ( 'NONE',  ( -1.199608312323460365E-16, 1.000000000000000000, -0.000000000000000000 ) ) ;
#10 = DIMENSIONAL_EXPONENTS ( 1.000000000000000000, 0.000000000000000000, 0.000000000000000000, 0.000000000000000000, 0.000000000000000000, 0.000000000000000000, 0.000000000000000000 ) ;
#11 =( LENGTH_UNIT ( ) NAMED_UNIT ( * ) SI_UNIT ( $, .METRE. ) );
#12 = AXIS2_PLACEMENT_3D ( 'NONE', #109, #262, #152 ) ;
#13 = FILL_AREA_STYLE_COLOUR ( '', #17 ) ;
#14 = DIMENSIONAL_EXPONENTS ( 1.000000000000000000, 0.000000000000000000, 0.000000000000000000, 0.000000000000000000, 0.000000000000000000, 0.000000000000000000, 0.000000000000000000 ) ;
#15 = DIRECTION ( 'NONE',  ( 1.000000000000000000, 0.000000000000000000, 0.000000000000000000 ) ) ;
#16 = VECTOR ( 'NONE', #29, 39.37007874015748854 ) ;
#17 = COLOUR_RGB ( '',1.000000000000000000, 0.000000000000000000, 0.000000000000000000 ) ;
#18 = MANIFOLD_SOLID_BREP ( 'Revolve - Cutting Edge', #105 ) ;
#19 = LENGTH_MEASURE_WITH_UNIT ( LENGTH_MEASURE( 0.02539999999999999897 ), #233 );
#20 = PRODUCT_DEFINITION_SHAPE ( 'NONE', 'NONE',  #70 ) ;
#21 = SHAPE_DEFINITION_REPRESENTATION ( #20, #60 ) ;
#22 = MANIFOLD_SOLID_BREP ( 'Revolve - Tool Body (Tipped Off)', #289 ) ;
#23 = ADVANCED_FACE ( 'NONE', ( #224 ), #101, .T. ) ;
#24 = DIRECTION ( 'NONE',  ( -1.199608312323460365E-16, 1.000000000000000000, -0.000000000000000000 ) ) ;
#25 = STYLED_ITEM ( 'NONE', ( #236 ), #22 ) ;
#26 = CIRCLE ( 'NONE', #7, 0.1875000000000000278 ) ;
#27 = SURFACE_STYLE_USAGE ( .BOTH. , #140 ) ;
#28 = EDGE_LOOP ( 'NONE', ( #258, #168, #215, #280 ) ) ;
#29 = DIRECTION ( 'NONE',  ( 0.7071067811865486830, 0.7071067811865462405, 8.659560562354947649E-17 ) ) ;
#30 =( GEOMETRIC_REPRESENTATION_CONTEXT ( 3 ) GLOBAL_UNCERTAINTY_ASSIGNED_CONTEXT ( ( #128 ) ) GLOBAL_UNIT_ASSIGNED_CONTEXT ( ( #282, #142, #284 ) ) REPRESENTATION_CONTEXT ( 'NONE', 'WORKASPACE' ) );
#31 = EDGE_CURVE ( 'NONE', #40, #77, #148, .T. ) ;
#32 = CARTESIAN_POINT ( 'NONE',  ( 0.1874999999999997780, 4.000000000000000000, 2.296212748401286185E-17 ) ) ;
#33 = CARTESIAN_POINT ( 'NONE',  ( -0.1874999999999999722, 0.1524999999999994693, 0.000000000000000000 ) ) ;
#34 = DIMENSIONAL_EXPONENTS ( 1.000000000000000000, 0.000000000000000000, 0.000000000000000000, 0.000000000000000000, 0.000000000000000000, 0.000000000000000000, 0.000000000000000000 ) ;
#35 = DIRECTION ( 'NONE',  ( -1.000000000000000000, 0.000000000000000000, 0.000000000000000000 ) ) ;
#36 = COLOUR_RGB ( '',0.7921568627450980005, 0.8196078431372548767, 0.9333333333333333481 ) ;
#37 = SURFACE_STYLE_USAGE ( .BOTH. , #246 ) ;
#38 = PLANE ( 'NONE',  #146 ) ;
#39 =( NAMED_UNIT ( * ) SI_UNIT ( $, .STERADIAN. ) SOLID_ANGLE_UNIT ( ) );
#40 = VERTEX_POINT ( 'NONE', #6 ) ;
#41 = ORIENTED_EDGE ( 'NONE', *, *, #293, .T. ) ;
#42 = FILL_AREA_STYLE_COLOUR ( '', #235 ) ;
#43 = SURFACE_STYLE_FILL_AREA ( #255 ) ;
#44 = SURFACE_SIDE_STYLE ('',( #304 ) ) ;
#45 = CARTESIAN_POINT ( 'NONE',  ( 3.390846182517161929E-16, 0.1524999999999995248, 0.000000000000000000 ) ) ;
#46 = SURFACE_STYLE_FILL_AREA ( #104 ) ;
#47 = EDGE_CURVE ( 'NONE', #49, #79, #240, .T. ) ;
#48 = CIRCLE ( 'NONE', #205, 0.1875000000000001943 ) ;
#49 = VERTEX_POINT ( 'NONE', #259 ) ;
#50 = EDGE_CURVE ( 'NONE', #161, #69, #125, .T. ) ;
#51 = DIRECTION ( 'NONE',  ( -1.199608312323460365E-16, 1.000000000000000000, -0.000000000000000000 ) ) ;
#52 = CARTESIAN_POINT ( 'NONE',  ( 0.1875000000000000555, 4.000000000000000000, 2.296212748401287726E-17 ) ) ;
#53 = MECHANICAL_DESIGN_GEOMETRIC_PRESENTATION_REPRESENTATION (  '', ( #213 ), #230 ) ;
#54 = UNCERTAINTY_MEASURE_WITH_UNIT (LENGTH_MEASURE( 1.000000000000000082E-05 ), #114, 'distance_accuracy_value', 'NONE');
#55 =( NAMED_UNIT ( * ) SI_UNIT ( $, .STERADIAN. ) SOLID_ANGLE_UNIT ( ) );
#56 = ADVANCED_FACE ( 'NONE', ( #110 ), #172, .T. ) ;
#57 = FILL_AREA_STYLE ('',( #261 ) ) ;
#58 = FACE_OUTER_BOUND ( 'NONE', #107, .T. ) ;
#59 = LENGTH_MEASURE_WITH_UNIT ( LENGTH_MEASURE( 0.02539999999999999897 ), #250 );
#60 = ADVANCED_BREP_SHAPE_REPRESENTATION ( '81838', ( #18, #22, #85 ), #81 ) ;
#61 =( NAMED_UNIT ( * ) PLANE_ANGLE_UNIT ( ) SI_UNIT ( $, .RADIAN. ) );
#62 = PRESENTATION_LAYER_ASSIGNMENT (  '', '', ( #169 ) ) ;
#63 = CARTESIAN_POINT ( 'NONE',  ( 3.164107737514064848E-36, 3.327818667130050798E-19, 0.000000000000000000 ) ) ;
#64 = DIRECTION ( 'NONE',  ( 1.000000000000000000, -9.508053334657287113E-18, 0.000000000000000000 ) ) ;
#65 = UNCERTAINTY_MEASURE_WITH_UNIT (LENGTH_MEASURE( 1.000000000000000082E-05 ), #218, 'distance_accuracy_value', 'NONE');
#66 =( GEOMETRIC_REPRESENTATION_CONTEXT ( 3 ) GLOBAL_UNCERTAINTY_ASSIGNED_CONTEXT ( ( #297 ) ) GLOBAL_UNIT_ASSIGNED_CONTEXT ( ( #171, #61, #132 ) ) REPRESENTATION_CONTEXT ( 'NONE', 'WORKASPACE' ) );
#67 = DIRECTION ( 'NONE',  ( -1.199608312323460365E-16, 1.000000000000000000, -0.000000000000000000 ) ) ;
#68 = MECHANICAL_DESIGN_GEOMETRIC_PRESENTATION_REPRESENTATION (  '', ( #169 ), #291 ) ;
#69 = VERTEX_POINT ( 'NONE', #52 ) ;
#70 = PRODUCT_DEFINITION ( 'UNKNOWN', '', #228, #247 ) ;
#71 = DIRECTION ( 'NONE',  ( -1.199608312323460365E-16, 1.000000000000000000, -0.000000000000000000 ) ) ;
#72 = EDGE_LOOP ( 'NONE', ( #41, #118 ) ) ;
#73 = EDGE_LOOP ( 'NONE', ( #160, #283, #163, #138 ) ) ;
#74 = CARTESIAN_POINT ( 'NONE',  ( 0.1875000000000000555, 4.000000000000000000, 0.000000000000000000 ) ) ;
#75 = ADVANCED_FACE ( 'NONE', ( #86 ), #127, .F. ) ;
#76 = CONICAL_SURFACE ( 'NONE', #180, 0.03500000000000000333, 0.7853981633974500554 ) ;
#77 = VERTEX_POINT ( 'NONE', #287 ) ;
#78 = PLANE ( 'NONE',  #131 ) ;
#79 = VERTEX_POINT ( 'NONE', #33 ) ;
#80 = ORIENTED_EDGE ( 'NONE', *, *, #242, .F. ) ;
#81 =( GEOMETRIC_REPRESENTATION_CONTEXT ( 3 ) GLOBAL_UNCERTAINTY_ASSIGNED_CONTEXT ( ( #202 ) ) GLOBAL_UNIT_ASSIGNED_CONTEXT ( ( #120, #187, #39 ) ) REPRESENTATION_CONTEXT ( 'NONE', 'WORKASPACE' ) );
#82 = LENGTH_MEASURE_WITH_UNIT ( LENGTH_MEASURE( 0.02539999999999999897 ), #256 );
#83 = DIRECTION ( 'NONE',  ( -1.000000000000000000, 9.508053334657287113E-18, 0.000000000000000000 ) ) ;
#84 = ADVANCED_FACE ( 'NONE', ( #58 ), #220, .T. ) ;
#85 = AXIS2_PLACEMENT_3D ( 'NONE', #108, #195, #167 ) ;
#86 = FACE_OUTER_BOUND ( 'NONE', #249, .T. ) ;
#87 = SURFACE_SIDE_STYLE ('',( #201 ) ) ;
#88 =( NAMED_UNIT ( * ) PLANE_ANGLE_UNIT ( ) SI_UNIT ( $, .RADIAN. ) );
#89 = DIRECTION ( 'NONE',  ( -9.508053334657287113E-18, -1.000000000000000000, -0.000000000000000000 ) ) ;
#90 = AXIS2_PLACEMENT_3D ( 'NONE', #294, #89, #156 ) ;
#91 = EDGE_CURVE ( 'NONE', #49, #40, #217, .T. ) ;
#92 = CARTESIAN_POINT ( 'NONE',  ( 1.449978133535231439E-18, 0.1524999999999994693, 0.000000000000000000 ) ) ;
#93 = COLOUR_RGB ( '',1.000000000000000000, 0.000000000000000000, 0.000000000000000000 ) ;
#94 =( NAMED_UNIT ( * ) SI_UNIT ( $, .STERADIAN. ) SOLID_ANGLE_UNIT ( ) );
#95 = CONICAL_SURFACE ( 'NONE', #170, 0.03500000000000000333, 0.7853981633974500554 ) ;
#96 = CARTESIAN_POINT ( 'NONE',  ( -0.1875000000000003331, 4.000000000000000000, 0.000000000000000000 ) ) ;
#97 = ORIENTED_EDGE ( 'NONE', *, *, #126, .F. ) ;
#98 = DIRECTION ( 'NONE',  ( 1.000000000000000000, 1.199608312323460365E-16, 0.000000000000000000 ) ) ;
#99 = FILL_AREA_STYLE_COLOUR ( '', #245 ) ;
#100 = CIRCLE ( 'NONE', #191, 0.1875000000000001943 ) ;
#101 = CYLINDRICAL_SURFACE ( 'NONE', #309, 0.1874999999999999167 ) ;
#102 = SURFACE_STYLE_USAGE ( .BOTH. , #234 ) ;
#103 = EDGE_CURVE ( 'NONE', #40, #49, #227, .T. ) ;
#104 = FILL_AREA_STYLE ('',( #1 ) ) ;
#105 = CLOSED_SHELL ( 'NONE', ( #134, #56, #299, #145 ) ) ;
#106 = VECTOR ( 'NONE', #117, 39.37007874015748143 ) ;
#107 = EDGE_LOOP ( 'NONE', ( #211, #277, #123, #185 ) ) ;
#108 = CARTESIAN_POINT ( 'NONE',  ( 0.000000000000000000, 0.000000000000000000, 0.000000000000000000 ) ) ;
#109 = CARTESIAN_POINT ( 'NONE',  ( -1.224646799147352714E-16, 4.000000000000000000, 0.000000000000000000 ) ) ;
#110 = FACE_OUTER_BOUND ( 'NONE', #285, .T. ) ;
#111 =( NAMED_UNIT ( * ) PLANE_ANGLE_UNIT ( ) SI_UNIT ( $, .RADIAN. ) );
#112 =( CONVERSION_BASED_UNIT ( 'INCH', #243 ) LENGTH_UNIT ( ) NAMED_UNIT ( #175 ) );
#113 = ORIENTED_EDGE ( 'NONE', *, *, #303, .F. ) ;
#114 =( CONVERSION_BASED_UNIT ( 'INCH', #59 ) LENGTH_UNIT ( ) NAMED_UNIT ( #14 ) );
#115 =( CONVERSION_BASED_UNIT ( 'INCH', #208 ) LENGTH_UNIT ( ) NAMED_UNIT ( #10 ) );
#116 = STYLED_ITEM ( 'NONE', ( #231 ), #18 ) ;
#117 = DIRECTION ( 'NONE',  ( -1.199608312323460365E-16, 1.000000000000000000, -0.000000000000000000 ) ) ;
#118 = ORIENTED_EDGE ( 'NONE', *, *, #126, .T. ) ;
#119 = PRODUCT_CONTEXT ( 'NONE', #189, 'mechanical' ) ;
#120 =( CONVERSION_BASED_UNIT ( 'INCH', #19 ) LENGTH_UNIT ( ) NAMED_UNIT ( #34 ) );
#121 = FACE_OUTER_BOUND ( 'NONE', #73, .T. ) ;
#122 = CIRCLE ( 'NONE', #197, 0.1874999999999996669 ) ;
#123 = ORIENTED_EDGE ( 'NONE', *, *, #293, .F. ) ;
#124 =( LENGTH_UNIT ( ) NAMED_UNIT ( * ) SI_UNIT ( $, .METRE. ) );
#125 = LINE ( 'NONE', #32, #222 ) ;
#126 = EDGE_CURVE ( 'NONE', #69, #214, #100, .T. ) ;
#127 = PLANE ( 'NONE',  #176 ) ;
#128 = UNCERTAINTY_MEASURE_WITH_UNIT (LENGTH_MEASURE( 1.000000000000000082E-05 ), #282, 'distance_accuracy_value', 'NONE');
#129 = FILL_AREA_STYLE_COLOUR ( '', #93 ) ;
#130 = STYLED_ITEM ( 'NONE', ( #199 ), #56 ) ;
#131 = AXIS2_PLACEMENT_3D ( 'NONE', #74, #300, #98 ) ;
#132 =( NAMED_UNIT ( * ) SI_UNIT ( $, .STERADIAN. ) SOLID_ANGLE_UNIT ( ) );
#133 = ORIENTED_EDGE ( 'NONE', *, *, #196, .T. ) ;
#134 = ADVANCED_FACE ( 'NONE', ( #121 ), #95, .T. ) ;
#135 = STYLED_ITEM ( 'NONE', ( #184 ), #299 ) ;
#136 = CARTESIAN_POINT ( 'NONE',  ( -0.1875000000000000555, 4.000000000000000000, 0.000000000000000000 ) ) ;
#137 = DIMENSIONAL_EXPONENTS ( 1.000000000000000000, 0.000000000000000000, 0.000000000000000000, 0.000000000000000000, 0.000000000000000000, 0.000000000000000000, 0.000000000000000000 ) ;
#138 = ORIENTED_EDGE ( 'NONE', *, *, #47, .F. ) ;
#139 = PRESENTATION_LAYER_ASSIGNMENT (  '', '', ( #135 ) ) ;
#140 = SURFACE_SIDE_STYLE ('',( #43 ) ) ;
#141 =( NAMED_UNIT ( * ) PLANE_ANGLE_UNIT ( ) SI_UNIT ( $, .RADIAN. ) );
#142 =( NAMED_UNIT ( * ) PLANE_ANGLE_UNIT ( ) SI_UNIT ( $, .RADIAN. ) );
#143 = FILL_AREA_STYLE ('',( #42 ) ) ;
#144 = ORIENTED_EDGE ( 'NONE', *, *, #103, .T. ) ;
#145 = ADVANCED_FACE ( 'NONE', ( #207 ), #38, .T. ) ;
#146 = AXIS2_PLACEMENT_3D ( 'NONE', #203, #298, #295 ) ;
#147 = EDGE_LOOP ( 'NONE', ( #275, #144 ) ) ;
#148 = LINE ( 'NONE', #5, #16 ) ;
#149 = DIRECTION ( 'NONE',  ( -1.199608312323460365E-16, 1.000000000000000000, 0.000000000000000000 ) ) ;
#150 = SURFACE_SIDE_STYLE ('',( #200 ) ) ;
#151 =( NAMED_UNIT ( * ) SI_UNIT ( $, .STERADIAN. ) SOLID_ANGLE_UNIT ( ) );
#152 = DIRECTION ( 'NONE',  ( -1.000000000000000000, 0.000000000000000000, 0.000000000000000000 ) ) ;
#153 = FILL_AREA_STYLE ('',( #13 ) ) ;
#154 = FILL_AREA_STYLE ('',( #129 ) ) ;
#155 =( NAMED_UNIT ( * ) SI_UNIT ( $, .STERADIAN. ) SOLID_ANGLE_UNIT ( ) );
#156 = DIRECTION ( 'NONE',  ( 1.000000000000000000, -9.508053334657287113E-18, 0.000000000000000000 ) ) ;
#157 = PRESENTATION_STYLE_ASSIGNMENT (( #221 ) ) ;
#158 = MECHANICAL_DESIGN_GEOMETRIC_PRESENTATION_REPRESENTATION (  '', ( #116 ), #30 ) ;
#159 = DIRECTION ( 'NONE',  ( -1.000000000000000000, 0.000000000000000000, 0.000000000000000000 ) ) ;
#160 = ORIENTED_EDGE ( 'NONE', *, *, #103, .F. ) ;
#161 = VERTEX_POINT ( 'NONE', #226 ) ;
#162 = DIRECTION ( 'NONE',  ( -1.000000000000000000, -9.106159978880893419E-17, 0.000000000000000000 ) ) ;
#163 = ORIENTED_EDGE ( 'NONE', *, *, #292, .T. ) ;
#164 = PRESENTATION_LAYER_ASSIGNMENT (  '', '', ( #116 ) ) ;
#165 = AXIS2_PLACEMENT_3D ( 'NONE', #45, #24, #162 ) ;
#166 = CARTESIAN_POINT ( 'NONE',  ( -1.224646799147352714E-16, 4.000000000000000000, 0.000000000000000000 ) ) ;
#167 = DIRECTION ( 'NONE',  ( 1.000000000000000000, 0.000000000000000000, 0.000000000000000000 ) ) ;
#168 = ORIENTED_EDGE ( 'NONE', *, *, #91, .F. ) ;
#169 = STYLED_ITEM ( 'NONE', ( #157 ), #134 ) ;
#170 = AXIS2_PLACEMENT_3D ( 'NONE', #63, #225, #263 ) ;
#171 =( CONVERSION_BASED_UNIT ( 'INCH', #82 ) LENGTH_UNIT ( ) NAMED_UNIT ( #271 ) );
#172 = PLANE ( 'NONE',  #279 ) ;
#173 = SURFACE_STYLE_USAGE ( .BOTH. , #150 ) ;
#174 = CARTESIAN_POINT ( 'NONE',  ( 3.390846182517161929E-16, 0.1524999999999994693, 0.000000000000000000 ) ) ;
#175 = DIMENSIONAL_EXPONENTS ( 1.000000000000000000, 0.000000000000000000, 0.000000000000000000, 0.000000000000000000, 0.000000000000000000, 0.000000000000000000, 0.000000000000000000 ) ;
#176 = AXIS2_PLACEMENT_3D ( 'NONE', #174, #149, #219 ) ;
#177 = CARTESIAN_POINT ( 'NONE',  ( 3.164107737514064848E-36, 3.327818667130050798E-19, 0.000000000000000000 ) ) ;
#178 = CARTESIAN_POINT ( 'NONE',  ( -1.224646799147352714E-16, 4.000000000000000000, 0.000000000000000000 ) ) ;
#179 = CARTESIAN_POINT ( 'NONE',  ( 3.390846182517161929E-16, 0.1524999999999995248, 0.000000000000000000 ) ) ;
#180 = AXIS2_PLACEMENT_3D ( 'NONE', #181, #276, #253 ) ;
#181 = CARTESIAN_POINT ( 'NONE',  ( 3.164107737514064848E-36, 3.327818667130050798E-19, 0.000000000000000000 ) ) ;
#182 = EDGE_CURVE ( 'NONE', #79, #77, #26, .T. ) ;
#183 = SURFACE_STYLE_USAGE ( .BOTH. , #44 ) ;
#184 = PRESENTATION_STYLE_ASSIGNMENT (( #183 ) ) ;
#185 = ORIENTED_EDGE ( 'NONE', *, *, #196, .F. ) ;
#186 = PRESENTATION_LAYER_ASSIGNMENT (  '', '', ( #25 ) ) ;
#187 =( NAMED_UNIT ( * ) PLANE_ANGLE_UNIT ( ) SI_UNIT ( $, .RADIAN. ) );
#188 = CARTESIAN_POINT ( 'NONE',  ( -1.224646799147352714E-16, 4.000000000000000000, 0.000000000000000000 ) ) ;
#189 = APPLICATION_CONTEXT ( 'automotive_design' ) ;
#190 = MECHANICAL_DESIGN_GEOMETRIC_PRESENTATION_REPRESENTATION (  '', ( #130 ), #3 ) ;
#191 = AXIS2_PLACEMENT_3D ( 'NONE', #178, #272, #159 ) ;
#192 = ORIENTED_EDGE ( 'NONE', *, *, #242, .T. ) ;
#193 = APPLICATION_PROTOCOL_DEFINITION ( 'draft international standard', 'automotive_design', 1998, #189 ) ;
#194 = CARTESIAN_POINT ( 'NONE',  ( -0.03500000000000000333, 6.655637334260101595E-19, 0.000000000000000000 ) ) ;
#195 = DIRECTION ( 'NONE',  ( 0.000000000000000000, 0.000000000000000000, 1.000000000000000000 ) ) ;
#196 = EDGE_CURVE ( 'NONE', #2, #214, #251, .T. ) ;
#197 = AXIS2_PLACEMENT_3D ( 'NONE', #179, #71, #232 ) ;
#198 = UNCERTAINTY_MEASURE_WITH_UNIT (LENGTH_MEASURE( 1.000000000000000082E-05 ), #115, 'distance_accuracy_value', 'NONE');
#199 = PRESENTATION_STYLE_ASSIGNMENT (( #173 ) ) ;
#200 = SURFACE_STYLE_FILL_AREA ( #154 ) ;
#201 = SURFACE_STYLE_FILL_AREA ( #153 ) ;
#202 = UNCERTAINTY_MEASURE_WITH_UNIT (LENGTH_MEASURE( 1.000000000000000082E-05 ), #120, 'distance_accuracy_value', 'NONE');
#203 = CARTESIAN_POINT ( 'NONE',  ( 1.582053868757032424E-36, 1.663909333565025399E-19, 0.000000000000000000 ) ) ;
#204 = MECHANICAL_DESIGN_GEOMETRIC_PRESENTATION_REPRESENTATION (  '', ( #25 ), #66 ) ;
#205 = AXIS2_PLACEMENT_3D ( 'NONE', #166, #67, #307 ) ;
#206 = PRESENTATION_STYLE_ASSIGNMENT (( #37 ) ) ;
#207 = FACE_OUTER_BOUND ( 'NONE', #147, .T. ) ;
#208 = LENGTH_MEASURE_WITH_UNIT ( LENGTH_MEASURE( 0.02539999999999999897 ), #281 );
#209 = FACE_OUTER_BOUND ( 'NONE', #72, .T. ) ;
#210 = DIRECTION ( 'NONE',  ( 1.000000000000000000, 0.000000000000000000, 0.000000000000000000 ) ) ;
#211 = ORIENTED_EDGE ( 'NONE', *, *, #303, .T. ) ;
#212 = EDGE_LOOP ( 'NONE', ( #252, #192, #133, #97 ) ) ;
#213 = STYLED_ITEM ( 'NONE', ( #206 ), #145 ) ;
#214 = VERTEX_POINT ( 'NONE', #96 ) ;
#215 = ORIENTED_EDGE ( 'NONE', *, *, #47, .T. ) ;
#216 = ORIENTED_EDGE ( 'NONE', *, *, #182, .F. ) ;
#217 = CIRCLE ( 'NONE', #90, 0.03500000000000000333 ) ;
#218 =( CONVERSION_BASED_UNIT ( 'INCH', #244 ) LENGTH_UNIT ( ) NAMED_UNIT ( #137 ) );
#219 = DIRECTION ( 'NONE',  ( -1.000000000000000000, -1.199608312323460365E-16, 0.000000000000000000 ) ) ;
#220 = CYLINDRICAL_SURFACE ( 'NONE', #12, 0.1874999999999999167 ) ;
#221 = SURFACE_STYLE_USAGE ( .BOTH. , #87 ) ;
#222 = VECTOR ( 'NONE', #9, 39.37007874015748143 ) ;
#223 = COLOUR_RGB ( '',1.000000000000000000, 0.000000000000000000, 0.000000000000000000 ) ;
#224 = FACE_OUTER_BOUND ( 'NONE', #212, .T. ) ;
#225 = DIRECTION ( 'NONE',  ( 9.508053334657287113E-18, 1.000000000000000000, 0.000000000000000000 ) ) ;
#226 = CARTESIAN_POINT ( 'NONE',  ( 0.1874999999999999722, 0.1524999999999995526, 2.296212748401287109E-17 ) ) ;
#227 = CIRCLE ( 'NONE', #274, 0.03500000000000000333 ) ;
#228 = PRODUCT_DEFINITION_FORMATION_WITH_SPECIFIED_SOURCE ( 'ANY', '', #308, .NOT_KNOWN. ) ;
#229 = CARTESIAN_POINT ( 'NONE',  ( 1.449978133535231439E-18, 0.1524999999999994693, 0.000000000000000000 ) ) ;
#230 =( GEOMETRIC_REPRESENTATION_CONTEXT ( 3 ) GLOBAL_UNCERTAINTY_ASSIGNED_CONTEXT ( ( #241 ) ) GLOBAL_UNIT_ASSIGNED_CONTEXT ( ( #112, #88, #155 ) ) REPRESENTATION_CONTEXT ( 'NONE', 'WORKASPACE' ) );
#231 = PRESENTATION_STYLE_ASSIGNMENT (( #27 ) ) ;
#232 = DIRECTION ( 'NONE',  ( -1.000000000000000000, -9.106159978880893419E-17, 0.000000000000000000 ) ) ;
#233 =( LENGTH_UNIT ( ) NAMED_UNIT ( * ) SI_UNIT ( $, .METRE. ) );
#234 = SURFACE_SIDE_STYLE ('',( #46 ) ) ;
#235 = COLOUR_RGB ( '',1.000000000000000000, 0.000000000000000000, 0.000000000000000000 ) ;
#236 = PRESENTATION_STYLE_ASSIGNMENT (( #102 ) ) ;
#237 = ADVANCED_FACE ( 'NONE', ( #209 ), #78, .F. ) ;
#238 = CARTESIAN_POINT ( 'NONE',  ( -0.1874999999999993339, 0.1524999999999995248, 0.000000000000000000 ) ) ;
#239 = CARTESIAN_POINT ( 'NONE',  ( 1.449978133535231054E-18, 0.1524999999999994693, 0.000000000000000000 ) ) ;
#240 = LINE ( 'NONE', #194, #260 ) ;
#241 = UNCERTAINTY_MEASURE_WITH_UNIT (LENGTH_MEASURE( 1.000000000000000082E-05 ), #112, 'distance_accuracy_value', 'NONE');
#242 = EDGE_CURVE ( 'NONE', #161, #2, #122, .T. ) ;
#243 = LENGTH_MEASURE_WITH_UNIT ( LENGTH_MEASURE( 0.02539999999999999897 ), #11 );
#244 = LENGTH_MEASURE_WITH_UNIT ( LENGTH_MEASURE( 0.02539999999999999897 ), #248 );
#245 = COLOUR_RGB ( '',0.7921568627450980005, 0.8196078431372548767, 0.9333333333333333481 ) ;
#246 = SURFACE_SIDE_STYLE ('',( #8 ) ) ;
#247 = PRODUCT_DEFINITION_CONTEXT ( 'detailed design', #288, 'design' ) ;
#248 =( LENGTH_UNIT ( ) NAMED_UNIT ( * ) SI_UNIT ( $, .METRE. ) );
#249 = EDGE_LOOP ( 'NONE', ( #113, #80 ) ) ;
#250 =( LENGTH_UNIT ( ) NAMED_UNIT ( * ) SI_UNIT ( $, .METRE. ) );
#251 = LINE ( 'NONE', #136, #106 ) ;
#252 = ORIENTED_EDGE ( 'NONE', *, *, #50, .F. ) ;
#253 = DIRECTION ( 'NONE',  ( -1.000000000000000000, 9.508053334657287113E-18, 0.000000000000000000 ) ) ;
#254 = CIRCLE ( 'NONE', #267, 0.1875000000000000278 ) ;
#255 = FILL_AREA_STYLE ('',( #99 ) ) ;
#256 =( LENGTH_UNIT ( ) NAMED_UNIT ( * ) SI_UNIT ( $, .METRE. ) );
#257 = CIRCLE ( 'NONE', #165, 0.1874999999999996669 ) ;
#258 = ORIENTED_EDGE ( 'NONE', *, *, #31, .F. ) ;
#259 = CARTESIAN_POINT ( 'NONE',  ( -0.03500000000000000333, 6.655637334260101595E-19, 0.000000000000000000 ) ) ;
#260 = VECTOR ( 'NONE', #264, 39.37007874015748854 ) ;
#261 = FILL_AREA_STYLE_COLOUR ( '', #223 ) ;
#262 = DIRECTION ( 'NONE',  ( -1.199608312323460365E-16, 1.000000000000000000, -0.000000000000000000 ) ) ;
#263 = DIRECTION ( 'NONE',  ( -1.000000000000000000, 9.508053334657287113E-18, 0.000000000000000000 ) ) ;
#264 = DIRECTION ( 'NONE',  ( -0.7071067811865486830, 0.7071067811865462405, 0.000000000000000000 ) ) ;
#265 = PRESENTATION_LAYER_ASSIGNMENT (  '', '', ( #130 ) ) ;
#266 = PRODUCT_RELATED_PRODUCT_CATEGORY ( 'part', '', ( #308 ) ) ;
#267 = AXIS2_PLACEMENT_3D ( 'NONE', #229, #273, #210 ) ;
#268 = DIRECTION ( 'NONE',  ( -9.508053334657287113E-18, -1.000000000000000000, -0.000000000000000000 ) ) ;
#269 =( NAMED_UNIT ( * ) PLANE_ANGLE_UNIT ( ) SI_UNIT ( $, .RADIAN. ) );
#270 = DIRECTION ( 'NONE',  ( -9.508053334657287113E-18, -1.000000000000000000, -0.000000000000000000 ) ) ;
#271 = DIMENSIONAL_EXPONENTS ( 1.000000000000000000, 0.000000000000000000, 0.000000000000000000, 0.000000000000000000, 0.000000000000000000, 0.000000000000000000, 0.000000000000000000 ) ;
#272 = DIRECTION ( 'NONE',  ( -1.199608312323460365E-16, 1.000000000000000000, -0.000000000000000000 ) ) ;
#273 = DIRECTION ( 'NONE',  ( -9.508053334657287113E-18, -1.000000000000000000, -0.000000000000000000 ) ) ;
#274 = AXIS2_PLACEMENT_3D ( 'NONE', #177, #268, #64 ) ;
#275 = ORIENTED_EDGE ( 'NONE', *, *, #91, .T. ) ;
#276 = DIRECTION ( 'NONE',  ( 9.508053334657287113E-18, 1.000000000000000000, 0.000000000000000000 ) ) ;
#277 = ORIENTED_EDGE ( 'NONE', *, *, #50, .T. ) ;
#278 = ORIENTED_EDGE ( 'NONE', *, *, #292, .F. ) ;
#279 = AXIS2_PLACEMENT_3D ( 'NONE', #239, #286, #83 ) ;
#280 = ORIENTED_EDGE ( 'NONE', *, *, #182, .T. ) ;
#281 =( LENGTH_UNIT ( ) NAMED_UNIT ( * ) SI_UNIT ( $, .METRE. ) );
#282 =( CONVERSION_BASED_UNIT ( 'INCH', #305 ) LENGTH_UNIT ( ) NAMED_UNIT ( #290 ) );
#283 = ORIENTED_EDGE ( 'NONE', *, *, #31, .T. ) ;
#284 =( NAMED_UNIT ( * ) SI_UNIT ( $, .STERADIAN. ) SOLID_ANGLE_UNIT ( ) );
#285 = EDGE_LOOP ( 'NONE', ( #216, #278 ) ) ;
#286 = DIRECTION ( 'NONE',  ( 9.508053334657287113E-18, 1.000000000000000000, 0.000000000000000000 ) ) ;
#287 = CARTESIAN_POINT ( 'NONE',  ( 0.1874999999999999722, 0.1524999999999994693, 2.296212748401287109E-17 ) ) ;
#288 = APPLICATION_CONTEXT ( 'automotive_design' ) ;
#289 = CLOSED_SHELL ( 'NONE', ( #84, #75, #23, #237 ) ) ;
#290 = DIMENSIONAL_EXPONENTS ( 1.000000000000000000, 0.000000000000000000, 0.000000000000000000, 0.000000000000000000, 0.000000000000000000, 0.000000000000000000, 0.000000000000000000 ) ;
#291 =( GEOMETRIC_REPRESENTATION_CONTEXT ( 3 ) GLOBAL_UNCERTAINTY_ASSIGNED_CONTEXT ( ( #54 ) ) GLOBAL_UNIT_ASSIGNED_CONTEXT ( ( #114, #269, #151 ) ) REPRESENTATION_CONTEXT ( 'NONE', 'WORKASPACE' ) );
#292 = EDGE_CURVE ( 'NONE', #77, #79, #254, .T. ) ;
#293 = EDGE_CURVE ( 'NONE', #214, #69, #48, .T. ) ;
#294 = CARTESIAN_POINT ( 'NONE',  ( 3.164107737514064848E-36, 3.327818667130050798E-19, 0.000000000000000000 ) ) ;
#295 = DIRECTION ( 'NONE',  ( 1.000000000000000000, -9.508053334657287113E-18, 0.000000000000000000 ) ) ;
#296 = PRESENTATION_LAYER_ASSIGNMENT (  '', '', ( #213 ) ) ;
#297 = UNCERTAINTY_MEASURE_WITH_UNIT (LENGTH_MEASURE( 1.000000000000000082E-05 ), #171, 'distance_accuracy_value', 'NONE');
#298 = DIRECTION ( 'NONE',  ( -9.508053334657287113E-18, -1.000000000000000000, 0.000000000000000000 ) ) ;
#299 = ADVANCED_FACE ( 'NONE', ( #302 ), #76, .T. ) ;
#300 = DIRECTION ( 'NONE',  ( 1.199608312323460365E-16, -1.000000000000000000, 0.000000000000000000 ) ) ;
#301 =( GEOMETRIC_REPRESENTATION_CONTEXT ( 3 ) GLOBAL_UNCERTAINTY_ASSIGNED_CONTEXT ( ( #198 ) ) GLOBAL_UNIT_ASSIGNED_CONTEXT ( ( #115, #141, #94 ) ) REPRESENTATION_CONTEXT ( 'NONE', 'WORKASPACE' ) );
#302 = FACE_OUTER_BOUND ( 'NONE', #28, .T. ) ;
#303 = EDGE_CURVE ( 'NONE', #2, #161, #257, .T. ) ;
#304 = SURFACE_STYLE_FILL_AREA ( #143 ) ;
#305 = LENGTH_MEASURE_WITH_UNIT ( LENGTH_MEASURE( 0.02539999999999999897 ), #124 );
#306 = APPLICATION_PROTOCOL_DEFINITION ( 'draft international standard', 'automotive_design', 1998, #288 ) ;
#307 = DIRECTION ( 'NONE',  ( -1.000000000000000000, 0.000000000000000000, 0.000000000000000000 ) ) ;
#308 = PRODUCT ( '81838', '81838', '', ( #119 ) ) ;
#309 = AXIS2_PLACEMENT_3D ( 'NONE', #188, #51, #35 ) ;
ENDSEC;
END-ISO-10303-21;
