ISO-10303-21;
HEADER;
FILE_DESCRIPTION (( 'STEP AP214' ),
    '1' );
FILE_NAME ('59904.STEP',
    '2023-06-22T23:50:03',
    ( '' ),
    ( '' ),
    'SwSTEP 2.0',
    'SolidWorks 2023',
    '' );
FILE_SCHEMA (( 'AUTOMOTIVE_DESIGN' ));
ENDSEC;

DATA;
#1 = FILL_AREA_STYLE ('',( #29 ) ) ;
#2 = DIMENSIONAL_EXPONENTS ( 1.000000000000000000, 0.000000000000000000, 0.000000000000000000, 0.000000000000000000, 0.000000000000000000, 0.000000000000000000, 0.000000000000000000 ) ;
#3 = STYLED_ITEM ( 'NONE', ( #22 ), #217 ) ;
#4 = PRODUCT_DEFINITION_CONTEXT ( 'detailed design', #27, 'design' ) ;
#5 = DIRECTION ( 'NONE',  ( -0.000000000000000000, -1.000000000000000000, -0.000000000000000000 ) ) ;
#6 = APPLICATION_CONTEXT ( 'automotive_design' ) ;
#7 = MANIFOLD_SOLID_BREP ( 'Revolve - Cutting Edge', #275 ) ;
#8 = FILL_AREA_STYLE_COLOUR ( '', #48 ) ;
#9 = ORIENTED_EDGE ( 'NONE', *, *, #53, .T. ) ;
#10 = DIRECTION ( 'NONE',  ( 0.000000000000000000, 0.000000000000000000, -1.000000000000000000 ) ) ;
#11 = DIRECTION ( 'NONE',  ( -1.000000000000000000, 0.000000000000000000, 0.000000000000000000 ) ) ;
#12 = AXIS2_PLACEMENT_3D ( 'NONE', #73, #192, #260 ) ;
#13 = CARTESIAN_POINT ( 'NONE',  ( 0.000000000000000000, 0.000000000000000000, 0.000000000000000000 ) ) ;
#14 =( LENGTH_UNIT ( ) NAMED_UNIT ( * ) SI_UNIT ( $, .METRE. ) );
#15 = ORIENTED_EDGE ( 'NONE', *, *, #215, .F. ) ;
#16 = UNCERTAINTY_MEASURE_WITH_UNIT (LENGTH_MEASURE( 1.000000000000000082E-05 ), #265, 'distance_accuracy_value', 'NONE');
#17 = CIRCLE ( 'NONE', #87, 0.1250000000000000000 ) ;
#18 =( CONVERSION_BASED_UNIT ( 'INCH', #38 ) LENGTH_UNIT ( ) NAMED_UNIT ( #76 ) );
#19 = FILL_AREA_STYLE_COLOUR ( '', #258 ) ;
#20 = PLANE ( 'NONE',  #80 ) ;
#21 = PRODUCT_CONTEXT ( 'NONE', #6, 'mechanical' ) ;
#22 = PRESENTATION_STYLE_ASSIGNMENT (( #193 ) ) ;
#23 = PRESENTATION_LAYER_ASSIGNMENT (  '', '', ( #160 ) ) ;
#24 = ADVANCED_FACE ( 'NONE', ( #122 ), #31, .T. ) ;
#25 = CIRCLE ( 'NONE', #125, 0.1250000000000000000 ) ;
#26 = VERTEX_POINT ( 'NONE', #83 ) ;
#27 = APPLICATION_CONTEXT ( 'automotive_design' ) ;
#28 = PRESENTATION_LAYER_ASSIGNMENT (  '', '', ( #3 ) ) ;
#29 = FILL_AREA_STYLE_COLOUR ( '', #185 ) ;
#30 = SURFACE_SIDE_STYLE ('',( #79 ) ) ;
#31 = CYLINDRICAL_SURFACE ( 'NONE', #151, 0.1250000000000000278 ) ;
#32 = CARTESIAN_POINT ( 'NONE',  ( -6.123233995736766036E-17, 2.500000000000000000, 0.000000000000000000 ) ) ;
#33 = DIRECTION ( 'NONE',  ( 0.000000000000000000, 0.000000000000000000, -1.000000000000000000 ) ) ;
#34 = PLANE ( 'NONE',  #116 ) ;
#35 = ORIENTED_EDGE ( 'NONE', *, *, #254, .F. ) ;
#36 = CARTESIAN_POINT ( 'NONE',  ( 0.000000000000000000, 0.000000000000000000, 0.000000000000000000 ) ) ;
#37 = CARTESIAN_POINT ( 'NONE',  ( 0.1249999999999999584, 2.500000000000000000, 1.530808498934191817E-17 ) ) ;
#38 = LENGTH_MEASURE_WITH_UNIT ( LENGTH_MEASURE( 0.02539999999999999897 ), #14 );
#39 = PRESENTATION_LAYER_ASSIGNMENT (  '', '', ( #179 ) ) ;
#40 = FACE_OUTER_BOUND ( 'NONE', #289, .T. ) ;
#41 =( GEOMETRIC_REPRESENTATION_CONTEXT ( 3 ) GLOBAL_UNCERTAINTY_ASSIGNED_CONTEXT ( ( #155 ) ) GLOBAL_UNIT_ASSIGNED_CONTEXT ( ( #288, #188, #197 ) ) REPRESENTATION_CONTEXT ( 'NONE', 'WORKASPACE' ) );
#42 = CARTESIAN_POINT ( 'NONE',  ( 0.000000000000000000, 0.7500000000000001110, -0.1250000000000000000 ) ) ;
#43 =( GEOMETRIC_REPRESENTATION_CONTEXT ( 3 ) GLOBAL_UNCERTAINTY_ASSIGNED_CONTEXT ( ( #141 ) ) GLOBAL_UNIT_ASSIGNED_CONTEXT ( ( #236, #274, #295 ) ) REPRESENTATION_CONTEXT ( 'NONE', 'WORKASPACE' ) );
#44 = COLOUR_RGB ( '',1.000000000000000000, 0.000000000000000000, 0.000000000000000000 ) ;
#45 = COLOUR_RGB ( '',1.000000000000000000, 0.000000000000000000, 0.000000000000000000 ) ;
#46 = EDGE_CURVE ( 'NONE', #60, #238, #261, .T. ) ;
#47 = ORIENTED_EDGE ( 'NONE', *, *, #202, .F. ) ;
#48 = COLOUR_RGB ( '',0.7921568627450980005, 0.8196078431372548767, 0.9333333333333333481 ) ;
#49 = FILL_AREA_STYLE ('',( #216 ) ) ;
#50 = DIRECTION ( 'NONE',  ( -1.000000000000000000, 0.000000000000000000, 0.000000000000000000 ) ) ;
#51 = ORIENTED_EDGE ( 'NONE', *, *, #223, .F. ) ;
#52 = DIMENSIONAL_EXPONENTS ( 1.000000000000000000, 0.000000000000000000, 0.000000000000000000, 0.000000000000000000, 0.000000000000000000, 0.000000000000000000, 0.000000000000000000 ) ;
#53 = EDGE_CURVE ( 'NONE', #100, #175, #17, .T. ) ;
#54 = CARTESIAN_POINT ( 'NONE',  ( -6.123233995736766036E-17, 2.500000000000000000, 0.000000000000000000 ) ) ;
#55 = AXIS2_PLACEMENT_3D ( 'NONE', #199, #284, #267 ) ;
#56 = PRESENTATION_LAYER_ASSIGNMENT (  '', '', ( #242 ) ) ;
#57 = UNCERTAINTY_MEASURE_WITH_UNIT (LENGTH_MEASURE( 1.000000000000000082E-05 ), #148, 'distance_accuracy_value', 'NONE');
#58 = EDGE_CURVE ( 'NONE', #120, #26, #237, .T. ) ;
#59 =( LENGTH_UNIT ( ) NAMED_UNIT ( * ) SI_UNIT ( $, .METRE. ) );
#60 = VERTEX_POINT ( 'NONE', #74 ) ;
#61 = AXIS2_PLACEMENT_3D ( 'NONE', #251, #244, #248 ) ;
#62 = LINE ( 'NONE', #268, #220 ) ;
#63 = ORIENTED_EDGE ( 'NONE', *, *, #254, .T. ) ;
#64 = ADVANCED_FACE ( 'NONE', ( #104 ), #102, .T. ) ;
#65 = DIRECTION ( 'NONE',  ( 3.498990854706722745E-17, -1.000000000000000000, 0.000000000000000000 ) ) ;
#66 = CIRCLE ( 'NONE', #118, 0.1250000000000000000 ) ;
#67 = FILL_AREA_STYLE ('',( #19 ) ) ;
#68 = LINE ( 'NONE', #37, #97 ) ;
#69 = ADVANCED_FACE ( 'NONE', ( #131 ), #190, .F. ) ;
#70 = SURFACE_STYLE_USAGE ( .BOTH. , #82 ) ;
#71 =( NAMED_UNIT ( * ) PLANE_ANGLE_UNIT ( ) SI_UNIT ( $, .RADIAN. ) );
#72 =( GEOMETRIC_REPRESENTATION_CONTEXT ( 3 ) GLOBAL_UNCERTAINTY_ASSIGNED_CONTEXT ( ( #253 ) ) GLOBAL_UNIT_ASSIGNED_CONTEXT ( ( #256, #169, #211 ) ) REPRESENTATION_CONTEXT ( 'NONE', 'WORKASPACE' ) );
#73 = CARTESIAN_POINT ( 'NONE',  ( 0.000000000000000000, 0.000000000000000000, 0.000000000000000000 ) ) ;
#74 = CARTESIAN_POINT ( 'NONE',  ( 0.000000000000000000, 0.000000000000000000, -0.1250000000000000000 ) ) ;
#75 = EDGE_CURVE ( 'NONE', #26, #120, #174, .T. ) ;
#76 = DIMENSIONAL_EXPONENTS ( 1.000000000000000000, 0.000000000000000000, 0.000000000000000000, 0.000000000000000000, 0.000000000000000000, 0.000000000000000000, 0.000000000000000000 ) ;
#77 = CARTESIAN_POINT ( 'NONE',  ( 0.000000000000000000, 0.7500000000000001110, 0.000000000000000000 ) ) ;
#78 = LENGTH_MEASURE_WITH_UNIT ( LENGTH_MEASURE( 0.02539999999999999897 ), #59 );
#79 = SURFACE_STYLE_FILL_AREA ( #200 ) ;
#80 = AXIS2_PLACEMENT_3D ( 'NONE', #164, #109, #203 ) ;
#81 = PRODUCT_DEFINITION_FORMATION_WITH_SPECIFIED_SOURCE ( 'ANY', '', #250, .NOT_KNOWN. ) ;
#82 = SURFACE_SIDE_STYLE ('',( #293 ) ) ;
#83 = CARTESIAN_POINT ( 'NONE',  ( -0.1250000000000001388, 2.500000000000000000, 0.000000000000000000 ) ) ;
#84 = CARTESIAN_POINT ( 'NONE',  ( 0.000000000000000000, 0.7500000000000001110, 0.000000000000000000 ) ) ;
#85 = EDGE_LOOP ( 'NONE', ( #51, #264, #303, #47 ) ) ;
#86 = DIRECTION ( 'NONE',  ( -0.000000000000000000, -1.000000000000000000, -0.000000000000000000 ) ) ;
#87 = AXIS2_PLACEMENT_3D ( 'NONE', #84, #249, #33 ) ;
#88 = DIRECTION ( 'NONE',  ( -1.000000000000000000, -3.498990854706722745E-17, 0.000000000000000000 ) ) ;
#89 = AXIS2_PLACEMENT_3D ( 'NONE', #113, #65, #140 ) ;
#90 = LENGTH_MEASURE_WITH_UNIT ( LENGTH_MEASURE( 0.02539999999999999897 ), #184 );
#91 =( NAMED_UNIT ( * ) PLANE_ANGLE_UNIT ( ) SI_UNIT ( $, .RADIAN. ) );
#92 = PRESENTATION_STYLE_ASSIGNMENT (( #70 ) ) ;
#93 =( GEOMETRIC_REPRESENTATION_CONTEXT ( 3 ) GLOBAL_UNCERTAINTY_ASSIGNED_CONTEXT ( ( #195 ) ) GLOBAL_UNIT_ASSIGNED_CONTEXT ( ( #18, #91, #245 ) ) REPRESENTATION_CONTEXT ( 'NONE', 'WORKASPACE' ) );
#94 = DIRECTION ( 'NONE',  ( -1.000000000000000000, 0.000000000000000000, 0.000000000000000000 ) ) ;
#95 = APPLICATION_PROTOCOL_DEFINITION ( 'draft international standard', 'automotive_design', 1998, #6 ) ;
#96 = ORIENTED_EDGE ( 'NONE', *, *, #75, .T. ) ;
#97 = VECTOR ( 'NONE', #212, 39.37007874015748143 ) ;
#98 = ORIENTED_EDGE ( 'NONE', *, *, #114, .T. ) ;
#99 = ORIENTED_EDGE ( 'NONE', *, *, #162, .T. ) ;
#100 = VERTEX_POINT ( 'NONE', #42 ) ;
#101 = MECHANICAL_DESIGN_GEOMETRIC_PRESENTATION_REPRESENTATION (  '', ( #170 ), #72 ) ;
#102 = CYLINDRICAL_SURFACE ( 'NONE', #55, 0.1250000000000000000 ) ;
#103 = CYLINDRICAL_SURFACE ( 'NONE', #181, 0.1250000000000000278 ) ;
#104 = FACE_OUTER_BOUND ( 'NONE', #165, .T. ) ;
#105 = CLOSED_SHELL ( 'NONE', ( #232, #271, #24, #69 ) ) ;
#106 = ORIENTED_EDGE ( 'NONE', *, *, #46, .T. ) ;
#107 = FACE_OUTER_BOUND ( 'NONE', #163, .T. ) ;
#108 = SURFACE_STYLE_USAGE ( .BOTH. , #225 ) ;
#109 = DIRECTION ( 'NONE',  ( 0.000000000000000000, 1.000000000000000000, 0.000000000000000000 ) ) ;
#110 = ORIENTED_EDGE ( 'NONE', *, *, #307, .F. ) ;
#111 = ORIENTED_EDGE ( 'NONE', *, *, #53, .F. ) ;
#112 = DIRECTION ( 'NONE',  ( -0.000000000000000000, -1.000000000000000000, -0.000000000000000000 ) ) ;
#113 = CARTESIAN_POINT ( 'NONE',  ( 0.1250000000000000000, 2.500000000000000000, 0.000000000000000000 ) ) ;
#114 = EDGE_CURVE ( 'NONE', #296, #243, #262, .T. ) ;
#115 = AXIS2_PLACEMENT_3D ( 'NONE', #252, #213, #94 ) ;
#116 = AXIS2_PLACEMENT_3D ( 'NONE', #168, #257, #229 ) ;
#117 = ORIENTED_EDGE ( 'NONE', *, *, #75, .F. ) ;
#118 = AXIS2_PLACEMENT_3D ( 'NONE', #77, #5, #280 ) ;
#119 = PRESENTATION_STYLE_ASSIGNMENT (( #270 ) ) ;
#120 = VERTEX_POINT ( 'NONE', #255 ) ;
#121 = SURFACE_STYLE_FILL_AREA ( #49 ) ;
#122 = FACE_OUTER_BOUND ( 'NONE', #144, .T. ) ;
#123 = EDGE_CURVE ( 'NONE', #100, #60, #297, .T. ) ;
#124 = DIRECTION ( 'NONE',  ( 0.000000000000000000, 0.000000000000000000, -1.000000000000000000 ) ) ;
#125 = AXIS2_PLACEMENT_3D ( 'NONE', #285, #153, #124 ) ;
#126 = DIRECTION ( 'NONE',  ( -0.000000000000000000, -1.000000000000000000, -0.000000000000000000 ) ) ;
#127 = COLOUR_RGB ( '',0.7921568627450980005, 0.8196078431372548767, 0.9333333333333333481 ) ;
#128 = SURFACE_STYLE_FILL_AREA ( #135 ) ;
#129 = PRODUCT_RELATED_PRODUCT_CATEGORY ( 'part', '', ( #250 ) ) ;
#130 = EDGE_LOOP ( 'NONE', ( #35, #246 ) ) ;
#131 = FACE_OUTER_BOUND ( 'NONE', #263, .T. ) ;
#132 = SURFACE_STYLE_USAGE ( .BOTH. , #30 ) ;
#133 = PRESENTATION_STYLE_ASSIGNMENT (( #132 ) ) ;
#134 = AXIS2_PLACEMENT_3D ( 'NONE', #228, #205, #88 ) ;
#135 = FILL_AREA_STYLE ('',( #152 ) ) ;
#136 =( NAMED_UNIT ( * ) PLANE_ANGLE_UNIT ( ) SI_UNIT ( $, .RADIAN. ) );
#137 =( LENGTH_UNIT ( ) NAMED_UNIT ( * ) SI_UNIT ( $, .METRE. ) );
#138 = ORIENTED_EDGE ( 'NONE', *, *, #223, .T. ) ;
#139 = PLANE ( 'NONE',  #134 ) ;
#140 = DIRECTION ( 'NONE',  ( 1.000000000000000000, 3.498990854706722745E-17, 0.000000000000000000 ) ) ;
#141 = UNCERTAINTY_MEASURE_WITH_UNIT (LENGTH_MEASURE( 1.000000000000000082E-05 ), #236, 'distance_accuracy_value', 'NONE');
#142 = AXIS2_PLACEMENT_3D ( 'NONE', #172, #187, #234 ) ;
#143 = FILL_AREA_STYLE ('',( #201 ) ) ;
#144 = EDGE_LOOP ( 'NONE', ( #309, #98, #194, #198 ) ) ;
#145 =( LENGTH_UNIT ( ) NAMED_UNIT ( * ) SI_UNIT ( $, .METRE. ) );
#146 =( GEOMETRIC_REPRESENTATION_CONTEXT ( 3 ) GLOBAL_UNCERTAINTY_ASSIGNED_CONTEXT ( ( #16 ) ) GLOBAL_UNIT_ASSIGNED_CONTEXT ( ( #265, #149, #180 ) ) REPRESENTATION_CONTEXT ( 'NONE', 'WORKASPACE' ) );
#147 = MECHANICAL_DESIGN_GEOMETRIC_PRESENTATION_REPRESENTATION (  '', ( #242 ), #304 ) ;
#148 =( CONVERSION_BASED_UNIT ( 'INCH', #298 ) LENGTH_UNIT ( ) NAMED_UNIT ( #281 ) );
#149 =( NAMED_UNIT ( * ) PLANE_ANGLE_UNIT ( ) SI_UNIT ( $, .RADIAN. ) );
#150 = FACE_OUTER_BOUND ( 'NONE', #85, .T. ) ;
#151 = AXIS2_PLACEMENT_3D ( 'NONE', #279, #277, #50 ) ;
#152 = FILL_AREA_STYLE_COLOUR ( '', #45 ) ;
#153 = DIRECTION ( 'NONE',  ( -0.000000000000000000, -1.000000000000000000, -0.000000000000000000 ) ) ;
#154 = DIRECTION ( 'NONE',  ( -1.000000000000000000, 0.000000000000000000, 0.000000000000000000 ) ) ;
#155 = UNCERTAINTY_MEASURE_WITH_UNIT (LENGTH_MEASURE( 1.000000000000000082E-05 ), #288, 'distance_accuracy_value', 'NONE');
#156 = CARTESIAN_POINT ( 'NONE',  ( -0.1250000000000000000, 0.7499999999999998890, 0.000000000000000000 ) ) ;
#157 = SURFACE_SIDE_STYLE ('',( #218 ) ) ;
#158 = DIRECTION ( 'NONE',  ( -3.498990854706722745E-17, 1.000000000000000000, -0.000000000000000000 ) ) ;
#159 = LENGTH_MEASURE_WITH_UNIT ( LENGTH_MEASURE( 0.02539999999999999897 ), #166 );
#160 = STYLED_ITEM ( 'NONE', ( #92 ), #221 ) ;
#161 = AXIS2_PLACEMENT_3D ( 'NONE', #36, #86, #10 ) ;
#162 = EDGE_CURVE ( 'NONE', #296, #120, #68, .T. ) ;
#163 = EDGE_LOOP ( 'NONE', ( #63, #99, #117, #110 ) ) ;
#164 = CARTESIAN_POINT ( 'NONE',  ( 0.000000000000000000, 0.7500000000000001110, 0.000000000000000000 ) ) ;
#165 = EDGE_LOOP ( 'NONE', ( #9, #138, #240, #306 ) ) ;
#166 =( LENGTH_UNIT ( ) NAMED_UNIT ( * ) SI_UNIT ( $, .METRE. ) );
#167 = CARTESIAN_POINT ( 'NONE',  ( 0.1250000000000000278, 0.7499999999999998890, 1.530808498934192125E-17 ) ) ;
#168 = CARTESIAN_POINT ( 'NONE',  ( 0.000000000000000000, 0.000000000000000000, 0.000000000000000000 ) ) ;
#169 =( NAMED_UNIT ( * ) PLANE_ANGLE_UNIT ( ) SI_UNIT ( $, .RADIAN. ) );
#170 = STYLED_ITEM ( 'NONE', ( #133 ), #7 ) ;
#171 = SURFACE_STYLE_USAGE ( .BOTH. , #230 ) ;
#172 = CARTESIAN_POINT ( 'NONE',  ( -6.123233995736766036E-17, 2.500000000000000000, 0.000000000000000000 ) ) ;
#173 = ADVANCED_FACE ( 'NONE', ( #191 ), #20, .T. ) ;
#174 = CIRCLE ( 'NONE', #142, 0.1250000000000000555 ) ;
#175 = VERTEX_POINT ( 'NONE', #292 ) ;
#176 = DIMENSIONAL_EXPONENTS ( 1.000000000000000000, 0.000000000000000000, 0.000000000000000000, 0.000000000000000000, 0.000000000000000000, 0.000000000000000000, 0.000000000000000000 ) ;
#177 =( NAMED_UNIT ( * ) SI_UNIT ( $, .STERADIAN. ) SOLID_ANGLE_UNIT ( ) );
#178 = MECHANICAL_DESIGN_GEOMETRIC_PRESENTATION_REPRESENTATION (  '', ( #3 ), #247 ) ;
#179 = STYLED_ITEM ( 'NONE', ( #209 ), #173 ) ;
#180 =( NAMED_UNIT ( * ) SI_UNIT ( $, .STERADIAN. ) SOLID_ANGLE_UNIT ( ) );
#181 = AXIS2_PLACEMENT_3D ( 'NONE', #32, #158, #154 ) ;
#182 = PRESENTATION_STYLE_ASSIGNMENT (( #108 ) ) ;
#183 = DIRECTION ( 'NONE',  ( -0.000000000000000000, -1.000000000000000000, -0.000000000000000000 ) ) ;
#184 =( LENGTH_UNIT ( ) NAMED_UNIT ( * ) SI_UNIT ( $, .METRE. ) );
#185 = COLOUR_RGB ( '',1.000000000000000000, 0.000000000000000000, 0.000000000000000000 ) ;
#186 = AXIS2_PLACEMENT_3D ( 'NONE', #13, #126, #290 ) ;
#187 = DIRECTION ( 'NONE',  ( -3.498990854706722745E-17, 1.000000000000000000, -0.000000000000000000 ) ) ;
#188 =( NAMED_UNIT ( * ) PLANE_ANGLE_UNIT ( ) SI_UNIT ( $, .RADIAN. ) );
#189 = PRODUCT_DEFINITION ( 'UNKNOWN', '', #81, #4 ) ;
#190 = PLANE ( 'NONE',  #89 ) ;
#191 = FACE_OUTER_BOUND ( 'NONE', #227, .T. ) ;
#192 = DIRECTION ( 'NONE',  ( 0.000000000000000000, 0.000000000000000000, 1.000000000000000000 ) ) ;
#193 = SURFACE_STYLE_USAGE ( .BOTH. , #282 ) ;
#194 = ORIENTED_EDGE ( 'NONE', *, *, #307, .T. ) ;
#195 = UNCERTAINTY_MEASURE_WITH_UNIT (LENGTH_MEASURE( 1.000000000000000082E-05 ), #18, 'distance_accuracy_value', 'NONE');
#196 = MECHANICAL_DESIGN_GEOMETRIC_PRESENTATION_REPRESENTATION (  '', ( #160 ), #41 ) ;
#197 =( NAMED_UNIT ( * ) SI_UNIT ( $, .STERADIAN. ) SOLID_ANGLE_UNIT ( ) );
#198 = ORIENTED_EDGE ( 'NONE', *, *, #58, .F. ) ;
#199 = CARTESIAN_POINT ( 'NONE',  ( 0.000000000000000000, 0.000000000000000000, 0.000000000000000000 ) ) ;
#200 = FILL_AREA_STYLE ('',( #8 ) ) ;
#201 = FILL_AREA_STYLE_COLOUR ( '', #44 ) ;
#202 = EDGE_CURVE ( 'NONE', #238, #60, #25, .T. ) ;
#203 = DIRECTION ( 'NONE',  ( 0.000000000000000000, -0.000000000000000000, 1.000000000000000000 ) ) ;
#204 = LENGTH_MEASURE_WITH_UNIT ( LENGTH_MEASURE( 0.02539999999999999897 ), #137 );
#205 = DIRECTION ( 'NONE',  ( -3.498990854706722745E-17, 1.000000000000000000, 0.000000000000000000 ) ) ;
#206 = SURFACE_STYLE_FILL_AREA ( #67 ) ;
#207 =( CONVERSION_BASED_UNIT ( 'INCH', #210 ) LENGTH_UNIT ( ) NAMED_UNIT ( #52 ) );
#208 = UNCERTAINTY_MEASURE_WITH_UNIT (LENGTH_MEASURE( 1.000000000000000082E-05 ), #207, 'distance_accuracy_value', 'NONE');
#209 = PRESENTATION_STYLE_ASSIGNMENT (( #171 ) ) ;
#210 = LENGTH_MEASURE_WITH_UNIT ( LENGTH_MEASURE( 0.02539999999999999897 ), #273 );
#211 =( NAMED_UNIT ( * ) SI_UNIT ( $, .STERADIAN. ) SOLID_ANGLE_UNIT ( ) );
#212 = DIRECTION ( 'NONE',  ( -3.498990854706722745E-17, 1.000000000000000000, -0.000000000000000000 ) ) ;
#213 = DIRECTION ( 'NONE',  ( -3.498990854706722745E-17, 1.000000000000000000, -0.000000000000000000 ) ) ;
#214 = ADVANCED_BREP_SHAPE_REPRESENTATION ( '59904', ( #7, #217, #12 ), #93 ) ;
#215 = EDGE_CURVE ( 'NONE', #175, #100, #66, .T. ) ;
#216 = FILL_AREA_STYLE_COLOUR ( '', #127 ) ;
#217 = MANIFOLD_SOLID_BREP ( 'Revolve - Tool Body (Straight Shanked)', #105 ) ;
#218 = SURFACE_STYLE_FILL_AREA ( #143 ) ;
#219 = VECTOR ( 'NONE', #112, 39.37007874015748143 ) ;
#220 = VECTOR ( 'NONE', #183, 39.37007874015748143 ) ;
#221 = ADVANCED_FACE ( 'NONE', ( #150 ), #241, .T. ) ;
#222 = STYLED_ITEM ( 'NONE', ( #182 ), #64 ) ;
#223 = EDGE_CURVE ( 'NONE', #175, #238, #62, .T. ) ;
#224 = DIRECTION ( 'NONE',  ( -3.498990854706722745E-17, 1.000000000000000000, -0.000000000000000000 ) ) ;
#225 = SURFACE_SIDE_STYLE ('',( #128 ) ) ;
#226 = DIRECTION ( 'NONE',  ( -3.498990854706722745E-17, 1.000000000000000000, -0.000000000000000000 ) ) ;
#227 = EDGE_LOOP ( 'NONE', ( #111, #15 ) ) ;
#228 = CARTESIAN_POINT ( 'NONE',  ( 7.651835625825800871E-35, 0.7500000000000001110, 0.000000000000000000 ) ) ;
#229 = DIRECTION ( 'NONE',  ( 0.000000000000000000, 0.000000000000000000, -1.000000000000000000 ) ) ;
#230 = SURFACE_SIDE_STYLE ('',( #206 ) ) ;
#231 = CARTESIAN_POINT ( 'NONE',  ( -0.1250000000000001110, 2.500000000000000000, 0.000000000000000000 ) ) ;
#232 = ADVANCED_FACE ( 'NONE', ( #107 ), #103, .T. ) ;
#233 = PRESENTATION_LAYER_ASSIGNMENT (  '', '', ( #170 ) ) ;
#234 = DIRECTION ( 'NONE',  ( -1.000000000000000000, 0.000000000000000000, 0.000000000000000000 ) ) ;
#235 = LINE ( 'NONE', #231, #269 ) ;
#236 =( CONVERSION_BASED_UNIT ( 'INCH', #90 ) LENGTH_UNIT ( ) NAMED_UNIT ( #176 ) );
#237 = CIRCLE ( 'NONE', #302, 0.1250000000000000555 ) ;
#238 = VERTEX_POINT ( 'NONE', #287 ) ;
#239 = MECHANICAL_DESIGN_GEOMETRIC_PRESENTATION_REPRESENTATION (  '', ( #222 ), #146 ) ;
#240 = ORIENTED_EDGE ( 'NONE', *, *, #46, .F. ) ;
#241 = CYLINDRICAL_SURFACE ( 'NONE', #161, 0.1250000000000000000 ) ;
#242 = STYLED_ITEM ( 'NONE', ( #119 ), #300 ) ;
#243 = VERTEX_POINT ( 'NONE', #156 ) ;
#244 = DIRECTION ( 'NONE',  ( -3.498990854706722745E-17, 1.000000000000000000, -0.000000000000000000 ) ) ;
#245 =( NAMED_UNIT ( * ) SI_UNIT ( $, .STERADIAN. ) SOLID_ANGLE_UNIT ( ) );
#246 = ORIENTED_EDGE ( 'NONE', *, *, #114, .F. ) ;
#247 =( GEOMETRIC_REPRESENTATION_CONTEXT ( 3 ) GLOBAL_UNCERTAINTY_ASSIGNED_CONTEXT ( ( #57 ) ) GLOBAL_UNIT_ASSIGNED_CONTEXT ( ( #148, #71, #177 ) ) REPRESENTATION_CONTEXT ( 'NONE', 'WORKASPACE' ) );
#248 = DIRECTION ( 'NONE',  ( -1.000000000000000000, 0.000000000000000000, 0.000000000000000000 ) ) ;
#249 = DIRECTION ( 'NONE',  ( -0.000000000000000000, -1.000000000000000000, -0.000000000000000000 ) ) ;
#250 = PRODUCT ( '59904', '59904', '', ( #21 ) ) ;
#251 = CARTESIAN_POINT ( 'NONE',  ( -7.582401355855259480E-33, 0.7499999999999998890, 0.000000000000000000 ) ) ;
#252 = CARTESIAN_POINT ( 'NONE',  ( -7.582401355855259480E-33, 0.7499999999999998890, 0.000000000000000000 ) ) ;
#253 = UNCERTAINTY_MEASURE_WITH_UNIT (LENGTH_MEASURE( 1.000000000000000082E-05 ), #256, 'distance_accuracy_value', 'NONE');
#254 = EDGE_CURVE ( 'NONE', #243, #296, #259, .T. ) ;
#255 = CARTESIAN_POINT ( 'NONE',  ( 0.1250000000000000278, 2.500000000000000000, 1.530808498934192125E-17 ) ) ;
#256 =( CONVERSION_BASED_UNIT ( 'INCH', #204 ) LENGTH_UNIT ( ) NAMED_UNIT ( #301 ) );
#257 = DIRECTION ( 'NONE',  ( 0.000000000000000000, -1.000000000000000000, -0.000000000000000000 ) ) ;
#258 = COLOUR_RGB ( '',1.000000000000000000, 0.000000000000000000, 0.000000000000000000 ) ;
#259 = CIRCLE ( 'NONE', #61, 0.1250000000000000000 ) ;
#260 = DIRECTION ( 'NONE',  ( 1.000000000000000000, 0.000000000000000000, 0.000000000000000000 ) ) ;
#261 = CIRCLE ( 'NONE', #186, 0.1250000000000000000 ) ;
#262 = CIRCLE ( 'NONE', #115, 0.1250000000000000000 ) ;
#263 = EDGE_LOOP ( 'NONE', ( #96, #283 ) ) ;
#264 = ORIENTED_EDGE ( 'NONE', *, *, #215, .T. ) ;
#265 =( CONVERSION_BASED_UNIT ( 'INCH', #78 ) LENGTH_UNIT ( ) NAMED_UNIT ( #276 ) );
#266 = PRESENTATION_LAYER_ASSIGNMENT (  '', '', ( #222 ) ) ;
#267 = DIRECTION ( 'NONE',  ( 0.000000000000000000, 0.000000000000000000, -1.000000000000000000 ) ) ;
#268 = CARTESIAN_POINT ( 'NONE',  ( 1.530808498934191509E-17, 0.000000000000000000, 0.1250000000000000000 ) ) ;
#269 = VECTOR ( 'NONE', #226, 39.37007874015748143 ) ;
#270 = SURFACE_STYLE_USAGE ( .BOTH. , #157 ) ;
#271 = ADVANCED_FACE ( 'NONE', ( #291 ), #139, .F. ) ;
#272 = CARTESIAN_POINT ( 'NONE',  ( 0.000000000000000000, 0.000000000000000000, -0.1250000000000000000 ) ) ;
#273 =( LENGTH_UNIT ( ) NAMED_UNIT ( * ) SI_UNIT ( $, .METRE. ) );
#274 =( NAMED_UNIT ( * ) PLANE_ANGLE_UNIT ( ) SI_UNIT ( $, .RADIAN. ) );
#275 = CLOSED_SHELL ( 'NONE', ( #64, #173, #221, #300 ) ) ;
#276 = DIMENSIONAL_EXPONENTS ( 1.000000000000000000, 0.000000000000000000, 0.000000000000000000, 0.000000000000000000, 0.000000000000000000, 0.000000000000000000, 0.000000000000000000 ) ;
#277 = DIRECTION ( 'NONE',  ( -3.498990854706722745E-17, 1.000000000000000000, -0.000000000000000000 ) ) ;
#278 = ORIENTED_EDGE ( 'NONE', *, *, #202, .T. ) ;
#279 = CARTESIAN_POINT ( 'NONE',  ( -6.123233995736766036E-17, 2.500000000000000000, 0.000000000000000000 ) ) ;
#280 = DIRECTION ( 'NONE',  ( 0.000000000000000000, 0.000000000000000000, -1.000000000000000000 ) ) ;
#281 = DIMENSIONAL_EXPONENTS ( 1.000000000000000000, 0.000000000000000000, 0.000000000000000000, 0.000000000000000000, 0.000000000000000000, 0.000000000000000000, 0.000000000000000000 ) ;
#282 = SURFACE_SIDE_STYLE ('',( #121 ) ) ;
#283 = ORIENTED_EDGE ( 'NONE', *, *, #58, .T. ) ;
#284 = DIRECTION ( 'NONE',  ( -0.000000000000000000, -1.000000000000000000, -0.000000000000000000 ) ) ;
#285 = CARTESIAN_POINT ( 'NONE',  ( 0.000000000000000000, 0.000000000000000000, 0.000000000000000000 ) ) ;
#286 = MECHANICAL_DESIGN_GEOMETRIC_PRESENTATION_REPRESENTATION (  '', ( #179 ), #43 ) ;
#287 = CARTESIAN_POINT ( 'NONE',  ( 1.530808498934191509E-17, 0.000000000000000000, 0.1250000000000000000 ) ) ;
#288 =( CONVERSION_BASED_UNIT ( 'INCH', #159 ) LENGTH_UNIT ( ) NAMED_UNIT ( #2 ) );
#289 = EDGE_LOOP ( 'NONE', ( #106, #278 ) ) ;
#290 = DIRECTION ( 'NONE',  ( 0.000000000000000000, 0.000000000000000000, -1.000000000000000000 ) ) ;
#291 = FACE_OUTER_BOUND ( 'NONE', #130, .T. ) ;
#292 = CARTESIAN_POINT ( 'NONE',  ( 1.530808498934191509E-17, 0.7500000000000001110, 0.1250000000000000000 ) ) ;
#293 = SURFACE_STYLE_FILL_AREA ( #1 ) ;
#294 =( NAMED_UNIT ( * ) SI_UNIT ( $, .STERADIAN. ) SOLID_ANGLE_UNIT ( ) );
#295 =( NAMED_UNIT ( * ) SI_UNIT ( $, .STERADIAN. ) SOLID_ANGLE_UNIT ( ) );
#296 = VERTEX_POINT ( 'NONE', #167 ) ;
#297 = LINE ( 'NONE', #272, #219 ) ;
#298 = LENGTH_MEASURE_WITH_UNIT ( LENGTH_MEASURE( 0.02539999999999999897 ), #145 );
#299 = APPLICATION_PROTOCOL_DEFINITION ( 'draft international standard', 'automotive_design', 1998, #27 ) ;
#300 = ADVANCED_FACE ( 'NONE', ( #40 ), #34, .T. ) ;
#301 = DIMENSIONAL_EXPONENTS ( 1.000000000000000000, 0.000000000000000000, 0.000000000000000000, 0.000000000000000000, 0.000000000000000000, 0.000000000000000000, 0.000000000000000000 ) ;
#302 = AXIS2_PLACEMENT_3D ( 'NONE', #54, #224, #11 ) ;
#303 = ORIENTED_EDGE ( 'NONE', *, *, #123, .T. ) ;
#304 =( GEOMETRIC_REPRESENTATION_CONTEXT ( 3 ) GLOBAL_UNCERTAINTY_ASSIGNED_CONTEXT ( ( #208 ) ) GLOBAL_UNIT_ASSIGNED_CONTEXT ( ( #207, #136, #294 ) ) REPRESENTATION_CONTEXT ( 'NONE', 'WORKASPACE' ) );
#305 = SHAPE_DEFINITION_REPRESENTATION ( #308, #214 ) ;
#306 = ORIENTED_EDGE ( 'NONE', *, *, #123, .F. ) ;
#307 = EDGE_CURVE ( 'NONE', #243, #26, #235, .T. ) ;
#308 = PRODUCT_DEFINITION_SHAPE ( 'NONE', 'NONE',  #189 ) ;
#309 = ORIENTED_EDGE ( 'NONE', *, *, #162, .F. ) ;
ENDSEC;
END-ISO-10303-21;
