ISO-10303-21;
HEADER;
FILE_DESCRIPTION (( 'STEP AP214' ),
    '1' );
FILE_NAME ('Micro_BMS-023-2X.STEP',
    '2021-09-03T15:00:53',
    ( '' ),
    ( '' ),
    'SwSTEP 2.0',
    'SolidWorks 2020',
    '' );
FILE_SCHEMA (( 'AUTOMOTIVE_DESIGN' ));
ENDSEC;

DATA;
#1 = ORIENTED_EDGE ( 'NONE', *, *, #88, .T. ) ;
#2 = CARTESIAN_POINT ( 'NONE',  ( 0.04750000000000064587, 6.735557395310482421E-18, 1.500000000000000222 ) ) ;
#3 = ORIENTED_EDGE ( 'NONE', *, *, #131, .T. ) ;
#4 = CIRCLE ( 'NONE', #313, 0.01148850000000000218 ) ;
#5 = CARTESIAN_POINT ( 'NONE',  ( 2.110403212800655716E-18, 0.0000000000000000000, 0.0000000000000000000 ) ) ;
#6 = DIRECTION ( 'NONE',  ( 0.0000000000000000000, 0.0000000000000000000, 1.000000000000000000 ) ) ;
#7 = EDGE_CURVE ( 'NONE', #299, #157, #43, .T. ) ;
#8 = DIRECTION ( 'NONE',  ( 0.0000000000000000000, 0.0000000000000000000, -1.000000000000000000 ) ) ;
#9 = AXIS2_PLACEMENT_3D ( 'NONE', #183, #165, #64 ) ;
#10 = CYLINDRICAL_SURFACE ( 'NONE', #59, 0.06250000000000000000 ) ;
#11 = DIRECTION ( 'NONE',  ( 0.0000000000000000000, 0.0000000000000000000, 1.000000000000000000 ) ) ;
#12 = ADVANCED_FACE ( 'NONE', ( #80 ), #261, .T. ) ;
#13 = DIRECTION ( 'NONE',  ( 1.000000000000000000, 0.0000000000000000000, 0.0000000000000000000 ) ) ;
#14 = CIRCLE ( 'NONE', #269, 0.06250000000000000000 ) ;
#15 = COLOUR_RGB ( '',0.7921568627450980005, 0.8196078431372548767, 0.9333333333333333481 ) ;
#16 = CARTESIAN_POINT ( 'NONE',  ( 0.0000000000000000000, 0.0000000000000000000, 0.0000000000000000000 ) ) ;
#17 = EDGE_CURVE ( 'NONE', #104, #57, #171, .T. ) ;
#18 = DIRECTION ( 'NONE',  ( -1.224646799147353454E-16, -0.0000000000000000000, -1.000000000000000000 ) ) ;
#19 = CIRCLE ( 'NONE', #34, 0.01148850000000000392 ) ;
#20 =( GEOMETRIC_REPRESENTATION_CONTEXT ( 3 ) GLOBAL_UNCERTAINTY_ASSIGNED_CONTEXT ( ( #99 ) ) GLOBAL_UNIT_ASSIGNED_CONTEXT ( ( #170, #45, #203 ) ) REPRESENTATION_CONTEXT ( 'NONE', 'WORKASPACE' ) );
#21 = DIRECTION ( 'NONE',  ( -1.224646799147353454E-16, -0.0000000000000000000, -1.000000000000000000 ) ) ;
#22 = LENGTH_MEASURE_WITH_UNIT ( LENGTH_MEASURE( 0.02539999999999999897 ), #154 );
#23 = DIRECTION ( 'NONE',  ( 1.000000000000000000, 0.0000000000000000000, 0.0000000000000000000 ) ) ;
#24 = EDGE_LOOP ( 'NONE', ( #1, #256, #320, #177 ) ) ;
#25 = DIRECTION ( 'NONE',  ( 1.224646799147353454E-16, 0.0000000000000000000, 1.000000000000000000 ) ) ;
#26 = ORIENTED_EDGE ( 'NONE', *, *, #250, .T. ) ;
#27 = DIRECTION ( 'NONE',  ( 0.1736481776669313859, 0.0000000000000000000, 0.9848077530122077983 ) ) ;
#28 = ORIENTED_EDGE ( 'NONE', *, *, #243, .T. ) ;
#29 = DIRECTION ( 'NONE',  ( -1.000000000000000000, 0.0000000000000000000, 0.0000000000000000000 ) ) ;
#30 = CYLINDRICAL_SURFACE ( 'NONE', #317, 0.06250000000000000000 ) ;
#31 = ADVANCED_FACE ( 'NONE', ( #163 ), #180, .T. ) ;
#32 = FACE_OUTER_BOUND ( 'NONE', #202, .T. ) ;
#33 = VERTEX_POINT ( 'NONE', #233 ) ;
#34 = AXIS2_PLACEMENT_3D ( 'NONE', #296, #189, #39 ) ;
#35 = DIRECTION ( 'NONE',  ( 1.224646799147353207E-16, 1.000000000000000000, -0.0000000000000000000 ) ) ;
#36 = CARTESIAN_POINT ( 'NONE',  ( -0.06250000000000000000, 0.0000000000000000000, 1.500000000000000222 ) ) ;
#37 =( LENGTH_UNIT ( ) NAMED_UNIT ( * ) SI_UNIT ( $, .METRE. ) );
#38 = AXIS2_PLACEMENT_3D ( 'NONE', #312, #308, #141 ) ;
#39 = DIRECTION ( 'NONE',  ( -1.000000000000000000, 0.0000000000000000000, 1.857732728424254500E-16 ) ) ;
#40 = ADVANCED_FACE ( 'NONE', ( #182 ), #10, .T. ) ;
#41 = DIRECTION ( 'NONE',  ( 0.0000000000000000000, 0.0000000000000000000, 1.000000000000000000 ) ) ;
#42 = LINE ( 'NONE', #218, #214 ) ;
#43 = CIRCLE ( 'NONE', #265, 0.04750000000000064587 ) ;
#44 = MECHANICAL_DESIGN_GEOMETRIC_PRESENTATION_REPRESENTATION (  '', ( #63 ), #86 ) ;
#45 =( NAMED_UNIT ( * ) PLANE_ANGLE_UNIT ( ) SI_UNIT ( $, .RADIAN. ) );
#46 = DIMENSIONAL_EXPONENTS ( 1.000000000000000000, 0.0000000000000000000, 0.0000000000000000000, 0.0000000000000000000, 0.0000000000000000000, 0.0000000000000000000, 0.0000000000000000000 ) ;
#47 = SURFACE_STYLE_FILL_AREA ( #270 ) ;
#48 = ORIENTED_EDGE ( 'NONE', *, *, #264, .T. ) ;
#49 = LENGTH_MEASURE_WITH_UNIT ( LENGTH_MEASURE( 0.02539999999999999897 ), #121 );
#50 = ORIENTED_EDGE ( 'NONE', *, *, #145, .F. ) ;
#51 = PRODUCT ( 'Micro_BMS-023-2X', 'Micro_BMS-023-2X', '', ( #260 ) ) ;
#52 = CONICAL_SURFACE ( 'NONE', #298, 0.01148850000000000218, 0.1745329251994338915 ) ;
#53 = DIRECTION ( 'NONE',  ( 1.224646799147353454E-16, 0.0000000000000000000, 1.000000000000000000 ) ) ;
#54 = AXIS2_PLACEMENT_3D ( 'NONE', #238, #287, #164 ) ;
#55 = ORIENTED_EDGE ( 'NONE', *, *, #223, .T. ) ;
#56 = CARTESIAN_POINT ( 'NONE',  ( 0.01148850000000000565, 0.0000000000000000000, 0.03400000000000000244 ) ) ;
#57 = VERTEX_POINT ( 'NONE', #281 ) ;
#58 = CARTESIAN_POINT ( 'NONE',  ( -0.01148849999999999698, 1.406935475200436823E-18, 0.03400000000000000244 ) ) ;
#59 = AXIS2_PLACEMENT_3D ( 'NONE', #210, #112, #285 ) ;
#60 = CARTESIAN_POINT ( 'NONE',  ( -0.04750000000000064587, 0.0000000000000000000, 1.500000000000000222 ) ) ;
#61 = CARTESIAN_POINT ( 'NONE',  ( 1.406935475200437208E-18, 0.0000000000000000000, 0.01148850000000000218 ) ) ;
#62 = ORIENTED_EDGE ( 'NONE', *, *, #207, .T. ) ;
#63 = STYLED_ITEM ( 'NONE', ( #318 ), #219 ) ;
#64 = DIRECTION ( 'NONE',  ( -1.000000000000000000, 0.0000000000000000000, 0.0000000000000000000 ) ) ;
#65 = CARTESIAN_POINT ( 'NONE',  ( -0.04750000000000064587, 0.0000000000000000000, 1.500000000000000222 ) ) ;
#66 = ADVANCED_FACE ( 'NONE', ( #179 ), #136, .T. ) ;
#67 = AXIS2_PLACEMENT_3D ( 'NONE', #89, #41, #68 ) ;
#68 = DIRECTION ( 'NONE',  ( 1.000000000000000000, 0.0000000000000000000, 0.0000000000000000000 ) ) ;
#69 = ADVANCED_FACE ( 'NONE', ( #143 ), #30, .T. ) ;
#70 = CYLINDRICAL_SURFACE ( 'NONE', #124, 0.01148850000000000392 ) ;
#71 = VECTOR ( 'NONE', #87, 39.37007874015748143 ) ;
#72 = DIRECTION ( 'NONE',  ( 0.0000000000000000000, 0.0000000000000000000, 1.000000000000000000 ) ) ;
#73 = ORIENTED_EDGE ( 'NONE', *, *, #303, .F. ) ;
#74 = ORIENTED_EDGE ( 'NONE', *, *, #7, .F. ) ;
#75 = DIRECTION ( 'NONE',  ( 1.000000000000000000, 0.0000000000000000000, 0.0000000000000000000 ) ) ;
#76 = ORIENTED_EDGE ( 'NONE', *, *, #140, .F. ) ;
#77 = LINE ( 'NONE', #56, #192 ) ;
#78 = ORIENTED_EDGE ( 'NONE', *, *, #88, .F. ) ;
#79 = ORIENTED_EDGE ( 'NONE', *, *, #131, .F. ) ;
#80 = FACE_OUTER_BOUND ( 'NONE', #98, .T. ) ;
#81 = DIRECTION ( 'NONE',  ( -1.000000000000000000, 1.224646799147352961E-16, 0.0000000000000000000 ) ) ;
#82 = VECTOR ( 'NONE', #305, 39.37007874015748143 ) ;
#83 = DIRECTION ( 'NONE',  ( 1.000000000000000000, 0.0000000000000000000, 0.0000000000000000000 ) ) ;
#84 = DIRECTION ( 'NONE',  ( 0.0000000000000000000, 1.000000000000000000, 0.0000000000000000000 ) ) ;
#85 = CARTESIAN_POINT ( 'NONE',  ( 0.0000000000000000000, 0.0000000000000000000, 1.500000000000000222 ) ) ;
#86 =( GEOMETRIC_REPRESENTATION_CONTEXT ( 3 ) GLOBAL_UNCERTAINTY_ASSIGNED_CONTEXT ( ( #227 ) ) GLOBAL_UNIT_ASSIGNED_CONTEXT ( ( #190, #191, #294 ) ) REPRESENTATION_CONTEXT ( 'NONE', 'WORKASPACE' ) );
#87 = DIRECTION ( 'NONE',  ( 0.7071067811865456854, 8.659560562354911904E-17, -0.7071067811865493491 ) ) ;
#88 = EDGE_CURVE ( 'NONE', #110, #271, #151, .T. ) ;
#89 = CARTESIAN_POINT ( 'NONE',  ( 0.0000000000000000000, 0.0000000000000000000, 1.500000000000000222 ) ) ;
#90 = CIRCLE ( 'NONE', #200, 0.06250000000000000000 ) ;
#91 =( GEOMETRIC_REPRESENTATION_CONTEXT ( 3 ) GLOBAL_UNCERTAINTY_ASSIGNED_CONTEXT ( ( #109 ) ) GLOBAL_UNIT_ASSIGNED_CONTEXT ( ( #126, #178, #111 ) ) REPRESENTATION_CONTEXT ( 'NONE', 'WORKASPACE' ) );
#92 = CARTESIAN_POINT ( 'NONE',  ( 4.163799117101002470E-18, 0.0000000000000000000, 0.03400000000000000244 ) ) ;
#93 = DIRECTION ( 'NONE',  ( 1.000000000000000000, 0.0000000000000000000, 0.0000000000000000000 ) ) ;
#94 = ADVANCED_BREP_SHAPE_REPRESENTATION ( 'Micro_BMS-023-2X', ( #219, #142 ), #20 ) ;
#95 = DIMENSIONAL_EXPONENTS ( 1.000000000000000000, 0.0000000000000000000, 0.0000000000000000000, 0.0000000000000000000, 0.0000000000000000000, 0.0000000000000000000, 0.0000000000000000000 ) ;
#96 = ORIENTED_EDGE ( 'NONE', *, *, #197, .T. ) ;
#97 = CARTESIAN_POINT ( 'NONE',  ( 0.06250000000000004163, 7.654042494670960626E-18, 0.3233005925414271786 ) ) ;
#98 = EDGE_LOOP ( 'NONE', ( #245, #127, #73 ) ) ;
#99 = UNCERTAINTY_MEASURE_WITH_UNIT (LENGTH_MEASURE( 1.000000000000000082E-05 ), #170, 'distance_accuracy_value', 'NONE');
#100 = EDGE_CURVE ( 'NONE', #104, #33, #160, .T. ) ;
#101 = ORIENTED_EDGE ( 'NONE', *, *, #193, .F. ) ;
#102 = VECTOR ( 'NONE', #162, 39.37007874015748143 ) ;
#103 = CARTESIAN_POINT ( 'NONE',  ( 0.01148850000000000392, 1.406935475200437016E-18, -1.406935475200437593E-18 ) ) ;
#104 = VERTEX_POINT ( 'NONE', #5 ) ;
#105 = CARTESIAN_POINT ( 'NONE',  ( -0.01148849999999999698, 4.530488984935697088E-18, 0.03400000000000000244 ) ) ;
#106 = LINE ( 'NONE', #60, #102 ) ;
#107 = ORIENTED_EDGE ( 'NONE', *, *, #145, .T. ) ;
#108 = CIRCLE ( 'NONE', #293, 0.01148850000000000392 ) ;
#109 = UNCERTAINTY_MEASURE_WITH_UNIT (LENGTH_MEASURE( 1.000000000000000082E-05 ), #126, 'distance_accuracy_value', 'NONE');
#110 = VERTEX_POINT ( 'NONE', #105 ) ;
#111 =( NAMED_UNIT ( * ) SI_UNIT ( $, .STERADIAN. ) SOLID_ANGLE_UNIT ( ) );
#112 = DIRECTION ( 'NONE',  ( -0.0000000000000000000, -0.0000000000000000000, -1.000000000000000000 ) ) ;
#113 = FILL_AREA_STYLE_COLOUR ( '', #282 ) ;
#114 = EDGE_CURVE ( 'NONE', #110, #122, #206, .T. ) ;
#115 = CARTESIAN_POINT ( 'NONE',  ( 3.959290358183015222E-17, 0.0000000000000000000, 0.3233005925414271786 ) ) ;
#116 = CYLINDRICAL_SURFACE ( 'NONE', #289, 0.01148850000000000392 ) ;
#117 = EDGE_CURVE ( 'NONE', #157, #251, #106, .T. ) ;
#118 = DIRECTION ( 'NONE',  ( -1.000000000000000000, 0.0000000000000000000, 0.0000000000000000000 ) ) ;
#119 = APPLICATION_PROTOCOL_DEFINITION ( 'draft international standard', 'automotive_design', 1998, #288 ) ;
#120 = EDGE_LOOP ( 'NONE', ( #78, #172, #48, #306 ) ) ;
#121 =( LENGTH_UNIT ( ) NAMED_UNIT ( * ) SI_UNIT ( $, .METRE. ) );
#122 = VERTEX_POINT ( 'NONE', #257 ) ;
#123 = ADVANCED_FACE ( 'NONE', ( #32 ), #244, .T. ) ;
#124 = AXIS2_PLACEMENT_3D ( 'NONE', #268, #21, #167 ) ;
#125 = STYLED_ITEM ( 'NONE', ( #325 ), #94 ) ;
#126 =( CONVERSION_BASED_UNIT ( 'INCH', #49 ) LENGTH_UNIT ( ) NAMED_UNIT ( #95 ) );
#127 = ORIENTED_EDGE ( 'NONE', *, *, #17, .T. ) ;
#128 = SURFACE_STYLE_USAGE ( .BOTH. , #152 ) ;
#129 = EDGE_LOOP ( 'NONE', ( #55, #253 ) ) ;
#130 = DIRECTION ( 'NONE',  ( -1.000000000000000000, 0.0000000000000000000, 1.857732728424254500E-16 ) ) ;
#131 = EDGE_CURVE ( 'NONE', #251, #155, #14, .T. ) ;
#132 = ORIENTED_EDGE ( 'NONE', *, *, #193, .T. ) ;
#133 = CIRCLE ( 'NONE', #208, 0.06250000000000000000 ) ;
#134 = CARTESIAN_POINT ( 'NONE',  ( 0.0000000000000000000, 0.0000000000000000000, 0.0000000000000000000 ) ) ;
#135 = MECHANICAL_DESIGN_GEOMETRIC_PRESENTATION_REPRESENTATION (  '', ( #125 ), #91 ) ;
#136 = SPHERICAL_SURFACE ( 'NONE', #236, 0.01148850000000000218 ) ;
#137 = APPLICATION_PROTOCOL_DEFINITION ( 'draft international standard', 'automotive_design', 1998, #304 ) ;
#138 = DIRECTION ( 'NONE',  ( -0.1736481776669311916, 2.126576849575783316E-17, 0.9848077530122080203 ) ) ;
#139 = CARTESIAN_POINT ( 'NONE',  ( 1.406935475200437208E-18, 0.0000000000000000000, 0.01148850000000000218 ) ) ;
#140 = EDGE_CURVE ( 'NONE', #324, #122, #90, .T. ) ;
#141 = DIRECTION ( 'NONE',  ( 1.000000000000000000, 0.0000000000000000000, 0.0000000000000000000 ) ) ;
#142 = AXIS2_PLACEMENT_3D ( 'NONE', #134, #6, #283 ) ;
#143 = FACE_OUTER_BOUND ( 'NONE', #161, .T. ) ;
#144 = DIRECTION ( 'NONE',  ( -0.0000000000000000000, -0.0000000000000000000, -1.000000000000000000 ) ) ;
#145 = EDGE_CURVE ( 'NONE', #155, #251, #133, .T. ) ;
#146 = LENGTH_MEASURE_WITH_UNIT ( LENGTH_MEASURE( 0.02539999999999999897 ), #37 );
#147 = CARTESIAN_POINT ( 'NONE',  ( 4.163799117101002470E-18, 0.0000000000000000000, 0.03400000000000000244 ) ) ;
#148 = DIRECTION ( 'NONE',  ( 1.000000000000000000, 0.0000000000000000000, 0.0000000000000000000 ) ) ;
#149 = ADVANCED_FACE ( 'NONE', ( #266 ), #70, .T. ) ;
#150 = DIMENSIONAL_EXPONENTS ( 1.000000000000000000, 0.0000000000000000000, 0.0000000000000000000, 0.0000000000000000000, 0.0000000000000000000, 0.0000000000000000000, 0.0000000000000000000 ) ;
#151 = CIRCLE ( 'NONE', #259, 0.01148850000000000218 ) ;
#152 = SURFACE_SIDE_STYLE ('',( #47 ) ) ;
#153 = ORIENTED_EDGE ( 'NONE', *, *, #217, .T. ) ;
#154 =( LENGTH_UNIT ( ) NAMED_UNIT ( * ) SI_UNIT ( $, .METRE. ) );
#155 = VERTEX_POINT ( 'NONE', #291 ) ;
#156 = DIRECTION ( 'NONE',  ( 1.000000000000000000, 0.0000000000000000000, -0.0000000000000000000 ) ) ;
#157 = VERTEX_POINT ( 'NONE', #65 ) ;
#158 = LINE ( 'NONE', #276, #322 ) ;
#159 = ORIENTED_EDGE ( 'NONE', *, *, #223, .F. ) ;
#160 = CIRCLE ( 'NONE', #54, 0.01148850000000000218 ) ;
#161 = EDGE_LOOP ( 'NONE', ( #3, #28, #247, #231 ) ) ;
#162 = DIRECTION ( 'NONE',  ( -0.7071067811865456854, 0.0000000000000000000, -0.7071067811865493491 ) ) ;
#163 = FACE_OUTER_BOUND ( 'NONE', #188, .T. ) ;
#164 = DIRECTION ( 'NONE',  ( 0.0000000000000000000, 0.0000000000000000000, -1.000000000000000000 ) ) ;
#165 = DIRECTION ( 'NONE',  ( 0.0000000000000000000, 0.0000000000000000000, -1.000000000000000000 ) ) ;
#166 = DIRECTION ( 'NONE',  ( -1.000000000000000000, 0.0000000000000000000, 1.224646799147353454E-16 ) ) ;
#167 = DIRECTION ( 'NONE',  ( -1.000000000000000000, 0.0000000000000000000, 1.224646799147353454E-16 ) ) ;
#168 = CIRCLE ( 'NONE', #255, 0.06250000000000000000 ) ;
#169 = DIRECTION ( 'NONE',  ( -1.224646799147353454E-16, -0.0000000000000000000, -1.000000000000000000 ) ) ;
#170 =( CONVERSION_BASED_UNIT ( 'INCH', #22 ) LENGTH_UNIT ( ) NAMED_UNIT ( #46 ) );
#171 = CIRCLE ( 'NONE', #221, 0.01148850000000000218 ) ;
#172 = ORIENTED_EDGE ( 'NONE', *, *, #114, .T. ) ;
#173 = ORIENTED_EDGE ( 'NONE', *, *, #243, .F. ) ;
#174 = AXIS2_PLACEMENT_3D ( 'NONE', #235, #8, #209 ) ;
#175 = CARTESIAN_POINT ( 'NONE',  ( -0.06250000000000000000, 0.0000000000000000000, 1.485000000000000764 ) ) ;
#176 = ORIENTED_EDGE ( 'NONE', *, *, #211, .T. ) ;
#177 = ORIENTED_EDGE ( 'NONE', *, *, #207, .F. ) ;
#178 =( NAMED_UNIT ( * ) PLANE_ANGLE_UNIT ( ) SI_UNIT ( $, .RADIAN. ) );
#179 = FACE_OUTER_BOUND ( 'NONE', #301, .T. ) ;
#180 = CONICAL_SURFACE ( 'NONE', #9, 0.04750000000000064587, 0.7853981633974457255 ) ;
#181 = ADVANCED_FACE ( 'NONE', ( #267 ), #116, .T. ) ;
#182 = FACE_OUTER_BOUND ( 'NONE', #232, .T. ) ;
#183 = CARTESIAN_POINT ( 'NONE',  ( 0.0000000000000000000, 0.0000000000000000000, 1.500000000000000222 ) ) ;
#184 = DIRECTION ( 'NONE',  ( 1.000000000000000000, 0.0000000000000000000, 0.0000000000000000000 ) ) ;
#185 = CLOSED_SHELL ( 'NONE', ( #12, #149, #186, #31, #69, #40, #274, #123, #278, #181, #66 ) ) ;
#186 = ADVANCED_FACE ( 'NONE', ( #263 ), #302, .T. ) ;
#187 = AXIS2_PLACEMENT_3D ( 'NONE', #92, #215, #93 ) ;
#188 = EDGE_LOOP ( 'NONE', ( #74, #176, #79, #254 ) ) ;
#189 = DIRECTION ( 'NONE',  ( 1.224646799147353454E-16, 0.0000000000000000000, 1.000000000000000000 ) ) ;
#190 =( CONVERSION_BASED_UNIT ( 'INCH', #146 ) LENGTH_UNIT ( ) NAMED_UNIT ( #150 ) );
#191 =( NAMED_UNIT ( * ) PLANE_ANGLE_UNIT ( ) SI_UNIT ( $, .RADIAN. ) );
#192 = VECTOR ( 'NONE', #27, 39.37007874015748143 ) ;
#193 = EDGE_CURVE ( 'NONE', #57, #33, #19, .T. ) ;
#194 = VECTOR ( 'NONE', #138, 39.37007874015747433 ) ;
#195 = SURFACE_STYLE_USAGE ( .BOTH. , #216 ) ;
#196 = DIRECTION ( 'NONE',  ( 1.000000000000000000, 0.0000000000000000000, 0.0000000000000000000 ) ) ;
#197 = EDGE_CURVE ( 'NONE', #271, #110, #4, .T. ) ;
#198 = FACE_OUTER_BOUND ( 'NONE', #199, .T. ) ;
#199 = EDGE_LOOP ( 'NONE', ( #258, #224, #26, #228 ) ) ;
#200 = AXIS2_PLACEMENT_3D ( 'NONE', #115, #315, #13 ) ;
#201 = FILL_AREA_STYLE_COLOUR ( '', #15 ) ;
#202 = EDGE_LOOP ( 'NONE', ( #273, #159, #307, #50 ) ) ;
#203 =( NAMED_UNIT ( * ) SI_UNIT ( $, .STERADIAN. ) SOLID_ANGLE_UNIT ( ) );
#204 = VECTOR ( 'NONE', #144, 39.37007874015748143 ) ;
#205 = ORIENTED_EDGE ( 'NONE', *, *, #300, .F. ) ;
#206 = LINE ( 'NONE', #58, #194 ) ;
#207 = EDGE_CURVE ( 'NONE', #110, #57, #42, .T. ) ;
#208 = AXIS2_PLACEMENT_3D ( 'NONE', #314, #220, #196 ) ;
#209 = DIRECTION ( 'NONE',  ( -1.000000000000000000, 0.0000000000000000000, 0.0000000000000000000 ) ) ;
#210 = CARTESIAN_POINT ( 'NONE',  ( 0.0000000000000000000, 0.0000000000000000000, 1.500000000000000222 ) ) ;
#211 = EDGE_CURVE ( 'NONE', #299, #155, #316, .T. ) ;
#212 = PRODUCT_DEFINITION_CONTEXT ( 'detailed design', #304, 'design' ) ;
#213 = ORIENTED_EDGE ( 'NONE', *, *, #100, .T. ) ;
#214 = VECTOR ( 'NONE', #292, 39.37007874015748143 ) ;
#215 = DIRECTION ( 'NONE',  ( 1.224646799147353454E-16, 0.0000000000000000000, 1.000000000000000000 ) ) ;
#216 = SURFACE_SIDE_STYLE ('',( #222 ) ) ;
#217 = EDGE_CURVE ( 'NONE', #251, #122, #242, .T. ) ;
#218 = CARTESIAN_POINT ( 'NONE',  ( -0.01148850000000000392, 0.0000000000000000000, 1.406935475200437593E-18 ) ) ;
#219 = MANIFOLD_SOLID_BREP ( 'Fillet1', #185 ) ;
#220 = DIRECTION ( 'NONE',  ( 0.0000000000000000000, 0.0000000000000000000, -1.000000000000000000 ) ) ;
#221 = AXIS2_PLACEMENT_3D ( 'NONE', #61, #35, #81 ) ;
#222 = SURFACE_STYLE_FILL_AREA ( #239 ) ;
#223 = EDGE_CURVE ( 'NONE', #157, #299, #226, .T. ) ;
#224 = ORIENTED_EDGE ( 'NONE', *, *, #197, .F. ) ;
#225 = CARTESIAN_POINT ( 'NONE',  ( 3.959290358183015222E-17, 0.0000000000000000000, 0.3233005925414271786 ) ) ;
#226 = CIRCLE ( 'NONE', #67, 0.04750000000000064587 ) ;
#227 = UNCERTAINTY_MEASURE_WITH_UNIT (LENGTH_MEASURE( 1.000000000000000082E-05 ), #190, 'distance_accuracy_value', 'NONE');
#228 = ORIENTED_EDGE ( 'NONE', *, *, #140, .T. ) ;
#229 = DIRECTION ( 'NONE',  ( -0.0000000000000000000, -0.0000000000000000000, -1.000000000000000000 ) ) ;
#230 = PRODUCT_RELATED_PRODUCT_CATEGORY ( 'part', '', ( #51 ) ) ;
#231 = ORIENTED_EDGE ( 'NONE', *, *, #217, .F. ) ;
#232 = EDGE_LOOP ( 'NONE', ( #173, #107, #153, #76 ) ) ;
#233 = CARTESIAN_POINT ( 'NONE',  ( 0.01148850000000000565, 1.406935475200437016E-18, 0.01148849999999999871 ) ) ;
#234 = DIRECTION ( 'NONE',  ( -0.0000000000000000000, -0.0000000000000000000, -1.000000000000000000 ) ) ;
#235 = CARTESIAN_POINT ( 'NONE',  ( 0.0000000000000000000, 0.0000000000000000000, 1.500000000000000222 ) ) ;
#236 = AXIS2_PLACEMENT_3D ( 'NONE', #139, #84, #184 ) ;
#237 = CARTESIAN_POINT ( 'NONE',  ( 0.0000000000000000000, 0.0000000000000000000, 1.500000000000000222 ) ) ;
#238 = CARTESIAN_POINT ( 'NONE',  ( 1.406935475200437208E-18, 0.0000000000000000000, 0.01148850000000000218 ) ) ;
#239 = FILL_AREA_STYLE ('',( #113 ) ) ;
#240 = PRESENTATION_LAYER_ASSIGNMENT (  '', '', ( #125 ) ) ;
#241 = DIRECTION ( 'NONE',  ( 0.0000000000000000000, 0.0000000000000000000, -1.000000000000000000 ) ) ;
#242 = LINE ( 'NONE', #36, #204 ) ;
#243 = EDGE_CURVE ( 'NONE', #155, #324, #158, .T. ) ;
#244 = CONICAL_SURFACE ( 'NONE', #174, 0.04750000000000064587, 0.7853981633974457255 ) ;
#245 = ORIENTED_EDGE ( 'NONE', *, *, #100, .F. ) ;
#246 = DIRECTION ( 'NONE',  ( -1.224646799147353454E-16, -0.0000000000000000000, -1.000000000000000000 ) ) ;
#247 = ORIENTED_EDGE ( 'NONE', *, *, #264, .F. ) ;
#248 = AXIS2_PLACEMENT_3D ( 'NONE', #297, #72, #156 ) ;
#249 = PRODUCT_DEFINITION_FORMATION_WITH_SPECIFIED_SOURCE ( 'ANY', '', #51, .NOT_KNOWN. ) ;
#250 = EDGE_CURVE ( 'NONE', #271, #324, #77, .T. ) ;
#251 = VERTEX_POINT ( 'NONE', #175 ) ;
#252 = LINE ( 'NONE', #103, #82 ) ;
#253 = ORIENTED_EDGE ( 'NONE', *, *, #7, .T. ) ;
#254 = ORIENTED_EDGE ( 'NONE', *, *, #117, .F. ) ;
#255 = AXIS2_PLACEMENT_3D ( 'NONE', #225, #246, #23 ) ;
#256 = ORIENTED_EDGE ( 'NONE', *, *, #300, .T. ) ;
#257 = CARTESIAN_POINT ( 'NONE',  ( -0.06249999999999995837, 0.0000000000000000000, 0.3233005925414271786 ) ) ;
#258 = ORIENTED_EDGE ( 'NONE', *, *, #114, .F. ) ;
#259 = AXIS2_PLACEMENT_3D ( 'NONE', #284, #290, #311 ) ;
#260 = PRODUCT_CONTEXT ( 'NONE', #288, 'mechanical' ) ;
#261 = SPHERICAL_SURFACE ( 'NONE', #38, 0.01148850000000000218 ) ;
#262 = CARTESIAN_POINT ( 'NONE',  ( 0.04750000000000064587, 5.817072295950006528E-18, 1.500000000000000222 ) ) ;
#263 = FACE_OUTER_BOUND ( 'NONE', #120, .T. ) ;
#264 = EDGE_CURVE ( 'NONE', #122, #324, #168, .T. ) ;
#265 = AXIS2_PLACEMENT_3D ( 'NONE', #237, #11, #83 ) ;
#266 = FACE_OUTER_BOUND ( 'NONE', #24, .T. ) ;
#267 = FACE_OUTER_BOUND ( 'NONE', #280, .T. ) ;
#268 = CARTESIAN_POINT ( 'NONE',  ( 0.0000000000000000000, 0.0000000000000000000, 0.0000000000000000000 ) ) ;
#269 = AXIS2_PLACEMENT_3D ( 'NONE', #310, #241, #148 ) ;
#270 = FILL_AREA_STYLE ('',( #201 ) ) ;
#271 = VERTEX_POINT ( 'NONE', #319 ) ;
#272 = FACE_OUTER_BOUND ( 'NONE', #129, .T. ) ;
#273 = ORIENTED_EDGE ( 'NONE', *, *, #211, .F. ) ;
#274 = ADVANCED_FACE ( 'NONE', ( #272 ), #323, .T. ) ;
#275 = CARTESIAN_POINT ( 'NONE',  ( 1.406935475200437208E-18, 0.0000000000000000000, 0.01148850000000000218 ) ) ;
#276 = CARTESIAN_POINT ( 'NONE',  ( 0.06250000000000000000, 7.654042494670956004E-18, 1.500000000000000222 ) ) ;
#277 = ORIENTED_EDGE ( 'NONE', *, *, #17, .F. ) ;
#278 = ADVANCED_FACE ( 'NONE', ( #198 ), #52, .T. ) ;
#279 = SHAPE_DEFINITION_REPRESENTATION ( #295, #94 ) ;
#280 = EDGE_LOOP ( 'NONE', ( #205, #96, #62, #132 ) ) ;
#281 = CARTESIAN_POINT ( 'NONE',  ( -0.01148850000000000218, 0.0000000000000000000, 0.01148850000000000392 ) ) ;
#282 = COLOUR_RGB ( '',0.7921568627450980005, 0.8196078431372548767, 0.9333333333333333481 ) ;
#283 = DIRECTION ( 'NONE',  ( 1.000000000000000000, 0.0000000000000000000, 0.0000000000000000000 ) ) ;
#284 = CARTESIAN_POINT ( 'NONE',  ( 4.163799117101002470E-18, 0.0000000000000000000, 0.03400000000000000244 ) ) ;
#285 = DIRECTION ( 'NONE',  ( -1.000000000000000000, 0.0000000000000000000, 0.0000000000000000000 ) ) ;
#286 = PRODUCT_DEFINITION ( 'UNKNOWN', '', #249, #212 ) ;
#287 = DIRECTION ( 'NONE',  ( 0.0000000000000000000, -1.000000000000000000, 0.0000000000000000000 ) ) ;
#288 = APPLICATION_CONTEXT ( 'automotive_design' ) ;
#289 = AXIS2_PLACEMENT_3D ( 'NONE', #16, #18, #166 ) ;
#290 = DIRECTION ( 'NONE',  ( -1.224646799147353454E-16, -0.0000000000000000000, -1.000000000000000000 ) ) ;
#291 = CARTESIAN_POINT ( 'NONE',  ( 0.06250000000000000000, 7.654042494670956004E-18, 1.485000000000000764 ) ) ;
#292 = DIRECTION ( 'NONE',  ( -1.224646799147353454E-16, -0.0000000000000000000, -1.000000000000000000 ) ) ;
#293 = AXIS2_PLACEMENT_3D ( 'NONE', #275, #53, #130 ) ;
#294 =( NAMED_UNIT ( * ) SI_UNIT ( $, .STERADIAN. ) SOLID_ANGLE_UNIT ( ) );
#295 = PRODUCT_DEFINITION_SHAPE ( 'NONE', 'NONE',  #286 ) ;
#296 = CARTESIAN_POINT ( 'NONE',  ( 1.406935475200437208E-18, 0.0000000000000000000, 0.01148850000000000218 ) ) ;
#297 = CARTESIAN_POINT ( 'NONE',  ( 0.0000000000000000000, 0.0000000000000000000, 1.500000000000000222 ) ) ;
#298 = AXIS2_PLACEMENT_3D ( 'NONE', #321, #25, #75 ) ;
#299 = VERTEX_POINT ( 'NONE', #2 ) ;
#300 = EDGE_CURVE ( 'NONE', #271, #33, #252, .T. ) ;
#301 = EDGE_LOOP ( 'NONE', ( #277, #213, #101 ) ) ;
#302 = CONICAL_SURFACE ( 'NONE', #187, 0.01148850000000000218, 0.1745329251994338915 ) ;
#303 = EDGE_CURVE ( 'NONE', #33, #57, #108, .T. ) ;
#304 = APPLICATION_CONTEXT ( 'automotive_design' ) ;
#305 = DIRECTION ( 'NONE',  ( -1.224646799147353454E-16, -0.0000000000000000000, -1.000000000000000000 ) ) ;
#306 = ORIENTED_EDGE ( 'NONE', *, *, #250, .F. ) ;
#307 = ORIENTED_EDGE ( 'NONE', *, *, #117, .T. ) ;
#308 = DIRECTION ( 'NONE',  ( 0.0000000000000000000, 1.000000000000000000, 0.0000000000000000000 ) ) ;
#309 = PRESENTATION_LAYER_ASSIGNMENT (  '', '', ( #63 ) ) ;
#310 = CARTESIAN_POINT ( 'NONE',  ( 0.0000000000000000000, 0.0000000000000000000, 1.485000000000000764 ) ) ;
#311 = DIRECTION ( 'NONE',  ( -1.000000000000000000, 0.0000000000000000000, 0.0000000000000000000 ) ) ;
#312 = CARTESIAN_POINT ( 'NONE',  ( 1.406935475200437208E-18, 0.0000000000000000000, 0.01148850000000000218 ) ) ;
#313 = AXIS2_PLACEMENT_3D ( 'NONE', #147, #169, #118 ) ;
#314 = CARTESIAN_POINT ( 'NONE',  ( 0.0000000000000000000, 0.0000000000000000000, 1.485000000000000764 ) ) ;
#315 = DIRECTION ( 'NONE',  ( -1.224646799147353454E-16, -0.0000000000000000000, -1.000000000000000000 ) ) ;
#316 = LINE ( 'NONE', #262, #71 ) ;
#317 = AXIS2_PLACEMENT_3D ( 'NONE', #85, #234, #29 ) ;
#318 = PRESENTATION_STYLE_ASSIGNMENT (( #195 ) ) ;
#319 = CARTESIAN_POINT ( 'NONE',  ( 0.01148850000000000565, 0.0000000000000000000, 0.03400000000000000244 ) ) ;
#320 = ORIENTED_EDGE ( 'NONE', *, *, #303, .T. ) ;
#321 = CARTESIAN_POINT ( 'NONE',  ( 4.163799117101002470E-18, 0.0000000000000000000, 0.03400000000000000244 ) ) ;
#322 = VECTOR ( 'NONE', #229, 39.37007874015748143 ) ;
#323 = PLANE ( 'NONE',  #248 ) ;
#324 = VERTEX_POINT ( 'NONE', #97 ) ;
#325 = PRESENTATION_STYLE_ASSIGNMENT (( #128 ) ) ;
ENDSEC;
END-ISO-10303-21;
