ISO-10303-21;
HEADER;
FILE_DESCRIPTION (( 'STEP AP214' ),
    '1' );
FILE_NAME ('44392.STEP',
    '2023-06-22T20:23:34',
    ( '' ),
    ( '' ),
    'SwSTEP 2.0',
    'SolidWorks 2023',
    '' );
FILE_SCHEMA (( 'AUTOMOTIVE_DESIGN' ));
ENDSEC;

DATA;
#1 = DIRECTION ( 'NONE',  ( 0.000000000000000000, -1.000000000000000000, -0.000000000000000000 ) ) ;
#2 = VERTEX_POINT ( 'NONE', #224 ) ;
#3 = ADVANCED_BREP_SHAPE_REPRESENTATION ( '44392', ( #301, #299, #309 ), #133 ) ;
#4 = ORIENTED_EDGE ( 'NONE', *, *, #146, .F. ) ;
#5 = ADVANCED_FACE ( 'NONE', ( #53 ), #11, .F. ) ;
#6 = EDGE_CURVE ( 'NONE', #213, #48, #20, .T. ) ;
#7 =( GEOMETRIC_REPRESENTATION_CONTEXT ( 3 ) GLOBAL_UNCERTAINTY_ASSIGNED_CONTEXT ( ( #169 ) ) GLOBAL_UNIT_ASSIGNED_CONTEXT ( ( #117, #113, #92 ) ) REPRESENTATION_CONTEXT ( 'NONE', 'WORKASPACE' ) );
#8 = CYLINDRICAL_SURFACE ( 'NONE', #124, 0.3750000000000001110 ) ;
#9 = SURFACE_SIDE_STYLE ('',( #265 ) ) ;
#10 = PRODUCT_DEFINITION_SHAPE ( 'NONE', 'NONE',  #288 ) ;
#11 = PLANE ( 'NONE',  #15 ) ;
#12 = CARTESIAN_POINT ( 'NONE',  ( 0.000000000000000000, 0.000000000000000000, -0.3750000000000000555 ) ) ;
#13 = SURFACE_STYLE_USAGE ( .BOTH. , #9 ) ;
#14 = PRODUCT ( '44392', '44392', '', ( #230 ) ) ;
#15 = AXIS2_PLACEMENT_3D ( 'NONE', #167, #154, #289 ) ;
#16 = AXIS2_PLACEMENT_3D ( 'NONE', #118, #26, #188 ) ;
#17 = PRESENTATION_STYLE_ASSIGNMENT (( #149 ) ) ;
#18 = FACE_OUTER_BOUND ( 'NONE', #122, .T. ) ;
#19 = DIRECTION ( 'NONE',  ( -4.453261087808557677E-17, 1.000000000000000000, -0.000000000000000000 ) ) ;
#20 = CIRCLE ( 'NONE', #142, 0.3750000000000000555 ) ;
#21 = AXIS2_PLACEMENT_3D ( 'NONE', #246, #55, #278 ) ;
#22 = SURFACE_STYLE_FILL_AREA ( #307 ) ;
#23 = SURFACE_STYLE_FILL_AREA ( #229 ) ;
#24 = CARTESIAN_POINT ( 'NONE',  ( 0.000000000000000000, 0.000000000000000000, 0.000000000000000000 ) ) ;
#25 = MECHANICAL_DESIGN_GEOMETRIC_PRESENTATION_REPRESENTATION (  '', ( #209 ), #7 ) ;
#26 = DIRECTION ( 'NONE',  ( -0.000000000000000000, -1.000000000000000000, -0.000000000000000000 ) ) ;
#27 = ORIENTED_EDGE ( 'NONE', *, *, #257, .T. ) ;
#28 = ADVANCED_FACE ( 'NONE', ( #18 ), #8, .T. ) ;
#29 = CARTESIAN_POINT ( 'NONE',  ( -1.224646799147353207E-16, 5.000000000000000000, 0.000000000000000000 ) ) ;
#30 =( NAMED_UNIT ( * ) SI_UNIT ( $, .STERADIAN. ) SOLID_ANGLE_UNIT ( ) );
#31 = CARTESIAN_POINT ( 'NONE',  ( -1.224646799147353207E-16, 5.000000000000000000, 0.000000000000000000 ) ) ;
#32 = DIRECTION ( 'NONE',  ( 0.000000000000000000, 0.000000000000000000, -1.000000000000000000 ) ) ;
#33 = DIRECTION ( 'NONE',  ( -1.000000000000000000, 0.000000000000000000, 0.000000000000000000 ) ) ;
#34 = COLOUR_RGB ( '',1.000000000000000000, 0.000000000000000000, 0.000000000000000000 ) ;
#35 = DIRECTION ( 'NONE',  ( 0.000000000000000000, 0.000000000000000000, -1.000000000000000000 ) ) ;
#36 = ADVANCED_FACE ( 'NONE', ( #248 ), #195, .T. ) ;
#37 = EDGE_CURVE ( 'NONE', #213, #141, #125, .T. ) ;
#38 = CARTESIAN_POINT ( 'NONE',  ( 0.3750000000000000555, 2.250000000000000444, 4.592425496802576684E-17 ) ) ;
#39 =( LENGTH_UNIT ( ) NAMED_UNIT ( * ) SI_UNIT ( $, .METRE. ) );
#40 = CIRCLE ( 'NONE', #252, 0.3750000000000000555 ) ;
#41 = DIMENSIONAL_EXPONENTS ( 1.000000000000000000, 0.000000000000000000, 0.000000000000000000, 0.000000000000000000, 0.000000000000000000, 0.000000000000000000, 0.000000000000000000 ) ;
#42 = ADVANCED_FACE ( 'NONE', ( #108 ), #197, .T. ) ;
#43 = CARTESIAN_POINT ( 'NONE',  ( -0.3750000000000002776, 5.000000000000000000, 0.000000000000000000 ) ) ;
#44 = STYLED_ITEM ( 'NONE', ( #103 ), #301 ) ;
#45 = ORIENTED_EDGE ( 'NONE', *, *, #46, .F. ) ;
#46 = EDGE_CURVE ( 'NONE', #48, #213, #223, .T. ) ;
#47 = ORIENTED_EDGE ( 'NONE', *, *, #257, .F. ) ;
#48 = VERTEX_POINT ( 'NONE', #38 ) ;
#49 = COLOUR_RGB ( '',0.7921568627450980005, 0.8196078431372548767, 0.9333333333333333481 ) ;
#50 = ADVANCED_FACE ( 'NONE', ( #208 ), #275, .T. ) ;
#51 = EDGE_LOOP ( 'NONE', ( #47, #283, #98, #52 ) ) ;
#52 = ORIENTED_EDGE ( 'NONE', *, *, #302, .F. ) ;
#53 = FACE_OUTER_BOUND ( 'NONE', #145, .T. ) ;
#54 = AXIS2_PLACEMENT_3D ( 'NONE', #69, #1, #94 ) ;
#55 = DIRECTION ( 'NONE',  ( -4.453261087808557677E-17, 1.000000000000000000, -0.000000000000000000 ) ) ;
#56 = PRESENTATION_STYLE_ASSIGNMENT (( #104 ) ) ;
#57 = FACE_OUTER_BOUND ( 'NONE', #51, .T. ) ;
#58 = VECTOR ( 'NONE', #82, 39.37007874015748143 ) ;
#59 = FILL_AREA_STYLE_COLOUR ( '', #214 ) ;
#60 = CARTESIAN_POINT ( 'NONE',  ( 1.516480271171051896E-32, 2.250000000000000444, 0.000000000000000000 ) ) ;
#61 =( CONVERSION_BASED_UNIT ( 'INCH', #135 ) LENGTH_UNIT ( ) NAMED_UNIT ( #91 ) );
#62 = PLANE ( 'NONE',  #54 ) ;
#63 = SHAPE_DEFINITION_REPRESENTATION ( #10, #3 ) ;
#64 = DIRECTION ( 'NONE',  ( 0.000000000000000000, -0.000000000000000000, 1.000000000000000000 ) ) ;
#65 = DIMENSIONAL_EXPONENTS ( 1.000000000000000000, 0.000000000000000000, 0.000000000000000000, 0.000000000000000000, 0.000000000000000000, 0.000000000000000000, 0.000000000000000000 ) ;
#66 = STYLED_ITEM ( 'NONE', ( #93 ), #116 ) ;
#67 =( CONVERSION_BASED_UNIT ( 'INCH', #186 ) LENGTH_UNIT ( ) NAMED_UNIT ( #41 ) );
#68 = SURFACE_SIDE_STYLE ('',( #22 ) ) ;
#69 = CARTESIAN_POINT ( 'NONE',  ( 0.000000000000000000, 0.000000000000000000, 0.000000000000000000 ) ) ;
#70 = ORIENTED_EDGE ( 'NONE', *, *, #261, .T. ) ;
#71 = STYLED_ITEM ( 'NONE', ( #268 ), #36 ) ;
#72 = CIRCLE ( 'NONE', #80, 0.3750000000000000555 ) ;
#73 = VERTEX_POINT ( 'NONE', #254 ) ;
#74 = ORIENTED_EDGE ( 'NONE', *, *, #261, .F. ) ;
#75 = PRESENTATION_LAYER_ASSIGNMENT (  '', '', ( #209 ) ) ;
#76 = ORIENTED_EDGE ( 'NONE', *, *, #6, .F. ) ;
#77 = CARTESIAN_POINT ( 'NONE',  ( -0.3750000000000002220, 5.000000000000000000, 0.000000000000000000 ) ) ;
#78 =( LENGTH_UNIT ( ) NAMED_UNIT ( * ) SI_UNIT ( $, .METRE. ) );
#79 = CARTESIAN_POINT ( 'NONE',  ( 0.000000000000000000, 0.000000000000000000, -0.3750000000000000555 ) ) ;
#80 = AXIS2_PLACEMENT_3D ( 'NONE', #235, #255, #137 ) ;
#81 = CARTESIAN_POINT ( 'NONE',  ( 1.516480271171051896E-32, 2.250000000000000444, 0.000000000000000000 ) ) ;
#82 = DIRECTION ( 'NONE',  ( -4.453261087808557677E-17, 1.000000000000000000, -0.000000000000000000 ) ) ;
#83 = DIRECTION ( 'NONE',  ( -1.000000000000000000, -4.453261087808557677E-17, 0.000000000000000000 ) ) ;
#84 = SURFACE_SIDE_STYLE ('',( #152 ) ) ;
#85 = DIRECTION ( 'NONE',  ( 0.000000000000000000, 0.000000000000000000, -1.000000000000000000 ) ) ;
#86 = MECHANICAL_DESIGN_GEOMETRIC_PRESENTATION_REPRESENTATION (  '', ( #44 ), #287 ) ;
#87 = SURFACE_STYLE_USAGE ( .BOTH. , #115 ) ;
#88 = UNCERTAINTY_MEASURE_WITH_UNIT (LENGTH_MEASURE( 1.000000000000000082E-05 ), #67, 'distance_accuracy_value', 'NONE');
#89 =( LENGTH_UNIT ( ) NAMED_UNIT ( * ) SI_UNIT ( $, .METRE. ) );
#90 = DIRECTION ( 'NONE',  ( 0.000000000000000000, 1.000000000000000000, 0.000000000000000000 ) ) ;
#91 = DIMENSIONAL_EXPONENTS ( 1.000000000000000000, 0.000000000000000000, 0.000000000000000000, 0.000000000000000000, 0.000000000000000000, 0.000000000000000000, 0.000000000000000000 ) ;
#92 =( NAMED_UNIT ( * ) SI_UNIT ( $, .STERADIAN. ) SOLID_ANGLE_UNIT ( ) );
#93 = PRESENTATION_STYLE_ASSIGNMENT (( #87 ) ) ;
#94 = DIRECTION ( 'NONE',  ( 0.000000000000000000, 0.000000000000000000, -1.000000000000000000 ) ) ;
#95 = ORIENTED_EDGE ( 'NONE', *, *, #37, .F. ) ;
#96 = VECTOR ( 'NONE', #151, 39.37007874015748143 ) ;
#97 = EDGE_LOOP ( 'NONE', ( #70, #160, #285, #237 ) ) ;
#98 = ORIENTED_EDGE ( 'NONE', *, *, #37, .T. ) ;
#99 = COLOUR_RGB ( '',1.000000000000000000, 0.000000000000000000, 0.000000000000000000 ) ;
#100 = CIRCLE ( 'NONE', #274, 0.3750000000000000555 ) ;
#101 = PRESENTATION_LAYER_ASSIGNMENT (  '', '', ( #44 ) ) ;
#102 = DIRECTION ( 'NONE',  ( -4.453261087808557677E-17, 1.000000000000000000, -0.000000000000000000 ) ) ;
#103 = PRESENTATION_STYLE_ASSIGNMENT (( #13 ) ) ;
#104 = SURFACE_STYLE_USAGE ( .BOTH. , #270 ) ;
#105 = FACE_OUTER_BOUND ( 'NONE', #189, .T. ) ;
#106 = CARTESIAN_POINT ( 'NONE',  ( 0.000000000000000000, 0.000000000000000000, 0.000000000000000000 ) ) ;
#107 = SURFACE_SIDE_STYLE ('',( #206 ) ) ;
#108 = FACE_OUTER_BOUND ( 'NONE', #97, .T. ) ;
#109 = LINE ( 'NONE', #79, #266 ) ;
#110 = LINE ( 'NONE', #294, #228 ) ;
#111 =( NAMED_UNIT ( * ) SI_UNIT ( $, .STERADIAN. ) SOLID_ANGLE_UNIT ( ) );
#112 = UNCERTAINTY_MEASURE_WITH_UNIT (LENGTH_MEASURE( 1.000000000000000082E-05 ), #264, 'distance_accuracy_value', 'NONE');
#113 =( NAMED_UNIT ( * ) PLANE_ANGLE_UNIT ( ) SI_UNIT ( $, .RADIAN. ) );
#114 = LENGTH_MEASURE_WITH_UNIT ( LENGTH_MEASURE( 0.02539999999999999897 ), #157 );
#115 = SURFACE_SIDE_STYLE ('',( #23 ) ) ;
#116 = ADVANCED_FACE ( 'NONE', ( #136 ), #62, .T. ) ;
#117 =( CONVERSION_BASED_UNIT ( 'INCH', #134 ) LENGTH_UNIT ( ) NAMED_UNIT ( #233 ) );
#118 = CARTESIAN_POINT ( 'NONE',  ( 0.000000000000000000, 0.000000000000000000, 0.000000000000000000 ) ) ;
#119 = ORIENTED_EDGE ( 'NONE', *, *, #159, .T. ) ;
#120 = STYLED_ITEM ( 'NONE', ( #56 ), #42 ) ;
#121 = CIRCLE ( 'NONE', #21, 0.3750000000000001665 ) ;
#122 = EDGE_LOOP ( 'NONE', ( #263, #27, #158, #95 ) ) ;
#123 = FILL_AREA_STYLE_COLOUR ( '', #99 ) ;
#124 = AXIS2_PLACEMENT_3D ( 'NONE', #127, #102, #292 ) ;
#125 = LINE ( 'NONE', #77, #58 ) ;
#126 = DIRECTION ( 'NONE',  ( -1.000000000000000000, 0.000000000000000000, 0.000000000000000000 ) ) ;
#127 = CARTESIAN_POINT ( 'NONE',  ( -1.224646799147353207E-16, 5.000000000000000000, 0.000000000000000000 ) ) ;
#128 = FILL_AREA_STYLE_COLOUR ( '', #272 ) ;
#129 = CARTESIAN_POINT ( 'NONE',  ( 0.000000000000000000, 2.250000000000000000, 0.000000000000000000 ) ) ;
#130 = PRESENTATION_LAYER_ASSIGNMENT (  '', '', ( #120 ) ) ;
#131 = LENGTH_MEASURE_WITH_UNIT ( LENGTH_MEASURE( 0.02539999999999999897 ), #220 );
#132 = APPLICATION_PROTOCOL_DEFINITION ( 'draft international standard', 'automotive_design', 1998, #176 ) ;
#133 =( GEOMETRIC_REPRESENTATION_CONTEXT ( 3 ) GLOBAL_UNCERTAINTY_ASSIGNED_CONTEXT ( ( #193 ) ) GLOBAL_UNIT_ASSIGNED_CONTEXT ( ( #61, #306, #155 ) ) REPRESENTATION_CONTEXT ( 'NONE', 'WORKASPACE' ) );
#134 = LENGTH_MEASURE_WITH_UNIT ( LENGTH_MEASURE( 0.02539999999999999897 ), #89 );
#135 = LENGTH_MEASURE_WITH_UNIT ( LENGTH_MEASURE( 0.02539999999999999897 ), #39 );
#136 = FACE_OUTER_BOUND ( 'NONE', #194, .T. ) ;
#137 = DIRECTION ( 'NONE',  ( 0.000000000000000000, 0.000000000000000000, -1.000000000000000000 ) ) ;
#138 = MECHANICAL_DESIGN_GEOMETRIC_PRESENTATION_REPRESENTATION (  '', ( #210 ), #147 ) ;
#139 = EDGE_LOOP ( 'NONE', ( #74, #144 ) ) ;
#140 = VERTEX_POINT ( 'NONE', #212 ) ;
#141 = VERTEX_POINT ( 'NONE', #43 ) ;
#142 = AXIS2_PLACEMENT_3D ( 'NONE', #81, #199, #150 ) ;
#143 = AXIS2_PLACEMENT_3D ( 'NONE', #304, #90, #64 ) ;
#144 = ORIENTED_EDGE ( 'NONE', *, *, #172, .F. ) ;
#145 = EDGE_LOOP ( 'NONE', ( #191, #259 ) ) ;
#146 = EDGE_CURVE ( 'NONE', #73, #260, #72, .T. ) ;
#147 =( GEOMETRIC_REPRESENTATION_CONTEXT ( 3 ) GLOBAL_UNCERTAINTY_ASSIGNED_CONTEXT ( ( #156 ) ) GLOBAL_UNIT_ASSIGNED_CONTEXT ( ( #225, #171, #196 ) ) REPRESENTATION_CONTEXT ( 'NONE', 'WORKASPACE' ) );
#148 =( NAMED_UNIT ( * ) PLANE_ANGLE_UNIT ( ) SI_UNIT ( $, .RADIAN. ) );
#149 = SURFACE_STYLE_USAGE ( .BOTH. , #107 ) ;
#150 = DIRECTION ( 'NONE',  ( -1.000000000000000000, 0.000000000000000000, 0.000000000000000000 ) ) ;
#151 = DIRECTION ( 'NONE',  ( -4.453261087808557677E-17, 1.000000000000000000, -0.000000000000000000 ) ) ;
#152 = SURFACE_STYLE_FILL_AREA ( #221 ) ;
#153 = CYLINDRICAL_SURFACE ( 'NONE', #166, 0.3750000000000001110 ) ;
#154 = DIRECTION ( 'NONE',  ( 4.453261087808557677E-17, -1.000000000000000000, 0.000000000000000000 ) ) ;
#155 =( NAMED_UNIT ( * ) SI_UNIT ( $, .STERADIAN. ) SOLID_ANGLE_UNIT ( ) );
#156 = UNCERTAINTY_MEASURE_WITH_UNIT (LENGTH_MEASURE( 1.000000000000000082E-05 ), #225, 'distance_accuracy_value', 'NONE');
#157 =( LENGTH_UNIT ( ) NAMED_UNIT ( * ) SI_UNIT ( $, .METRE. ) );
#158 = ORIENTED_EDGE ( 'NONE', *, *, #204, .F. ) ;
#159 = EDGE_CURVE ( 'NONE', #260, #73, #218, .T. ) ;
#160 = ORIENTED_EDGE ( 'NONE', *, *, #232, .T. ) ;
#161 = AXIS2_PLACEMENT_3D ( 'NONE', #60, #226, #181 ) ;
#162 = ORIENTED_EDGE ( 'NONE', *, *, #232, .F. ) ;
#163 =( CONVERSION_BASED_UNIT ( 'INCH', #271 ) LENGTH_UNIT ( ) NAMED_UNIT ( #305 ) );
#164 =( LENGTH_UNIT ( ) NAMED_UNIT ( * ) SI_UNIT ( $, .METRE. ) );
#165 = DIRECTION ( 'NONE',  ( -4.453261087808557677E-17, 1.000000000000000000, -0.000000000000000000 ) ) ;
#166 = AXIS2_PLACEMENT_3D ( 'NONE', #29, #165, #126 ) ;
#167 = CARTESIAN_POINT ( 'NONE',  ( 0.3750000000000000555, 5.000000000000000000, 0.000000000000000000 ) ) ;
#168 = LENGTH_MEASURE_WITH_UNIT ( LENGTH_MEASURE( 0.02539999999999999897 ), #78 );
#169 = UNCERTAINTY_MEASURE_WITH_UNIT (LENGTH_MEASURE( 1.000000000000000082E-05 ), #117, 'distance_accuracy_value', 'NONE');
#170 = SURFACE_STYLE_FILL_AREA ( #203 ) ;
#171 =( NAMED_UNIT ( * ) PLANE_ANGLE_UNIT ( ) SI_UNIT ( $, .RADIAN. ) );
#172 = EDGE_CURVE ( 'NONE', #215, #2, #100, .T. ) ;
#173 = FILL_AREA_STYLE_COLOUR ( '', #49 ) ;
#174 =( GEOMETRIC_REPRESENTATION_CONTEXT ( 3 ) GLOBAL_UNCERTAINTY_ASSIGNED_CONTEXT ( ( #297 ) ) GLOBAL_UNIT_ASSIGNED_CONTEXT ( ( #163, #148, #30 ) ) REPRESENTATION_CONTEXT ( 'NONE', 'WORKASPACE' ) );
#175 = COLOUR_RGB ( '',1.000000000000000000, 0.000000000000000000, 0.000000000000000000 ) ;
#176 = APPLICATION_CONTEXT ( 'automotive_design' ) ;
#177 =( NAMED_UNIT ( * ) SI_UNIT ( $, .STERADIAN. ) SOLID_ANGLE_UNIT ( ) );
#178 = DIRECTION ( 'NONE',  ( -0.000000000000000000, -1.000000000000000000, -0.000000000000000000 ) ) ;
#179 = DIRECTION ( 'NONE',  ( 0.000000000000000000, 0.000000000000000000, 1.000000000000000000 ) ) ;
#180 = UNCERTAINTY_MEASURE_WITH_UNIT (LENGTH_MEASURE( 1.000000000000000082E-05 ), #182, 'distance_accuracy_value', 'NONE');
#181 = DIRECTION ( 'NONE',  ( -1.000000000000000000, 0.000000000000000000, 0.000000000000000000 ) ) ;
#182 =( CONVERSION_BASED_UNIT ( 'INCH', #114 ) LENGTH_UNIT ( ) NAMED_UNIT ( #65 ) );
#183 = DIMENSIONAL_EXPONENTS ( 1.000000000000000000, 0.000000000000000000, 0.000000000000000000, 0.000000000000000000, 0.000000000000000000, 0.000000000000000000, 0.000000000000000000 ) ;
#184 = AXIS2_PLACEMENT_3D ( 'NONE', #106, #217, #32 ) ;
#185 = AXIS2_PLACEMENT_3D ( 'NONE', #239, #200, #83 ) ;
#186 = LENGTH_MEASURE_WITH_UNIT ( LENGTH_MEASURE( 0.02539999999999999897 ), #250 );
#187 = CARTESIAN_POINT ( 'NONE',  ( 0.000000000000000000, 0.000000000000000000, 0.000000000000000000 ) ) ;
#188 = DIRECTION ( 'NONE',  ( 0.000000000000000000, 0.000000000000000000, -1.000000000000000000 ) ) ;
#189 = EDGE_LOOP ( 'NONE', ( #76, #45 ) ) ;
#190 = MECHANICAL_DESIGN_GEOMETRIC_PRESENTATION_REPRESENTATION (  '', ( #66 ), #202 ) ;
#191 = ORIENTED_EDGE ( 'NONE', *, *, #204, .T. ) ;
#192 = EDGE_LOOP ( 'NONE', ( #162, #262, #238, #4 ) ) ;
#193 = UNCERTAINTY_MEASURE_WITH_UNIT (LENGTH_MEASURE( 1.000000000000000082E-05 ), #61, 'distance_accuracy_value', 'NONE');
#194 = EDGE_LOOP ( 'NONE', ( #119, #258 ) ) ;
#195 = CYLINDRICAL_SURFACE ( 'NONE', #184, 0.3750000000000000555 ) ;
#196 =( NAMED_UNIT ( * ) SI_UNIT ( $, .STERADIAN. ) SOLID_ANGLE_UNIT ( ) );
#197 = CYLINDRICAL_SURFACE ( 'NONE', #308, 0.3750000000000000555 ) ;
#198 = CARTESIAN_POINT ( 'NONE',  ( 4.592425496802575451E-17, 2.250000000000000000, 0.3750000000000000555 ) ) ;
#199 = DIRECTION ( 'NONE',  ( -4.453261087808557677E-17, 1.000000000000000000, -0.000000000000000000 ) ) ;
#200 = DIRECTION ( 'NONE',  ( -4.453261087808557677E-17, 1.000000000000000000, 0.000000000000000000 ) ) ;
#201 =( GEOMETRIC_REPRESENTATION_CONTEXT ( 3 ) GLOBAL_UNCERTAINTY_ASSIGNED_CONTEXT ( ( #112 ) ) GLOBAL_UNIT_ASSIGNED_CONTEXT ( ( #264, #240, #298 ) ) REPRESENTATION_CONTEXT ( 'NONE', 'WORKASPACE' ) );
#202 =( GEOMETRIC_REPRESENTATION_CONTEXT ( 3 ) GLOBAL_UNCERTAINTY_ASSIGNED_CONTEXT ( ( #88 ) ) GLOBAL_UNIT_ASSIGNED_CONTEXT ( ( #67, #249, #177 ) ) REPRESENTATION_CONTEXT ( 'NONE', 'WORKASPACE' ) );
#203 = FILL_AREA_STYLE ('',( #128 ) ) ;
#204 = EDGE_CURVE ( 'NONE', #141, #140, #247, .T. ) ;
#205 = SURFACE_STYLE_USAGE ( .BOTH. , #84 ) ;
#206 = SURFACE_STYLE_FILL_AREA ( #242 ) ;
#207 = CLOSED_SHELL ( 'NONE', ( #42, #50, #36, #116 ) ) ;
#208 = FACE_OUTER_BOUND ( 'NONE', #139, .T. ) ;
#209 = STYLED_ITEM ( 'NONE', ( #277 ), #50 ) ;
#210 = STYLED_ITEM ( 'NONE', ( #17 ), #299 ) ;
#211 =( NAMED_UNIT ( * ) PLANE_ANGLE_UNIT ( ) SI_UNIT ( $, .RADIAN. ) );
#212 = CARTESIAN_POINT ( 'NONE',  ( 0.3750000000000000555, 5.000000000000000000, 4.592425496802576684E-17 ) ) ;
#213 = VERTEX_POINT ( 'NONE', #269 ) ;
#214 = COLOUR_RGB ( '',0.7921568627450980005, 0.8196078431372548767, 0.9333333333333333481 ) ;
#215 = VERTEX_POINT ( 'NONE', #198 ) ;
#216 = MECHANICAL_DESIGN_GEOMETRIC_PRESENTATION_REPRESENTATION (  '', ( #71 ), #174 ) ;
#217 = DIRECTION ( 'NONE',  ( -0.000000000000000000, -1.000000000000000000, -0.000000000000000000 ) ) ;
#218 = CIRCLE ( 'NONE', #16, 0.3750000000000000555 ) ;
#219 = FILL_AREA_STYLE ('',( #59 ) ) ;
#220 =( LENGTH_UNIT ( ) NAMED_UNIT ( * ) SI_UNIT ( $, .METRE. ) );
#221 = FILL_AREA_STYLE ('',( #123 ) ) ;
#222 = DIRECTION ( 'NONE',  ( -0.000000000000000000, -1.000000000000000000, -0.000000000000000000 ) ) ;
#223 = CIRCLE ( 'NONE', #161, 0.3750000000000000555 ) ;
#224 = CARTESIAN_POINT ( 'NONE',  ( 0.000000000000000000, 2.250000000000000000, -0.3750000000000000555 ) ) ;
#225 =( CONVERSION_BASED_UNIT ( 'INCH', #168 ) LENGTH_UNIT ( ) NAMED_UNIT ( #183 ) );
#226 = DIRECTION ( 'NONE',  ( -4.453261087808557677E-17, 1.000000000000000000, -0.000000000000000000 ) ) ;
#227 = DIRECTION ( 'NONE',  ( 1.000000000000000000, 0.000000000000000000, 0.000000000000000000 ) ) ;
#228 = VECTOR ( 'NONE', #296, 39.37007874015748143 ) ;
#229 = FILL_AREA_STYLE ('',( #253 ) ) ;
#230 = PRODUCT_CONTEXT ( 'NONE', #281, 'mechanical' ) ;
#231 = FILL_AREA_STYLE_COLOUR ( '', #34 ) ;
#232 = EDGE_CURVE ( 'NONE', #215, #73, #110, .T. ) ;
#233 = DIMENSIONAL_EXPONENTS ( 1.000000000000000000, 0.000000000000000000, 0.000000000000000000, 0.000000000000000000, 0.000000000000000000, 0.000000000000000000, 0.000000000000000000 ) ;
#234 = AXIS2_PLACEMENT_3D ( 'NONE', #31, #19, #33 ) ;
#235 = CARTESIAN_POINT ( 'NONE',  ( 0.000000000000000000, 0.000000000000000000, 0.000000000000000000 ) ) ;
#236 = PRODUCT_RELATED_PRODUCT_CATEGORY ( 'part', '', ( #14 ) ) ;
#237 = ORIENTED_EDGE ( 'NONE', *, *, #284, .F. ) ;
#238 = ORIENTED_EDGE ( 'NONE', *, *, #284, .T. ) ;
#239 = CARTESIAN_POINT ( 'NONE',  ( 3.718412684285598933E-34, 2.250000000000000000, 0.000000000000000000 ) ) ;
#240 =( NAMED_UNIT ( * ) PLANE_ANGLE_UNIT ( ) SI_UNIT ( $, .RADIAN. ) );
#241 = PRESENTATION_LAYER_ASSIGNMENT (  '', '', ( #210 ) ) ;
#242 = FILL_AREA_STYLE ('',( #173 ) ) ;
#243 = LINE ( 'NONE', #290, #96 ) ;
#244 = DIRECTION ( 'NONE',  ( -0.000000000000000000, -1.000000000000000000, -0.000000000000000000 ) ) ;
#245 = ADVANCED_FACE ( 'NONE', ( #57 ), #153, .T. ) ;
#246 = CARTESIAN_POINT ( 'NONE',  ( -1.224646799147353207E-16, 5.000000000000000000, 0.000000000000000000 ) ) ;
#247 = CIRCLE ( 'NONE', #234, 0.3750000000000001665 ) ;
#248 = FACE_OUTER_BOUND ( 'NONE', #192, .T. ) ;
#249 =( NAMED_UNIT ( * ) PLANE_ANGLE_UNIT ( ) SI_UNIT ( $, .RADIAN. ) );
#250 =( LENGTH_UNIT ( ) NAMED_UNIT ( * ) SI_UNIT ( $, .METRE. ) );
#251 = PRESENTATION_LAYER_ASSIGNMENT (  '', '', ( #71 ) ) ;
#252 = AXIS2_PLACEMENT_3D ( 'NONE', #129, #244, #85 ) ;
#253 = FILL_AREA_STYLE_COLOUR ( '', #175 ) ;
#254 = CARTESIAN_POINT ( 'NONE',  ( 4.592425496802575451E-17, 0.000000000000000000, 0.3750000000000000555 ) ) ;
#255 = DIRECTION ( 'NONE',  ( -0.000000000000000000, -1.000000000000000000, -0.000000000000000000 ) ) ;
#256 = DIMENSIONAL_EXPONENTS ( 1.000000000000000000, 0.000000000000000000, 0.000000000000000000, 0.000000000000000000, 0.000000000000000000, 0.000000000000000000, 0.000000000000000000 ) ;
#257 = EDGE_CURVE ( 'NONE', #48, #140, #243, .T. ) ;
#258 = ORIENTED_EDGE ( 'NONE', *, *, #146, .T. ) ;
#259 = ORIENTED_EDGE ( 'NONE', *, *, #302, .T. ) ;
#260 = VERTEX_POINT ( 'NONE', #12 ) ;
#261 = EDGE_CURVE ( 'NONE', #2, #215, #40, .T. ) ;
#262 = ORIENTED_EDGE ( 'NONE', *, *, #172, .T. ) ;
#263 = ORIENTED_EDGE ( 'NONE', *, *, #6, .T. ) ;
#264 =( CONVERSION_BASED_UNIT ( 'INCH', #131 ) LENGTH_UNIT ( ) NAMED_UNIT ( #256 ) );
#265 = SURFACE_STYLE_FILL_AREA ( #219 ) ;
#266 = VECTOR ( 'NONE', #222, 39.37007874015748143 ) ;
#267 = PLANE ( 'NONE',  #185 ) ;
#268 = PRESENTATION_STYLE_ASSIGNMENT (( #205 ) ) ;
#269 = CARTESIAN_POINT ( 'NONE',  ( -0.3750000000000000555, 2.250000000000000444, 0.000000000000000000 ) ) ;
#270 = SURFACE_SIDE_STYLE ('',( #170 ) ) ;
#271 = LENGTH_MEASURE_WITH_UNIT ( LENGTH_MEASURE( 0.02539999999999999897 ), #164 );
#272 = COLOUR_RGB ( '',1.000000000000000000, 0.000000000000000000, 0.000000000000000000 ) ;
#273 = PRESENTATION_LAYER_ASSIGNMENT (  '', '', ( #66 ) ) ;
#274 = AXIS2_PLACEMENT_3D ( 'NONE', #282, #295, #35 ) ;
#275 = PLANE ( 'NONE',  #143 ) ;
#276 = APPLICATION_PROTOCOL_DEFINITION ( 'draft international standard', 'automotive_design', 1998, #281 ) ;
#277 = PRESENTATION_STYLE_ASSIGNMENT (( #280 ) ) ;
#278 = DIRECTION ( 'NONE',  ( -1.000000000000000000, 0.000000000000000000, 0.000000000000000000 ) ) ;
#279 = CLOSED_SHELL ( 'NONE', ( #28, #286, #245, #5 ) ) ;
#280 = SURFACE_STYLE_USAGE ( .BOTH. , #68 ) ;
#281 = APPLICATION_CONTEXT ( 'automotive_design' ) ;
#282 = CARTESIAN_POINT ( 'NONE',  ( 0.000000000000000000, 2.250000000000000000, 0.000000000000000000 ) ) ;
#283 = ORIENTED_EDGE ( 'NONE', *, *, #46, .T. ) ;
#284 = EDGE_CURVE ( 'NONE', #2, #260, #109, .T. ) ;
#285 = ORIENTED_EDGE ( 'NONE', *, *, #159, .F. ) ;
#286 = ADVANCED_FACE ( 'NONE', ( #105 ), #267, .F. ) ;
#287 =( GEOMETRIC_REPRESENTATION_CONTEXT ( 3 ) GLOBAL_UNCERTAINTY_ASSIGNED_CONTEXT ( ( #180 ) ) GLOBAL_UNIT_ASSIGNED_CONTEXT ( ( #182, #211, #111 ) ) REPRESENTATION_CONTEXT ( 'NONE', 'WORKASPACE' ) );
#288 = PRODUCT_DEFINITION ( 'UNKNOWN', '', #293, #303 ) ;
#289 = DIRECTION ( 'NONE',  ( 1.000000000000000000, 4.453261087808557677E-17, 0.000000000000000000 ) ) ;
#290 = CARTESIAN_POINT ( 'NONE',  ( 0.3749999999999999445, 5.000000000000000000, 4.592425496802576068E-17 ) ) ;
#291 = MECHANICAL_DESIGN_GEOMETRIC_PRESENTATION_REPRESENTATION (  '', ( #120 ), #201 ) ;
#292 = DIRECTION ( 'NONE',  ( -1.000000000000000000, 0.000000000000000000, 0.000000000000000000 ) ) ;
#293 = PRODUCT_DEFINITION_FORMATION_WITH_SPECIFIED_SOURCE ( 'ANY', '', #14, .NOT_KNOWN. ) ;
#294 = CARTESIAN_POINT ( 'NONE',  ( 4.592425496802575451E-17, 0.000000000000000000, 0.3750000000000000555 ) ) ;
#295 = DIRECTION ( 'NONE',  ( -0.000000000000000000, -1.000000000000000000, -0.000000000000000000 ) ) ;
#296 = DIRECTION ( 'NONE',  ( -0.000000000000000000, -1.000000000000000000, -0.000000000000000000 ) ) ;
#297 = UNCERTAINTY_MEASURE_WITH_UNIT (LENGTH_MEASURE( 1.000000000000000082E-05 ), #163, 'distance_accuracy_value', 'NONE');
#298 =( NAMED_UNIT ( * ) SI_UNIT ( $, .STERADIAN. ) SOLID_ANGLE_UNIT ( ) );
#299 = MANIFOLD_SOLID_BREP ( 'Revolve - Tool Body (Straight Shanked)', #279 ) ;
#300 = DIRECTION ( 'NONE',  ( 0.000000000000000000, 0.000000000000000000, -1.000000000000000000 ) ) ;
#301 = MANIFOLD_SOLID_BREP ( 'Revolve - Cutting Edge', #207 ) ;
#302 = EDGE_CURVE ( 'NONE', #140, #141, #121, .T. ) ;
#303 = PRODUCT_DEFINITION_CONTEXT ( 'detailed design', #176, 'design' ) ;
#304 = CARTESIAN_POINT ( 'NONE',  ( 0.000000000000000000, 2.250000000000000000, 0.000000000000000000 ) ) ;
#305 = DIMENSIONAL_EXPONENTS ( 1.000000000000000000, 0.000000000000000000, 0.000000000000000000, 0.000000000000000000, 0.000000000000000000, 0.000000000000000000, 0.000000000000000000 ) ;
#306 =( NAMED_UNIT ( * ) PLANE_ANGLE_UNIT ( ) SI_UNIT ( $, .RADIAN. ) );
#307 = FILL_AREA_STYLE ('',( #231 ) ) ;
#308 = AXIS2_PLACEMENT_3D ( 'NONE', #24, #178, #300 ) ;
#309 = AXIS2_PLACEMENT_3D ( 'NONE', #187, #179, #227 ) ;
ENDSEC;
END-ISO-10303-21;
