ISO-10303-21;
HEADER;
FILE_DESCRIPTION (( 'STEP AP214' ),
    '1' );
FILE_NAME ('59802.STEP',
    '2023-07-24T15:41:53',
    ( '' ),
    ( '' ),
    'SwSTEP 2.0',
    'SolidWorks 2023',
    '' );
FILE_SCHEMA (( 'AUTOMOTIVE_DESIGN' ));
ENDSEC;

DATA;
#1 =( NAMED_UNIT ( * ) SI_UNIT ( $, .STERADIAN. ) SOLID_ANGLE_UNIT ( ) );
#2 = CARTESIAN_POINT ( 'NONE',  ( -1.469576158976823750E-15, 75.00000000000000000, 0.000000000000000000 ) ) ;
#3 = CLOSED_SHELL ( 'NONE', ( #244, #152, #171, #282, #285, #156 ) ) ;
#4 = DIRECTION ( 'NONE',  ( -1.000000000000000000, 0.000000000000000000, 0.000000000000000000 ) ) ;
#5 = AXIS2_PLACEMENT_3D ( 'NONE', #346, #266, #349 ) ;
#6 = VERTEX_POINT ( 'NONE', #63 ) ;
#7 = DIRECTION ( 'NONE',  ( -0.000000000000000000, -1.000000000000000000, -0.000000000000000000 ) ) ;
#8 = COLOUR_RGB ( '',1.000000000000000000, 0.000000000000000000, 0.000000000000000000 ) ;
#9 =( NAMED_UNIT ( * ) SI_UNIT ( $, .STERADIAN. ) SOLID_ANGLE_UNIT ( ) );
#10 = CARTESIAN_POINT ( 'NONE',  ( 0.000000000000000000, 0.000000000000000000, -3.500000000000000000 ) ) ;
#11 = SURFACE_SIDE_STYLE ('',( #203 ) ) ;
#12 = CARTESIAN_POINT ( 'NONE',  ( 0.000000000000000000, 0.000000000000000000, 0.000000000000000000 ) ) ;
#13 = UNCERTAINTY_MEASURE_WITH_UNIT (LENGTH_MEASURE( 1.000000000000000082E-05 ), #269, 'distance_accuracy_value', 'NONE');
#14 = DIRECTION ( 'NONE',  ( 0.000000000000000000, -1.000000000000000000, -0.000000000000000000 ) ) ;
#15 = SURFACE_STYLE_USAGE ( .BOTH. , #134 ) ;
#16 = ADVANCED_FACE ( 'NONE', ( #143 ), #148, .T. ) ;
#17 = UNCERTAINTY_MEASURE_WITH_UNIT (LENGTH_MEASURE( 1.000000000000000082E-05 ), #108, 'distance_accuracy_value', 'NONE');
#18 = FILL_AREA_STYLE ('',( #50 ) ) ;
#19 = SURFACE_SIDE_STYLE ('',( #157 ) ) ;
#20 = CIRCLE ( 'NONE', #65, 3.500000000000000000 ) ;
#21 = PRESENTATION_LAYER_ASSIGNMENT (  '', '', ( #297 ) ) ;
#22 = DIRECTION ( 'NONE',  ( -1.223542297630008506E-16, 1.000000000000000000, -0.000000000000000000 ) ) ;
#23 = EDGE_CURVE ( 'NONE', #6, #196, #258, .T. ) ;
#24 = FACE_OUTER_BOUND ( 'NONE', #142, .T. ) ;
#25 = DIRECTION ( 'NONE',  ( -1.223542297630008506E-16, 1.000000000000000000, -0.000000000000000000 ) ) ;
#26 = SURFACE_STYLE_USAGE ( .BOTH. , #155 ) ;
#27 = DIRECTION ( 'NONE',  ( -1.000000000000000000, 0.000000000000000000, 0.000000000000000000 ) ) ;
#28 = AXIS2_PLACEMENT_3D ( 'NONE', #350, #198, #321 ) ;
#29 = PRODUCT_RELATED_PRODUCT_CATEGORY ( 'part', '', ( #267 ) ) ;
#30 = ORIENTED_EDGE ( 'NONE', *, *, #84, .T. ) ;
#31 = FILL_AREA_STYLE_COLOUR ( '', #335 ) ;
#32 = PLANE ( 'NONE',  #49 ) ;
#33 = ORIENTED_EDGE ( 'NONE', *, *, #369, .F. ) ;
#34 = DIRECTION ( 'NONE',  ( -0.000000000000000000, -1.000000000000000000, -0.000000000000000000 ) ) ;
#35 =( GEOMETRIC_REPRESENTATION_CONTEXT ( 3 ) GLOBAL_UNCERTAINTY_ASSIGNED_CONTEXT ( ( #112 ) ) GLOBAL_UNIT_ASSIGNED_CONTEXT ( ( #313, #44, #248 ) ) REPRESENTATION_CONTEXT ( 'NONE', 'WORKASPACE' ) );
#36 = EDGE_LOOP ( 'NONE', ( #57, #122, #292, #235 ) ) ;
#37 = VERTEX_POINT ( 'NONE', #164 ) ;
#38 = ORIENTED_EDGE ( 'NONE', *, *, #300, .F. ) ;
#39 =( NAMED_UNIT ( * ) SI_UNIT ( $, .STERADIAN. ) SOLID_ANGLE_UNIT ( ) );
#40 = EDGE_CURVE ( 'NONE', #196, #37, #206, .T. ) ;
#41 = PRESENTATION_LAYER_ASSIGNMENT (  '', '', ( #130 ) ) ;
#42 = DIRECTION ( 'NONE',  ( 0.000000000000000000, 0.000000000000000000, -1.000000000000000000 ) ) ;
#43 = DIRECTION ( 'NONE',  ( 0.000000000000000000, 0.000000000000000000, -1.000000000000000000 ) ) ;
#44 =( NAMED_UNIT ( * ) PLANE_ANGLE_UNIT ( ) SI_UNIT ( $, .RADIAN. ) );
#45 = FILL_AREA_STYLE_COLOUR ( '', #207 ) ;
#46 = EDGE_CURVE ( 'NONE', #145, #325, #273, .T. ) ;
#47 = ORIENTED_EDGE ( 'NONE', *, *, #300, .T. ) ;
#48 = VECTOR ( 'NONE', #368, 1000.000000000000000 ) ;
#49 = AXIS2_PLACEMENT_3D ( 'NONE', #257, #151, #302 ) ;
#50 = FILL_AREA_STYLE_COLOUR ( '', #309 ) ;
#51 = DIRECTION ( 'NONE',  ( 1.000000000000000000, 1.223542297630008506E-16, 0.000000000000000000 ) ) ;
#52 = CARTESIAN_POINT ( 'NONE',  ( 0.000000000000000000, 0.000000000000000000, -4.000000000000000000 ) ) ;
#53 = EDGE_CURVE ( 'NONE', #238, #37, #160, .T. ) ;
#54 = AXIS2_PLACEMENT_3D ( 'NONE', #286, #342, #27 ) ;
#55 = CYLINDRICAL_SURFACE ( 'NONE', #5, 4.000000000000000000 ) ;
#56 =( NAMED_UNIT ( * ) PLANE_ANGLE_UNIT ( ) SI_UNIT ( $, .RADIAN. ) );
#57 = ORIENTED_EDGE ( 'NONE', *, *, #114, .F. ) ;
#58 = PRESENTATION_STYLE_ASSIGNMENT (( #116 ) ) ;
#59 = ORIENTED_EDGE ( 'NONE', *, *, #84, .F. ) ;
#60 = FILL_AREA_STYLE ('',( #31 ) ) ;
#61 = VERTEX_POINT ( 'NONE', #339 ) ;
#62 = AXIS2_PLACEMENT_3D ( 'NONE', #217, #359, #280 ) ;
#63 = CARTESIAN_POINT ( 'NONE',  ( 4.898587196589412829E-16, 24.00000000000000000, 4.000000000000000000 ) ) ;
#64 = ADVANCED_BREP_SHAPE_REPRESENTATION ( '59802', ( #271, #268, #81 ), #194 ) ;
#65 = AXIS2_PLACEMENT_3D ( 'NONE', #365, #187, #113 ) ;
#66 = SURFACE_SIDE_STYLE ('',( #256 ) ) ;
#67 = AXIS2_PLACEMENT_3D ( 'NONE', #277, #74, #133 ) ;
#68 = PRODUCT_DEFINITION_SHAPE ( 'NONE', 'NONE',  #174 ) ;
#69 = FACE_OUTER_BOUND ( 'NONE', #189, .T. ) ;
#70 = UNCERTAINTY_MEASURE_WITH_UNIT (LENGTH_MEASURE( 1.000000000000000082E-05 ), #138, 'distance_accuracy_value', 'NONE');
#71 = AXIS2_PLACEMENT_3D ( 'NONE', #225, #284, #314 ) ;
#72 =( GEOMETRIC_REPRESENTATION_CONTEXT ( 3 ) GLOBAL_UNCERTAINTY_ASSIGNED_CONTEXT ( ( #17 ) ) GLOBAL_UNIT_ASSIGNED_CONTEXT ( ( #108, #222, #295 ) ) REPRESENTATION_CONTEXT ( 'NONE', 'WORKASPACE' ) );
#73 =( NAMED_UNIT ( * ) PLANE_ANGLE_UNIT ( ) SI_UNIT ( $, .RADIAN. ) );
#74 = DIRECTION ( 'NONE',  ( 1.000000000000000000, 0.000000000000000000, -1.224646799147353207E-16 ) ) ;
#75 = DIRECTION ( 'NONE',  ( 0.000000000000000000, 0.000000000000000000, -1.000000000000000000 ) ) ;
#76 = ORIENTED_EDGE ( 'NONE', *, *, #90, .F. ) ;
#77 = CARTESIAN_POINT ( 'NONE',  ( -3.999999999999991562, 24.00000000000000000, 0.000000000000000000 ) ) ;
#78 = VECTOR ( 'NONE', #204, 1000.000000000000000 ) ;
#79 = COLOUR_RGB ( '',1.000000000000000000, 0.000000000000000000, 0.000000000000000000 ) ;
#80 = FILL_AREA_STYLE_COLOUR ( '', #104 ) ;
#81 = AXIS2_PLACEMENT_3D ( 'NONE', #82, #228, #344 ) ;
#82 = CARTESIAN_POINT ( 'NONE',  ( 0.000000000000000000, 0.000000000000000000, 0.000000000000000000 ) ) ;
#83 = ORIENTED_EDGE ( 'NONE', *, *, #23, .F. ) ;
#84 = EDGE_CURVE ( 'NONE', #61, #337, #20, .T. ) ;
#85 = FILL_AREA_STYLE ('',( #343 ) ) ;
#86 = EDGE_LOOP ( 'NONE', ( #232, #319, #93, #317 ) ) ;
#87 = SURFACE_STYLE_FILL_AREA ( #85 ) ;
#88 = ORIENTED_EDGE ( 'NONE', *, *, #23, .T. ) ;
#89 = AXIS2_PLACEMENT_3D ( 'NONE', #129, #179, #367 ) ;
#90 = EDGE_CURVE ( 'NONE', #6, #238, #205, .T. ) ;
#91 = VERTEX_POINT ( 'NONE', #77 ) ;
#92 = CARTESIAN_POINT ( 'NONE',  ( 4.000000000000000000, 75.00000000000000000, 4.898587196589412829E-16 ) ) ;
#93 = ORIENTED_EDGE ( 'NONE', *, *, #46, .F. ) ;
#94 = CARTESIAN_POINT ( 'NONE',  ( 0.000000000000000000, 0.5000000000000000000, 0.000000000000000000 ) ) ;
#95 = ORIENTED_EDGE ( 'NONE', *, *, #40, .F. ) ;
#96 = CYLINDRICAL_SURFACE ( 'NONE', #283, 4.000000000000000000 ) ;
#97 = EDGE_CURVE ( 'NONE', #37, #196, #119, .T. ) ;
#98 =( NAMED_UNIT ( * ) PLANE_ANGLE_UNIT ( ) SI_UNIT ( $, .RADIAN. ) );
#99 = FILL_AREA_STYLE_COLOUR ( '', #8 ) ;
#100 =( GEOMETRIC_REPRESENTATION_CONTEXT ( 3 ) GLOBAL_UNCERTAINTY_ASSIGNED_CONTEXT ( ( #70 ) ) GLOBAL_UNIT_ASSIGNED_CONTEXT ( ( #138, #73, #109 ) ) REPRESENTATION_CONTEXT ( 'NONE', 'WORKASPACE' ) );
#101 =( LENGTH_UNIT ( ) NAMED_UNIT ( * ) SI_UNIT ( .MILLI., .METRE. ) );
#102 = UNCERTAINTY_MEASURE_WITH_UNIT (LENGTH_MEASURE( 1.000000000000000082E-05 ), #362, 'distance_accuracy_value', 'NONE');
#103 = CARTESIAN_POINT ( 'NONE',  ( -4.000000000000000000, 75.00000000000000000, 0.000000000000000000 ) ) ;
#104 = COLOUR_RGB ( '',0.7921568627450980005, 0.8196078431372548767, 0.9333333333333333481 ) ;
#105 = EDGE_CURVE ( 'NONE', #91, #351, #332, .T. ) ;
#106 = SURFACE_SIDE_STYLE ('',( #161 ) ) ;
#107 = CARTESIAN_POINT ( 'NONE',  ( -4.000000000000003553, 75.00000000000000000, 0.000000000000000000 ) ) ;
#108 =( LENGTH_UNIT ( ) NAMED_UNIT ( * ) SI_UNIT ( .MILLI., .METRE. ) );
#109 =( NAMED_UNIT ( * ) SI_UNIT ( $, .STERADIAN. ) SOLID_ANGLE_UNIT ( ) );
#110 = FACE_OUTER_BOUND ( 'NONE', #172, .T. ) ;
#111 = STYLED_ITEM ( 'NONE', ( #185 ), #271 ) ;
#112 = UNCERTAINTY_MEASURE_WITH_UNIT (LENGTH_MEASURE( 1.000000000000000082E-05 ), #313, 'distance_accuracy_value', 'NONE');
#113 = DIRECTION ( 'NONE',  ( 0.000000000000000000, 0.000000000000000000, -1.000000000000000000 ) ) ;
#114 = EDGE_CURVE ( 'NONE', #351, #325, #162, .T. ) ;
#115 = DIRECTION ( 'NONE',  ( -1.000000000000000000, 0.000000000000000000, 0.000000000000000000 ) ) ;
#116 = SURFACE_STYLE_USAGE ( .BOTH. , #66 ) ;
#117 = ORIENTED_EDGE ( 'NONE', *, *, #53, .T. ) ;
#118 = APPLICATION_PROTOCOL_DEFINITION ( 'draft international standard', 'automotive_design', 1998, #213 ) ;
#119 = CIRCLE ( 'NONE', #71, 4.000000000000000000 ) ;
#120 = DIRECTION ( 'NONE',  ( 0.000000000000000000, 0.000000000000000000, -1.000000000000000000 ) ) ;
#121 = ORIENTED_EDGE ( 'NONE', *, *, #90, .T. ) ;
#122 = ORIENTED_EDGE ( 'NONE', *, *, #125, .T. ) ;
#123 = CARTESIAN_POINT ( 'NONE',  ( -1.469576158976823750E-15, 75.00000000000000000, 0.000000000000000000 ) ) ;
#124 = AXIS2_PLACEMENT_3D ( 'NONE', #12, #14, #43 ) ;
#125 = EDGE_CURVE ( 'NONE', #351, #91, #263, .T. ) ;
#126 = ORIENTED_EDGE ( 'NONE', *, *, #105, .F. ) ;
#127 = PRODUCT_DEFINITION_FORMATION_WITH_SPECIFIED_SOURCE ( 'ANY', '', #267, .NOT_KNOWN. ) ;
#128 = FILL_AREA_STYLE ('',( #360 ) ) ;
#129 = CARTESIAN_POINT ( 'NONE',  ( 0.000000000000000000, 24.00000000000000000, 0.000000000000000000 ) ) ;
#130 = STYLED_ITEM ( 'NONE', ( #281 ), #282 ) ;
#131 = APPLICATION_PROTOCOL_DEFINITION ( 'draft international standard', 'automotive_design', 1998, #190 ) ;
#132 = DIRECTION ( 'NONE',  ( -1.223542297630008506E-16, 1.000000000000000000, -0.000000000000000000 ) ) ;
#133 = DIRECTION ( 'NONE',  ( -1.224646799147353454E-16, 0.000000000000000000, -1.000000000000000000 ) ) ;
#134 = SURFACE_SIDE_STYLE ('',( #158 ) ) ;
#135 = SURFACE_STYLE_USAGE ( .BOTH. , #19 ) ;
#136 =( GEOMETRIC_REPRESENTATION_CONTEXT ( 3 ) GLOBAL_UNCERTAINTY_ASSIGNED_CONTEXT ( ( #242 ) ) GLOBAL_UNIT_ASSIGNED_CONTEXT ( ( #230, #56, #167 ) ) REPRESENTATION_CONTEXT ( 'NONE', 'WORKASPACE' ) );
#137 = FILL_AREA_STYLE ('',( #305 ) ) ;
#138 =( LENGTH_UNIT ( ) NAMED_UNIT ( * ) SI_UNIT ( .MILLI., .METRE. ) );
#139 = CLOSED_SHELL ( 'NONE', ( #16, #226, #147, #260 ) ) ;
#140 = DIRECTION ( 'NONE',  ( -1.000000000000000000, 0.000000000000000000, 0.000000000000000000 ) ) ;
#141 = AXIS2_PLACEMENT_3D ( 'NONE', #338, #188, #357 ) ;
#142 = EDGE_LOOP ( 'NONE', ( #33, #168, #47, #59 ) ) ;
#143 = FACE_OUTER_BOUND ( 'NONE', #86, .T. ) ;
#144 = PRESENTATION_LAYER_ASSIGNMENT (  '', '', ( #111 ) ) ;
#145 = VERTEX_POINT ( 'NONE', #107 ) ;
#146 = EDGE_LOOP ( 'NONE', ( #83, #121, #117, #95 ) ) ;
#147 = ADVANCED_FACE ( 'NONE', ( #254 ), #306, .T. ) ;
#148 = CYLINDRICAL_SURFACE ( 'NONE', #28, 3.999999999999998224 ) ;
#149 = CARTESIAN_POINT ( 'NONE',  ( 0.000000000000000000, 0.000000000000000000, 0.000000000000000000 ) ) ;
#150 = AXIS2_PLACEMENT_3D ( 'NONE', #252, #221, #51 ) ;
#151 = DIRECTION ( 'NONE',  ( 0.000000000000000000, 1.000000000000000000, 0.000000000000000000 ) ) ;
#152 = ADVANCED_FACE ( 'NONE', ( #110 ), #246, .T. ) ;
#153 = MECHANICAL_DESIGN_GEOMETRIC_PRESENTATION_REPRESENTATION (  '', ( #301 ), #264 ) ;
#154 = CARTESIAN_POINT ( 'NONE',  ( 0.000000000000000000, 24.00000000000000000, -4.000000000000000000 ) ) ;
#155 = SURFACE_SIDE_STYLE ('',( #308 ) ) ;
#156 = ADVANCED_FACE ( 'NONE', ( #310 ), #32, .T. ) ;
#157 = SURFACE_STYLE_FILL_AREA ( #249 ) ;
#158 = SURFACE_STYLE_FILL_AREA ( #18 ) ;
#159 = TOROIDAL_SURFACE ( 'NONE', #141, 3.500000000000000000, 0.5000000000000000000 ) ;
#160 = LINE ( 'NONE', #52, #287 ) ;
#161 = SURFACE_STYLE_FILL_AREA ( #137 ) ;
#162 = LINE ( 'NONE', #184, #48 ) ;
#163 = STYLED_ITEM ( 'NONE', ( #183 ), #152 ) ;
#164 = CARTESIAN_POINT ( 'NONE',  ( 0.000000000000000000, 0.5000000000000000000, -4.000000000000000000 ) ) ;
#165 = EDGE_LOOP ( 'NONE', ( #290, #76 ) ) ;
#166 =( NAMED_UNIT ( * ) PLANE_ANGLE_UNIT ( ) SI_UNIT ( $, .RADIAN. ) );
#167 =( NAMED_UNIT ( * ) SI_UNIT ( $, .STERADIAN. ) SOLID_ANGLE_UNIT ( ) );
#168 = ORIENTED_EDGE ( 'NONE', *, *, #40, .T. ) ;
#169 = AXIS2_PLACEMENT_3D ( 'NONE', #2, #25, #115 ) ;
#170 = PRESENTATION_LAYER_ASSIGNMENT (  '', '', ( #278 ) ) ;
#171 = ADVANCED_FACE ( 'NONE', ( #241 ), #275, .T. ) ;
#172 = EDGE_LOOP ( 'NONE', ( #355, #261, #220, #38 ) ) ;
#173 = SURFACE_STYLE_USAGE ( .BOTH. , #358 ) ;
#174 = PRODUCT_DEFINITION ( 'UNKNOWN', '', #127, #303 ) ;
#175 = CARTESIAN_POINT ( 'NONE',  ( 4.000000000000000000, 24.00000000000000000, 4.898587196589413815E-16 ) ) ;
#176 = LINE ( 'NONE', #103, #347 ) ;
#177 = DIRECTION ( 'NONE',  ( -1.000000000000000000, -1.223542297630008506E-16, 0.000000000000000000 ) ) ;
#178 = PRESENTATION_LAYER_ASSIGNMENT (  '', '', ( #301 ) ) ;
#179 = DIRECTION ( 'NONE',  ( -0.000000000000000000, -1.000000000000000000, -0.000000000000000000 ) ) ;
#180 =( GEOMETRIC_REPRESENTATION_CONTEXT ( 3 ) GLOBAL_UNCERTAINTY_ASSIGNED_CONTEXT ( ( #276 ) ) GLOBAL_UNIT_ASSIGNED_CONTEXT ( ( #294, #166, #1 ) ) REPRESENTATION_CONTEXT ( 'NONE', 'WORKASPACE' ) );
#181 = EDGE_CURVE ( 'NONE', #91, #145, #176, .T. ) ;
#182 = PRESENTATION_STYLE_ASSIGNMENT (( #26 ) ) ;
#183 = PRESENTATION_STYLE_ASSIGNMENT (( #135 ) ) ;
#184 = CARTESIAN_POINT ( 'NONE',  ( 3.999999999999996447, 75.00000000000000000, 4.898587196589410857E-16 ) ) ;
#185 = PRESENTATION_STYLE_ASSIGNMENT (( #15 ) ) ;
#186 = MECHANICAL_DESIGN_GEOMETRIC_PRESENTATION_REPRESENTATION (  '', ( #130 ), #366 ) ;
#187 = DIRECTION ( 'NONE',  ( -0.000000000000000000, -1.000000000000000000, -0.000000000000000000 ) ) ;
#188 = DIRECTION ( 'NONE',  ( -0.000000000000000000, -1.000000000000000000, -0.000000000000000000 ) ) ;
#189 = EDGE_LOOP ( 'NONE', ( #126, #255 ) ) ;
#190 = APPLICATION_CONTEXT ( 'automotive_design' ) ;
#191 = DIRECTION ( 'NONE',  ( 0.000000000000000000, 0.000000000000000000, -1.000000000000000000 ) ) ;
#192 = EDGE_LOOP ( 'NONE', ( #202, #88, #288, #353 ) ) ;
#193 = PRESENTATION_LAYER_ASSIGNMENT (  '', '', ( #163 ) ) ;
#194 =( GEOMETRIC_REPRESENTATION_CONTEXT ( 3 ) GLOBAL_UNCERTAINTY_ASSIGNED_CONTEXT ( ( #13 ) ) GLOBAL_UNIT_ASSIGNED_CONTEXT ( ( #269, #212, #272 ) ) REPRESENTATION_CONTEXT ( 'NONE', 'WORKASPACE' ) );
#195 = EDGE_LOOP ( 'NONE', ( #296, #320 ) ) ;
#196 = VERTEX_POINT ( 'NONE', #210 ) ;
#197 = EDGE_CURVE ( 'NONE', #325, #145, #253, .T. ) ;
#198 = DIRECTION ( 'NONE',  ( -1.223542297630008506E-16, 1.000000000000000000, -0.000000000000000000 ) ) ;
#199 = MECHANICAL_DESIGN_GEOMETRIC_PRESENTATION_REPRESENTATION (  '', ( #215 ), #370 ) ;
#200 = SURFACE_SIDE_STYLE ('',( #87 ) ) ;
#201 = MECHANICAL_DESIGN_GEOMETRIC_PRESENTATION_REPRESENTATION (  '', ( #278 ), #180 ) ;
#202 = ORIENTED_EDGE ( 'NONE', *, *, #345, .T. ) ;
#203 = SURFACE_STYLE_FILL_AREA ( #128 ) ;
#204 = DIRECTION ( 'NONE',  ( -0.000000000000000000, -1.000000000000000000, -0.000000000000000000 ) ) ;
#205 = CIRCLE ( 'NONE', #327, 4.000000000000000000 ) ;
#206 = CIRCLE ( 'NONE', #352, 4.000000000000000000 ) ;
#207 = COLOUR_RGB ( '',1.000000000000000000, 0.000000000000000000, 0.000000000000000000 ) ;
#208 = AXIS2_PLACEMENT_3D ( 'NONE', #315, #233, #291 ) ;
#209 =( LENGTH_UNIT ( ) NAMED_UNIT ( * ) SI_UNIT ( .MILLI., .METRE. ) );
#210 = CARTESIAN_POINT ( 'NONE',  ( 4.898587196589412829E-16, 0.5000000000000000000, 4.000000000000000000 ) ) ;
#211 = UNCERTAINTY_MEASURE_WITH_UNIT (LENGTH_MEASURE( 1.000000000000000082E-05 ), #101, 'distance_accuracy_value', 'NONE');
#212 =( NAMED_UNIT ( * ) PLANE_ANGLE_UNIT ( ) SI_UNIT ( $, .RADIAN. ) );
#213 = APPLICATION_CONTEXT ( 'automotive_design' ) ;
#214 = AXIS2_PLACEMENT_3D ( 'NONE', #289, #348, #4 ) ;
#215 = STYLED_ITEM ( 'NONE', ( #279 ), #171 ) ;
#216 = CARTESIAN_POINT ( 'NONE',  ( 0.000000000000000000, 24.00000000000000000, 0.000000000000000000 ) ) ;
#217 = CARTESIAN_POINT ( 'NONE',  ( 0.000000000000000000, 0.000000000000000000, 0.000000000000000000 ) ) ;
#218 = FACE_OUTER_BOUND ( 'NONE', #146, .T. ) ;
#219 = DIRECTION ( 'NONE',  ( -0.000000000000000000, -1.000000000000000000, -0.000000000000000000 ) ) ;
#220 = ORIENTED_EDGE ( 'NONE', *, *, #363, .F. ) ;
#221 = DIRECTION ( 'NONE',  ( 1.223542297630008506E-16, -1.000000000000000000, 0.000000000000000000 ) ) ;
#222 =( NAMED_UNIT ( * ) PLANE_ANGLE_UNIT ( ) SI_UNIT ( $, .RADIAN. ) );
#223 = AXIS2_PLACEMENT_3D ( 'NONE', #237, #354, #177 ) ;
#224 = PLANE ( 'NONE',  #150 ) ;
#225 = CARTESIAN_POINT ( 'NONE',  ( 0.000000000000000000, 0.5000000000000000000, 0.000000000000000000 ) ) ;
#226 = ADVANCED_FACE ( 'NONE', ( #69 ), #298, .F. ) ;
#227 = CARTESIAN_POINT ( 'NONE',  ( 0.000000000000000000, 0.5000000000000000000, 0.000000000000000000 ) ) ;
#228 = DIRECTION ( 'NONE',  ( 0.000000000000000000, 0.000000000000000000, 1.000000000000000000 ) ) ;
#229 = AXIS2_PLACEMENT_3D ( 'NONE', #94, #34, #191 ) ;
#230 =( LENGTH_UNIT ( ) NAMED_UNIT ( * ) SI_UNIT ( .MILLI., .METRE. ) );
#231 = CIRCLE ( 'NONE', #62, 3.500000000000000000 ) ;
#232 = ORIENTED_EDGE ( 'NONE', *, *, #105, .T. ) ;
#233 = DIRECTION ( 'NONE',  ( -1.000000000000000000, 0.000000000000000000, 0.000000000000000000 ) ) ;
#234 = EDGE_LOOP ( 'NONE', ( #340, #30 ) ) ;
#235 = ORIENTED_EDGE ( 'NONE', *, *, #197, .F. ) ;
#236 = MECHANICAL_DESIGN_GEOMETRIC_PRESENTATION_REPRESENTATION (  '', ( #163 ), #72 ) ;
#237 = CARTESIAN_POINT ( 'NONE',  ( 4.770489558936219510E-15, 24.00000000000000000, 0.000000000000000000 ) ) ;
#238 = VERTEX_POINT ( 'NONE', #154 ) ;
#239 = DIRECTION ( 'NONE',  ( -1.223542297630008506E-16, 1.000000000000000000, -0.000000000000000000 ) ) ;
#240 = COLOUR_RGB ( '',1.000000000000000000, 0.000000000000000000, 0.000000000000000000 ) ;
#241 = FACE_OUTER_BOUND ( 'NONE', #234, .T. ) ;
#242 = UNCERTAINTY_MEASURE_WITH_UNIT (LENGTH_MEASURE( 1.000000000000000082E-05 ), #230, 'distance_accuracy_value', 'NONE');
#243 = CIRCLE ( 'NONE', #89, 4.000000000000000000 ) ;
#244 = ADVANCED_FACE ( 'NONE', ( #299 ), #96, .T. ) ;
#245 =( NAMED_UNIT ( * ) PLANE_ANGLE_UNIT ( ) SI_UNIT ( $, .RADIAN. ) );
#246 = TOROIDAL_SURFACE ( 'NONE', #229, 3.500000000000000000, 0.5000000000000000000 ) ;
#247 = CIRCLE ( 'NONE', #67, 0.5000000000000000000 ) ;
#248 =( NAMED_UNIT ( * ) SI_UNIT ( $, .STERADIAN. ) SOLID_ANGLE_UNIT ( ) );
#249 = FILL_AREA_STYLE ('',( #45 ) ) ;
#250 = SURFACE_STYLE_USAGE ( .BOTH. , #106 ) ;
#251 = SHAPE_DEFINITION_REPRESENTATION ( #68, #64 ) ;
#252 = CARTESIAN_POINT ( 'NONE',  ( 4.000000000000000000, 75.00000000000000000, 0.000000000000000000 ) ) ;
#253 = CIRCLE ( 'NONE', #333, 4.000000000000001776 ) ;
#254 = FACE_OUTER_BOUND ( 'NONE', #36, .T. ) ;
#255 = ORIENTED_EDGE ( 'NONE', *, *, #125, .F. ) ;
#256 = SURFACE_STYLE_FILL_AREA ( #60 ) ;
#257 = CARTESIAN_POINT ( 'NONE',  ( 0.000000000000000000, 24.00000000000000000, 0.000000000000000000 ) ) ;
#258 = LINE ( 'NONE', #262, #78 ) ;
#259 = PRESENTATION_LAYER_ASSIGNMENT (  '', '', ( #274 ) ) ;
#260 = ADVANCED_FACE ( 'NONE', ( #311 ), #224, .F. ) ;
#261 = ORIENTED_EDGE ( 'NONE', *, *, #369, .T. ) ;
#262 = CARTESIAN_POINT ( 'NONE',  ( 4.898587196589412829E-16, 0.000000000000000000, 4.000000000000000000 ) ) ;
#263 = CIRCLE ( 'NONE', #316, 3.999999999999996447 ) ;
#264 =( GEOMETRIC_REPRESENTATION_CONTEXT ( 3 ) GLOBAL_UNCERTAINTY_ASSIGNED_CONTEXT ( ( #211 ) ) GLOBAL_UNIT_ASSIGNED_CONTEXT ( ( #101, #98, #39 ) ) REPRESENTATION_CONTEXT ( 'NONE', 'WORKASPACE' ) );
#265 = DIRECTION ( 'NONE',  ( -0.000000000000000000, -1.000000000000000000, -0.000000000000000000 ) ) ;
#266 = DIRECTION ( 'NONE',  ( -0.000000000000000000, -1.000000000000000000, -0.000000000000000000 ) ) ;
#267 = PRODUCT ( '59802', '59802', '', ( #307 ) ) ;
#268 = MANIFOLD_SOLID_BREP ( 'Revolve - Tool Body (Straight Shanked)', #139 ) ;
#269 =( LENGTH_UNIT ( ) NAMED_UNIT ( * ) SI_UNIT ( .MILLI., .METRE. ) );
#270 =( NAMED_UNIT ( * ) PLANE_ANGLE_UNIT ( ) SI_UNIT ( $, .RADIAN. ) );
#271 = MANIFOLD_SOLID_BREP ( 'Revolve - Cutting Edge', #3 ) ;
#272 =( NAMED_UNIT ( * ) SI_UNIT ( $, .STERADIAN. ) SOLID_ANGLE_UNIT ( ) );
#273 = CIRCLE ( 'NONE', #214, 4.000000000000001776 ) ;
#274 = STYLED_ITEM ( 'NONE', ( #182 ), #268 ) ;
#275 = PLANE ( 'NONE',  #124 ) ;
#276 = UNCERTAINTY_MEASURE_WITH_UNIT (LENGTH_MEASURE( 1.000000000000000082E-05 ), #294, 'distance_accuracy_value', 'NONE');
#277 = CARTESIAN_POINT ( 'NONE',  ( 4.286263797015736595E-16, 0.5000000000000000000, 3.500000000000000000 ) ) ;
#278 = STYLED_ITEM ( 'NONE', ( #58 ), #285 ) ;
#279 = PRESENTATION_STYLE_ASSIGNMENT (( #173 ) ) ;
#280 = DIRECTION ( 'NONE',  ( 0.000000000000000000, 0.000000000000000000, -1.000000000000000000 ) ) ;
#281 = PRESENTATION_STYLE_ASSIGNMENT (( #250 ) ) ;
#282 = ADVANCED_FACE ( 'NONE', ( #24 ), #159, .T. ) ;
#283 = AXIS2_PLACEMENT_3D ( 'NONE', #149, #265, #42 ) ;
#284 = DIRECTION ( 'NONE',  ( -0.000000000000000000, -1.000000000000000000, -0.000000000000000000 ) ) ;
#285 = ADVANCED_FACE ( 'NONE', ( #218 ), #55, .T. ) ;
#286 = CARTESIAN_POINT ( 'NONE',  ( 4.770489558936219510E-15, 24.00000000000000000, 0.000000000000000000 ) ) ;
#287 = VECTOR ( 'NONE', #219, 1000.000000000000000 ) ;
#288 = ORIENTED_EDGE ( 'NONE', *, *, #97, .F. ) ;
#289 = CARTESIAN_POINT ( 'NONE',  ( -1.469576158976823750E-15, 75.00000000000000000, 0.000000000000000000 ) ) ;
#290 = ORIENTED_EDGE ( 'NONE', *, *, #345, .F. ) ;
#291 = DIRECTION ( 'NONE',  ( 0.000000000000000000, 0.000000000000000000, 1.000000000000000000 ) ) ;
#292 = ORIENTED_EDGE ( 'NONE', *, *, #181, .T. ) ;
#293 = MECHANICAL_DESIGN_GEOMETRIC_PRESENTATION_REPRESENTATION (  '', ( #297 ), #136 ) ;
#294 =( LENGTH_UNIT ( ) NAMED_UNIT ( * ) SI_UNIT ( .MILLI., .METRE. ) );
#295 =( NAMED_UNIT ( * ) SI_UNIT ( $, .STERADIAN. ) SOLID_ANGLE_UNIT ( ) );
#296 = ORIENTED_EDGE ( 'NONE', *, *, #46, .T. ) ;
#297 = STYLED_ITEM ( 'NONE', ( #318 ), #156 ) ;
#298 = PLANE ( 'NONE',  #223 ) ;
#299 = FACE_OUTER_BOUND ( 'NONE', #192, .T. ) ;
#300 = EDGE_CURVE ( 'NONE', #37, #337, #324, .T. ) ;
#301 = STYLED_ITEM ( 'NONE', ( #326 ), #244 ) ;
#302 = DIRECTION ( 'NONE',  ( 0.000000000000000000, -0.000000000000000000, 1.000000000000000000 ) ) ;
#303 = PRODUCT_DEFINITION_CONTEXT ( 'detailed design', #213, 'design' ) ;
#304 = FILL_AREA_STYLE ('',( #80 ) ) ;
#305 = FILL_AREA_STYLE_COLOUR ( '', #240 ) ;
#306 = CYLINDRICAL_SURFACE ( 'NONE', #169, 3.999999999999998224 ) ;
#307 = PRODUCT_CONTEXT ( 'NONE', #190, 'mechanical' ) ;
#308 = SURFACE_STYLE_FILL_AREA ( #304 ) ;
#309 = COLOUR_RGB ( '',0.7921568627450980005, 0.8196078431372548767, 0.9333333333333333481 ) ;
#310 = FACE_OUTER_BOUND ( 'NONE', #165, .T. ) ;
#311 = FACE_OUTER_BOUND ( 'NONE', #195, .T. ) ;
#312 = CARTESIAN_POINT ( 'NONE',  ( 4.770489558936219510E-15, 24.00000000000000000, 0.000000000000000000 ) ) ;
#313 =( LENGTH_UNIT ( ) NAMED_UNIT ( * ) SI_UNIT ( .MILLI., .METRE. ) );
#314 = DIRECTION ( 'NONE',  ( 0.000000000000000000, 0.000000000000000000, -1.000000000000000000 ) ) ;
#315 = CARTESIAN_POINT ( 'NONE',  ( 0.000000000000000000, 0.5000000000000000000, -3.500000000000000000 ) ) ;
#316 = AXIS2_PLACEMENT_3D ( 'NONE', #312, #22, #140 ) ;
#317 = ORIENTED_EDGE ( 'NONE', *, *, #181, .F. ) ;
#318 = PRESENTATION_STYLE_ASSIGNMENT (( #323 ) ) ;
#319 = ORIENTED_EDGE ( 'NONE', *, *, #114, .T. ) ;
#320 = ORIENTED_EDGE ( 'NONE', *, *, #197, .T. ) ;
#321 = DIRECTION ( 'NONE',  ( -1.000000000000000000, 0.000000000000000000, 0.000000000000000000 ) ) ;
#322 = MECHANICAL_DESIGN_GEOMETRIC_PRESENTATION_REPRESENTATION (  '', ( #111 ), #35 ) ;
#323 = SURFACE_STYLE_USAGE ( .BOTH. , #200 ) ;
#324 = CIRCLE ( 'NONE', #208, 0.5000000000000000000 ) ;
#325 = VERTEX_POINT ( 'NONE', #92 ) ;
#326 = PRESENTATION_STYLE_ASSIGNMENT (( #356 ) ) ;
#327 = AXIS2_PLACEMENT_3D ( 'NONE', #216, #336, #75 ) ;
#328 = MECHANICAL_DESIGN_GEOMETRIC_PRESENTATION_REPRESENTATION (  '', ( #274 ), #100 ) ;
#329 = SURFACE_STYLE_FILL_AREA ( #330 ) ;
#330 = FILL_AREA_STYLE ('',( #99 ) ) ;
#331 = DIRECTION ( 'NONE',  ( -1.000000000000000000, 0.000000000000000000, 0.000000000000000000 ) ) ;
#332 = CIRCLE ( 'NONE', #54, 3.999999999999996447 ) ;
#333 = AXIS2_PLACEMENT_3D ( 'NONE', #123, #239, #331 ) ;
#334 =( NAMED_UNIT ( * ) SI_UNIT ( $, .STERADIAN. ) SOLID_ANGLE_UNIT ( ) );
#335 = COLOUR_RGB ( '',1.000000000000000000, 0.000000000000000000, 0.000000000000000000 ) ;
#336 = DIRECTION ( 'NONE',  ( -0.000000000000000000, -1.000000000000000000, -0.000000000000000000 ) ) ;
#337 = VERTEX_POINT ( 'NONE', #10 ) ;
#338 = CARTESIAN_POINT ( 'NONE',  ( 0.000000000000000000, 0.5000000000000000000, 0.000000000000000000 ) ) ;
#339 = CARTESIAN_POINT ( 'NONE',  ( 4.592425496802573972E-16, 0.000000000000000000, 3.500000000000000000 ) ) ;
#340 = ORIENTED_EDGE ( 'NONE', *, *, #363, .T. ) ;
#341 = COLOUR_RGB ( '',1.000000000000000000, 0.000000000000000000, 0.000000000000000000 ) ;
#342 = DIRECTION ( 'NONE',  ( -1.223542297630008506E-16, 1.000000000000000000, -0.000000000000000000 ) ) ;
#343 = FILL_AREA_STYLE_COLOUR ( '', #79 ) ;
#344 = DIRECTION ( 'NONE',  ( 1.000000000000000000, 0.000000000000000000, 0.000000000000000000 ) ) ;
#345 = EDGE_CURVE ( 'NONE', #238, #6, #243, .T. ) ;
#346 = CARTESIAN_POINT ( 'NONE',  ( 0.000000000000000000, 0.000000000000000000, 0.000000000000000000 ) ) ;
#347 = VECTOR ( 'NONE', #132, 1000.000000000000000 ) ;
#348 = DIRECTION ( 'NONE',  ( -1.223542297630008506E-16, 1.000000000000000000, -0.000000000000000000 ) ) ;
#349 = DIRECTION ( 'NONE',  ( 0.000000000000000000, 0.000000000000000000, -1.000000000000000000 ) ) ;
#350 = CARTESIAN_POINT ( 'NONE',  ( -1.469576158976823750E-15, 75.00000000000000000, 0.000000000000000000 ) ) ;
#351 = VERTEX_POINT ( 'NONE', #175 ) ;
#352 = AXIS2_PLACEMENT_3D ( 'NONE', #227, #7, #120 ) ;
#353 = ORIENTED_EDGE ( 'NONE', *, *, #53, .F. ) ;
#354 = DIRECTION ( 'NONE',  ( -1.223542297630008506E-16, 1.000000000000000000, 0.000000000000000000 ) ) ;
#355 = ORIENTED_EDGE ( 'NONE', *, *, #97, .T. ) ;
#356 = SURFACE_STYLE_USAGE ( .BOTH. , #11 ) ;
#357 = DIRECTION ( 'NONE',  ( 0.000000000000000000, 0.000000000000000000, -1.000000000000000000 ) ) ;
#358 = SURFACE_SIDE_STYLE ('',( #329 ) ) ;
#359 = DIRECTION ( 'NONE',  ( -0.000000000000000000, -1.000000000000000000, -0.000000000000000000 ) ) ;
#360 = FILL_AREA_STYLE_COLOUR ( '', #341 ) ;
#361 = UNCERTAINTY_MEASURE_WITH_UNIT (LENGTH_MEASURE( 1.000000000000000082E-05 ), #209, 'distance_accuracy_value', 'NONE');
#362 =( LENGTH_UNIT ( ) NAMED_UNIT ( * ) SI_UNIT ( .MILLI., .METRE. ) );
#363 = EDGE_CURVE ( 'NONE', #337, #61, #231, .T. ) ;
#364 = PRESENTATION_LAYER_ASSIGNMENT (  '', '', ( #215 ) ) ;
#365 = CARTESIAN_POINT ( 'NONE',  ( 0.000000000000000000, 0.000000000000000000, 0.000000000000000000 ) ) ;
#366 =( GEOMETRIC_REPRESENTATION_CONTEXT ( 3 ) GLOBAL_UNCERTAINTY_ASSIGNED_CONTEXT ( ( #102 ) ) GLOBAL_UNIT_ASSIGNED_CONTEXT ( ( #362, #245, #334 ) ) REPRESENTATION_CONTEXT ( 'NONE', 'WORKASPACE' ) );
#367 = DIRECTION ( 'NONE',  ( 0.000000000000000000, 0.000000000000000000, -1.000000000000000000 ) ) ;
#368 = DIRECTION ( 'NONE',  ( -1.223542297630008506E-16, 1.000000000000000000, -0.000000000000000000 ) ) ;
#369 = EDGE_CURVE ( 'NONE', #196, #61, #247, .T. ) ;
#370 =( GEOMETRIC_REPRESENTATION_CONTEXT ( 3 ) GLOBAL_UNCERTAINTY_ASSIGNED_CONTEXT ( ( #361 ) ) GLOBAL_UNIT_ASSIGNED_CONTEXT ( ( #209, #270, #9 ) ) REPRESENTATION_CONTEXT ( 'NONE', 'WORKASPACE' ) );
ENDSEC;
END-ISO-10303-21;
