ISO-10303-21;
HEADER;
FILE_DESCRIPTION (( 'STEP AP214' ),
    '1' );
FILE_NAME ('Micro_SEM-062-04X.STEP',
    '2021-09-02T00:53:38',
    ( '' ),
    ( '' ),
    'SwSTEP 2.0',
    'SolidWorks 2020',
    '' );
FILE_SCHEMA (( 'AUTOMOTIVE_DESIGN' ));
ENDSEC;

DATA;
#1 = ORIENTED_EDGE ( 'NONE', *, *, #245, .T. ) ;
#2 = EDGE_CURVE ( 'NONE', #209, #22, #170, .T. ) ;
#3 = ORIENTED_EDGE ( 'NONE', *, *, #269, .F. ) ;
#4 = DIRECTION ( 'NONE',  ( -0.0000000000000000000, -0.0000000000000000000, -1.000000000000000000 ) ) ;
#5 = PRODUCT ( 'Micro_SEM-062-04X', 'Micro_SEM-062-04X', '', ( #275 ) ) ;
#6 = DIRECTION ( 'NONE',  ( 1.000000000000000000, 0.0000000000000000000, 0.0000000000000000000 ) ) ;
#7 = CARTESIAN_POINT ( 'NONE',  ( 0.06250000000000000000, 7.654042494670956004E-18, 1.500000000000000222 ) ) ;
#8 = AXIS2_PLACEMENT_3D ( 'NONE', #55, #57, #192 ) ;
#9 = CARTESIAN_POINT ( 'NONE',  ( -0.03121875000000000691, 0.0000000000000000000, 3.823194226088144458E-18 ) ) ;
#10 =( GEOMETRIC_REPRESENTATION_CONTEXT ( 3 ) GLOBAL_UNCERTAINTY_ASSIGNED_CONTEXT ( ( #214 ) ) GLOBAL_UNIT_ASSIGNED_CONTEXT ( ( #88, #241, #37 ) ) REPRESENTATION_CONTEXT ( 'NONE', 'WORKASPACE' ) );
#11 = EDGE_CURVE ( 'NONE', #274, #280, #23, .T. ) ;
#12 = CARTESIAN_POINT ( 'NONE',  ( 0.04750000000000064587, 5.817072295950006528E-18, 1.500000000000000222 ) ) ;
#13 = SURFACE_STYLE_FILL_AREA ( #157 ) ;
#14 = AXIS2_PLACEMENT_3D ( 'NONE', #238, #234, #72 ) ;
#15 = EDGE_CURVE ( 'NONE', #66, #252, #175, .T. ) ;
#16 = CARTESIAN_POINT ( 'NONE',  ( 0.06250000000000002776, 7.654042494670959086E-18, 0.3024047844199154178 ) ) ;
#17 = FACE_OUTER_BOUND ( 'NONE', #21, .T. ) ;
#18 = STYLED_ITEM ( 'NONE', ( #19 ), #294 ) ;
#19 = PRESENTATION_STYLE_ASSIGNMENT (( #141 ) ) ;
#20 = SHAPE_DEFINITION_REPRESENTATION ( #65, #294 ) ;
#21 = EDGE_LOOP ( 'NONE', ( #188, #174, #277, #47 ) ) ;
#22 = VERTEX_POINT ( 'NONE', #282 ) ;
#23 = CIRCLE ( 'NONE', #248, 0.06250000000000000000 ) ;
#24 = AXIS2_PLACEMENT_3D ( 'NONE', #247, #185, #119 ) ;
#25 = ORIENTED_EDGE ( 'NONE', *, *, #161, .T. ) ;
#26 = EDGE_LOOP ( 'NONE', ( #1, #189, #154, #186 ) ) ;
#27 = DIRECTION ( 'NONE',  ( -1.224646799147353454E-16, -0.0000000000000000000, -1.000000000000000000 ) ) ;
#28 = AXIS2_PLACEMENT_3D ( 'NONE', #215, #261, #258 ) ;
#29 = EDGE_LOOP ( 'NONE', ( #97, #68, #229, #232 ) ) ;
#30 = CARTESIAN_POINT ( 'NONE',  ( 0.0000000000000000000, 0.0000000000000000000, 1.500000000000000222 ) ) ;
#31 = DIRECTION ( 'NONE',  ( 0.0000000000000000000, 0.0000000000000000000, 1.000000000000000000 ) ) ;
#32 = ORIENTED_EDGE ( 'NONE', *, *, #205, .F. ) ;
#33 = VECTOR ( 'NONE', #100, 39.37007874015748143 ) ;
#34 = LINE ( 'NONE', #111, #198 ) ;
#35 = DIRECTION ( 'NONE',  ( -1.000000000000000000, 0.0000000000000000000, 0.0000000000000000000 ) ) ;
#36 = DIRECTION ( 'NONE',  ( -1.000000000000000000, 0.0000000000000000000, 0.0000000000000000000 ) ) ;
#37 =( NAMED_UNIT ( * ) SI_UNIT ( $, .STERADIAN. ) SOLID_ANGLE_UNIT ( ) );
#38 = PRESENTATION_STYLE_ASSIGNMENT (( #268 ) ) ;
#39 = EDGE_CURVE ( 'NONE', #140, #66, #267, .T. ) ;
#40 = CONICAL_SURFACE ( 'NONE', #102, 0.04750000000000064587, 0.7853981633974457255 ) ;
#41 =( NAMED_UNIT ( * ) PLANE_ANGLE_UNIT ( ) SI_UNIT ( $, .RADIAN. ) );
#42 = ORIENTED_EDGE ( 'NONE', *, *, #216, .T. ) ;
#43 = CARTESIAN_POINT ( 'NONE',  ( 0.0000000000000000000, 0.0000000000000000000, 0.0000000000000000000 ) ) ;
#44 = UNCERTAINTY_MEASURE_WITH_UNIT (LENGTH_MEASURE( 1.000000000000000082E-05 ), #271, 'distance_accuracy_value', 'NONE');
#45 = ORIENTED_EDGE ( 'NONE', *, *, #11, .T. ) ;
#46 = SURFACE_STYLE_FILL_AREA ( #113 ) ;
#47 = ORIENTED_EDGE ( 'NONE', *, *, #82, .F. ) ;
#48 = CIRCLE ( 'NONE', #53, 0.06250000000000000000 ) ;
#49 = ORIENTED_EDGE ( 'NONE', *, *, #205, .T. ) ;
#50 = EDGE_CURVE ( 'NONE', #22, #209, #255, .T. ) ;
#51 = EDGE_CURVE ( 'NONE', #66, #140, #98, .T. ) ;
#52 = LINE ( 'NONE', #7, #133 ) ;
#53 = AXIS2_PLACEMENT_3D ( 'NONE', #242, #246, #62 ) ;
#54 = FACE_OUTER_BOUND ( 'NONE', #298, .T. ) ;
#55 = CARTESIAN_POINT ( 'NONE',  ( 4.682062571497488738E-34, 0.0000000000000000000, 3.823194226088144458E-18 ) ) ;
#56 = ADVANCED_FACE ( 'NONE', ( #54 ), #99, .T. ) ;
#57 = DIRECTION ( 'NONE',  ( -1.224646799147353454E-16, -0.0000000000000000000, -1.000000000000000000 ) ) ;
#58 = DIRECTION ( 'NONE',  ( 1.000000000000000000, 0.0000000000000000000, 0.0000000000000000000 ) ) ;
#59 = DIRECTION ( 'NONE',  ( -1.224646799147353454E-16, -0.0000000000000000000, -1.000000000000000000 ) ) ;
#60 = DIRECTION ( 'NONE',  ( -0.0000000000000000000, -0.0000000000000000000, -1.000000000000000000 ) ) ;
#61 = CIRCLE ( 'NONE', #81, 0.03121875000000000691 ) ;
#62 = DIRECTION ( 'NONE',  ( 1.000000000000000000, 0.0000000000000000000, 0.0000000000000000000 ) ) ;
#63 = CARTESIAN_POINT ( 'NONE',  ( -0.06249999999999996531, 0.0000000000000000000, 0.3024047844199154178 ) ) ;
#64 = FACE_OUTER_BOUND ( 'NONE', #26, .T. ) ;
#65 = PRODUCT_DEFINITION_SHAPE ( 'NONE', 'NONE',  #194 ) ;
#66 = VERTEX_POINT ( 'NONE', #104 ) ;
#67 = FILL_AREA_STYLE_COLOUR ( '', #93 ) ;
#68 = ORIENTED_EDGE ( 'NONE', *, *, #15, .T. ) ;
#69 = APPLICATION_PROTOCOL_DEFINITION ( 'draft international standard', 'automotive_design', 1998, #237 ) ;
#70 = ORIENTED_EDGE ( 'NONE', *, *, #169, .T. ) ;
#71 = ADVANCED_FACE ( 'NONE', ( #152 ), #236, .T. ) ;
#72 = DIRECTION ( 'NONE',  ( 1.000000000000000000, 0.0000000000000000000, 0.0000000000000000000 ) ) ;
#73 = CARTESIAN_POINT ( 'NONE',  ( 4.682062571497488738E-34, 0.0000000000000000000, 3.823194226088144458E-18 ) ) ;
#74 = MECHANICAL_DESIGN_GEOMETRIC_PRESENTATION_REPRESENTATION (  '', ( #264 ), #10 ) ;
#75 = CARTESIAN_POINT ( 'NONE',  ( -0.03121874999999998956, 5.738618360379551386E-18, 0.1250000000000000000 ) ) ;
#76 = ADVANCED_FACE ( 'NONE', ( #149 ), #212, .T. ) ;
#77 = CARTESIAN_POINT ( 'NONE',  ( -0.04750000000000064587, 0.0000000000000000000, 1.500000000000000222 ) ) ;
#78 = EDGE_CURVE ( 'NONE', #142, #22, #125, .T. ) ;
#79 = CARTESIAN_POINT ( 'NONE',  ( 0.0000000000000000000, 0.0000000000000000000, 1.500000000000000222 ) ) ;
#80 = FILL_AREA_STYLE_COLOUR ( '', #182 ) ;
#81 = AXIS2_PLACEMENT_3D ( 'NONE', #289, #160, #35 ) ;
#82 = EDGE_CURVE ( 'NONE', #252, #254, #86, .T. ) ;
#83 = CARTESIAN_POINT ( 'NONE',  ( -0.03121874999999999997, 0.0000000000000000000, 7.646388452176288915E-18 ) ) ;
#84 = DIMENSIONAL_EXPONENTS ( 1.000000000000000000, 0.0000000000000000000, 0.0000000000000000000, 0.0000000000000000000, 0.0000000000000000000, 0.0000000000000000000, 0.0000000000000000000 ) ;
#85 = LINE ( 'NONE', #158, #270 ) ;
#86 = CIRCLE ( 'NONE', #14, 0.06250000000000000000 ) ;
#87 = MECHANICAL_DESIGN_GEOMETRIC_PRESENTATION_REPRESENTATION (  '', ( #18 ), #190 ) ;
#88 =( CONVERSION_BASED_UNIT ( 'INCH', #266 ) LENGTH_UNIT ( ) NAMED_UNIT ( #137 ) );
#89 = CYLINDRICAL_SURFACE ( 'NONE', #139, 0.03121875000000000691 ) ;
#90 = FACE_OUTER_BOUND ( 'NONE', #148, .T. ) ;
#91 = ORIENTED_EDGE ( 'NONE', *, *, #161, .F. ) ;
#92 = AXIS2_PLACEMENT_3D ( 'NONE', #176, #259, #177 ) ;
#93 = COLOUR_RGB ( '',0.7921568627450980005, 0.8196078431372548767, 0.9333333333333333481 ) ;
#94 =( NAMED_UNIT ( * ) SI_UNIT ( $, .STERADIAN. ) SOLID_ANGLE_UNIT ( ) );
#95 = DIRECTION ( 'NONE',  ( 1.000000000000000000, 0.0000000000000000000, -0.0000000000000000000 ) ) ;
#96 = ORIENTED_EDGE ( 'NONE', *, *, #245, .F. ) ;
#97 = ORIENTED_EDGE ( 'NONE', *, *, #51, .F. ) ;
#98 = CIRCLE ( 'NONE', #299, 0.04750000000000064587 ) ;
#99 = PLANE ( 'NONE',  #92 ) ;
#100 = DIRECTION ( 'NONE',  ( 0.7071067811865456854, 8.659560562354911904E-17, -0.7071067811865493491 ) ) ;
#101 = DIRECTION ( 'NONE',  ( -0.0000000000000000000, -0.0000000000000000000, -1.000000000000000000 ) ) ;
#102 = AXIS2_PLACEMENT_3D ( 'NONE', #201, #184, #36 ) ;
#103 = DIRECTION ( 'NONE',  ( -1.224646799147353454E-16, -0.0000000000000000000, -1.000000000000000000 ) ) ;
#104 = CARTESIAN_POINT ( 'NONE',  ( 0.04750000000000064587, 6.735557395310482421E-18, 1.500000000000000222 ) ) ;
#105 = DIRECTION ( 'NONE',  ( -1.000000000000000000, 0.0000000000000000000, 0.0000000000000000000 ) ) ;
#106 = ADVANCED_FACE ( 'NONE', ( #150 ), #118, .T. ) ;
#107 = CARTESIAN_POINT ( 'NONE',  ( -0.06250000000000000000, 0.0000000000000000000, 1.485000000000000764 ) ) ;
#108 = CARTESIAN_POINT ( 'NONE',  ( 0.0000000000000000000, 0.0000000000000000000, 1.500000000000000222 ) ) ;
#109 = EDGE_CURVE ( 'NONE', #252, #274, #52, .T. ) ;
#110 = FACE_OUTER_BOUND ( 'NONE', #262, .T. ) ;
#111 = CARTESIAN_POINT ( 'NONE',  ( -0.03121874999999998956, 3.823194226088144458E-18, 0.1250000000000000000 ) ) ;
#112 = AXIS2_PLACEMENT_3D ( 'NONE', #243, #59, #222 ) ;
#113 = FILL_AREA_STYLE ('',( #67 ) ) ;
#114 = ORIENTED_EDGE ( 'NONE', *, *, #145, .T. ) ;
#115 = EDGE_CURVE ( 'NONE', #140, #254, #193, .T. ) ;
#116 =( NAMED_UNIT ( * ) PLANE_ANGLE_UNIT ( ) SI_UNIT ( $, .RADIAN. ) );
#117 = VERTEX_POINT ( 'NONE', #75 ) ;
#118 = CONICAL_SURFACE ( 'NONE', #28, 0.03121875000000000691, 0.1745329251994339192 ) ;
#119 = DIRECTION ( 'NONE',  ( 1.000000000000000000, 0.0000000000000000000, 0.0000000000000000000 ) ) ;
#120 = ORIENTED_EDGE ( 'NONE', *, *, #11, .F. ) ;
#121 = ORIENTED_EDGE ( 'NONE', *, *, #216, .F. ) ;
#122 = DIRECTION ( 'NONE',  ( -1.224646799147353454E-16, -0.0000000000000000000, -1.000000000000000000 ) ) ;
#123 = AXIS2_PLACEMENT_3D ( 'NONE', #239, #129, #179 ) ;
#124 = CARTESIAN_POINT ( 'NONE',  ( 3.703390512866948185E-17, 0.0000000000000000000, 0.3024047844199154178 ) ) ;
#125 = LINE ( 'NONE', #281, #260 ) ;
#126 = DIRECTION ( 'NONE',  ( -1.224646799147353454E-16, -0.0000000000000000000, -1.000000000000000000 ) ) ;
#127 = CLOSED_SHELL ( 'NONE', ( #290, #106, #211, #76, #71, #56, #146, #204, #156, #278 ) ) ;
#128 = AXIS2_PLACEMENT_3D ( 'NONE', #131, #220, #288 ) ;
#129 = DIRECTION ( 'NONE',  ( -0.0000000000000000000, -0.0000000000000000000, -1.000000000000000000 ) ) ;
#130 = EDGE_CURVE ( 'NONE', #117, #209, #217, .T. ) ;
#131 = CARTESIAN_POINT ( 'NONE',  ( 0.0000000000000000000, 0.0000000000000000000, 0.0000000000000000000 ) ) ;
#132 = FACE_OUTER_BOUND ( 'NONE', #29, .T. ) ;
#133 = VECTOR ( 'NONE', #101, 39.37007874015748143 ) ;
#134 = CARTESIAN_POINT ( 'NONE',  ( 0.03121875000000002426, 0.0000000000000000000, 0.1250000000000000000 ) ) ;
#135 = PRODUCT_DEFINITION_FORMATION_WITH_SPECIFIED_SOURCE ( 'ANY', '', #5, .NOT_KNOWN. ) ;
#136 = FACE_OUTER_BOUND ( 'NONE', #250, .T. ) ;
#137 = DIMENSIONAL_EXPONENTS ( 1.000000000000000000, 0.0000000000000000000, 0.0000000000000000000, 0.0000000000000000000, 0.0000000000000000000, 0.0000000000000000000, 0.0000000000000000000 ) ;
#138 = SURFACE_SIDE_STYLE ('',( #46 ) ) ;
#139 = AXIS2_PLACEMENT_3D ( 'NONE', #163, #166, #273 ) ;
#140 = VERTEX_POINT ( 'NONE', #77 ) ;
#141 = SURFACE_STYLE_USAGE ( .BOTH. , #138 ) ;
#142 = VERTEX_POINT ( 'NONE', #178 ) ;
#143 = EDGE_LOOP ( 'NONE', ( #96, #114, #42, #3 ) ) ;
#144 = VECTOR ( 'NONE', #103, 39.37007874015748143 ) ;
#145 = EDGE_CURVE ( 'NONE', #117, #280, #34, .T. ) ;
#146 = ADVANCED_FACE ( 'NONE', ( #17 ), #284, .T. ) ;
#147 = DIRECTION ( 'NONE',  ( 0.0000000000000000000, 0.0000000000000000000, 1.000000000000000000 ) ) ;
#148 = EDGE_LOOP ( 'NONE', ( #231, #257 ) ) ;
#149 = FACE_OUTER_BOUND ( 'NONE', #168, .T. ) ;
#150 = FACE_OUTER_BOUND ( 'NONE', #143, .T. ) ;
#151 = AXIS2_PLACEMENT_3D ( 'NONE', #200, #183, #197 ) ;
#152 = FACE_OUTER_BOUND ( 'NONE', #295, .T. ) ;
#153 = DIRECTION ( 'NONE',  ( -1.000000000000000000, 0.0000000000000000000, 1.224646799147353700E-16 ) ) ;
#154 = ORIENTED_EDGE ( 'NONE', *, *, #2, .F. ) ;
#155 = AXIS2_PLACEMENT_3D ( 'NONE', #43, #147, #95 ) ;
#156 = ADVANCED_FACE ( 'NONE', ( #136 ), #162, .T. ) ;
#157 = FILL_AREA_STYLE ('',( #80 ) ) ;
#158 = CARTESIAN_POINT ( 'NONE',  ( -0.06250000000000000000, 0.0000000000000000000, 1.500000000000000222 ) ) ;
#159 = CONICAL_SURFACE ( 'NONE', #151, 0.03121875000000000691, 0.1745329251994339192 ) ;
#160 = DIRECTION ( 'NONE',  ( -1.224646799147353454E-16, -0.0000000000000000000, -1.000000000000000000 ) ) ;
#161 = EDGE_CURVE ( 'NONE', #254, #280, #85, .T. ) ;
#162 = CYLINDRICAL_SURFACE ( 'NONE', #128, 0.03121875000000000691 ) ;
#163 = CARTESIAN_POINT ( 'NONE',  ( 0.0000000000000000000, 0.0000000000000000000, 0.0000000000000000000 ) ) ;
#164 = VECTOR ( 'NONE', #283, 39.37007874015748143 ) ;
#165 = AXIS2_PLACEMENT_3D ( 'NONE', #79, #31, #233 ) ;
#166 = DIRECTION ( 'NONE',  ( -1.224646799147353454E-16, -0.0000000000000000000, -1.000000000000000000 ) ) ;
#167 = LENGTH_MEASURE_WITH_UNIT ( LENGTH_MEASURE( 0.02539999999999999897 ), #297 );
#168 = EDGE_LOOP ( 'NONE', ( #70, #286, #121, #91 ) ) ;
#169 = EDGE_CURVE ( 'NONE', #254, #252, #48, .T. ) ;
#170 = CIRCLE ( 'NONE', #8, 0.03121874999999999997 ) ;
#171 =( NAMED_UNIT ( * ) SI_UNIT ( $, .STERADIAN. ) SOLID_ANGLE_UNIT ( ) );
#172 = ORIENTED_EDGE ( 'NONE', *, *, #51, .T. ) ;
#173 = AXIS2_PLACEMENT_3D ( 'NONE', #265, #244, #58 ) ;
#174 = ORIENTED_EDGE ( 'NONE', *, *, #39, .F. ) ;
#175 = LINE ( 'NONE', #12, #33 ) ;
#176 = CARTESIAN_POINT ( 'NONE',  ( 0.0000000000000000000, 0.0000000000000000000, 1.500000000000000222 ) ) ;
#177 = DIRECTION ( 'NONE',  ( 1.000000000000000000, 0.0000000000000000000, -0.0000000000000000000 ) ) ;
#178 = CARTESIAN_POINT ( 'NONE',  ( 0.03121875000000002426, 0.0000000000000000000, 0.1250000000000000000 ) ) ;
#179 = DIRECTION ( 'NONE',  ( -1.000000000000000000, 0.0000000000000000000, 0.0000000000000000000 ) ) ;
#180 =( GEOMETRIC_REPRESENTATION_CONTEXT ( 3 ) GLOBAL_UNCERTAINTY_ASSIGNED_CONTEXT ( ( #44 ) ) GLOBAL_UNIT_ASSIGNED_CONTEXT ( ( #271, #41, #171 ) ) REPRESENTATION_CONTEXT ( 'NONE', 'WORKASPACE' ) );
#181 =( LENGTH_UNIT ( ) NAMED_UNIT ( * ) SI_UNIT ( $, .METRE. ) );
#182 = COLOUR_RGB ( '',0.7921568627450980005, 0.8196078431372548767, 0.9333333333333333481 ) ;
#183 = DIRECTION ( 'NONE',  ( 1.224646799147353454E-16, 0.0000000000000000000, 1.000000000000000000 ) ) ;
#184 = DIRECTION ( 'NONE',  ( 0.0000000000000000000, 0.0000000000000000000, -1.000000000000000000 ) ) ;
#185 = DIRECTION ( 'NONE',  ( 0.0000000000000000000, 0.0000000000000000000, 1.000000000000000000 ) ) ;
#186 = ORIENTED_EDGE ( 'NONE', *, *, #130, .F. ) ;
#187 = ORIENTED_EDGE ( 'NONE', *, *, #50, .F. ) ;
#188 = ORIENTED_EDGE ( 'NONE', *, *, #15, .F. ) ;
#189 = ORIENTED_EDGE ( 'NONE', *, *, #78, .T. ) ;
#190 =( GEOMETRIC_REPRESENTATION_CONTEXT ( 3 ) GLOBAL_UNCERTAINTY_ASSIGNED_CONTEXT ( ( #293 ) ) GLOBAL_UNIT_ASSIGNED_CONTEXT ( ( #253, #116, #94 ) ) REPRESENTATION_CONTEXT ( 'NONE', 'WORKASPACE' ) );
#191 = DIRECTION ( 'NONE',  ( -1.000000000000000000, 0.0000000000000000000, 0.0000000000000000000 ) ) ;
#192 = DIRECTION ( 'NONE',  ( -1.000000000000000000, 0.0000000000000000000, 1.224646799147353700E-16 ) ) ;
#193 = LINE ( 'NONE', #285, #164 ) ;
#194 = PRODUCT_DEFINITION ( 'UNKNOWN', '', #135, #276 ) ;
#195 = DIRECTION ( 'NONE',  ( 0.0000000000000000000, 0.0000000000000000000, 1.000000000000000000 ) ) ;
#196 = ORIENTED_EDGE ( 'NONE', *, *, #109, .F. ) ;
#197 = DIRECTION ( 'NONE',  ( 1.000000000000000000, 0.0000000000000000000, 0.0000000000000000000 ) ) ;
#198 = VECTOR ( 'NONE', #287, 39.37007874015747433 ) ;
#199 = LINE ( 'NONE', #134, #279 ) ;
#200 = CARTESIAN_POINT ( 'NONE',  ( 1.530808498934191817E-17, 0.0000000000000000000, 0.1250000000000000000 ) ) ;
#201 = CARTESIAN_POINT ( 'NONE',  ( 0.0000000000000000000, 0.0000000000000000000, 1.500000000000000222 ) ) ;
#202 = AXIS2_PLACEMENT_3D ( 'NONE', #30, #4, #191 ) ;
#203 = SURFACE_SIDE_STYLE ('',( #13 ) ) ;
#204 = ADVANCED_FACE ( 'NONE', ( #110 ), #159, .T. ) ;
#205 = EDGE_CURVE ( 'NONE', #142, #117, #61, .T. ) ;
#206 = APPLICATION_CONTEXT ( 'automotive_design' ) ;
#207 = ORIENTED_EDGE ( 'NONE', *, *, #269, .T. ) ;
#208 = PLANE ( 'NONE',  #155 ) ;
#209 = VERTEX_POINT ( 'NONE', #83 ) ;
#210 = ORIENTED_EDGE ( 'NONE', *, *, #130, .T. ) ;
#211 = ADVANCED_FACE ( 'NONE', ( #132 ), #40, .T. ) ;
#212 = CYLINDRICAL_SURFACE ( 'NONE', #202, 0.06250000000000000000 ) ;
#213 = ORIENTED_EDGE ( 'NONE', *, *, #82, .T. ) ;
#214 = UNCERTAINTY_MEASURE_WITH_UNIT (LENGTH_MEASURE( 1.000000000000000082E-05 ), #88, 'distance_accuracy_value', 'NONE');
#215 = CARTESIAN_POINT ( 'NONE',  ( 1.530808498934191817E-17, 0.0000000000000000000, 0.1250000000000000000 ) ) ;
#216 = EDGE_CURVE ( 'NONE', #280, #274, #292, .T. ) ;
#217 = LINE ( 'NONE', #9, #144 ) ;
#218 = AXIS2_PLACEMENT_3D ( 'NONE', #73, #122, #153 ) ;
#219 = CARTESIAN_POINT ( 'NONE',  ( 0.0000000000000000000, 0.0000000000000000000, 1.500000000000000222 ) ) ;
#220 = DIRECTION ( 'NONE',  ( -1.224646799147353454E-16, -0.0000000000000000000, -1.000000000000000000 ) ) ;
#221 = DIMENSIONAL_EXPONENTS ( 1.000000000000000000, 0.0000000000000000000, 0.0000000000000000000, 0.0000000000000000000, 0.0000000000000000000, 0.0000000000000000000, 0.0000000000000000000 ) ;
#222 = DIRECTION ( 'NONE',  ( -1.000000000000000000, 0.0000000000000000000, 0.0000000000000000000 ) ) ;
#223 = DIRECTION ( 'NONE',  ( 0.1736481776669314137, 0.0000000000000000000, 0.9848077530122077983 ) ) ;
#224 = CARTESIAN_POINT ( 'NONE',  ( 0.06250000000000000000, 7.654042494670956004E-18, 1.485000000000000764 ) ) ;
#225 = MANIFOLD_SOLID_BREP ( 'Cut-Revolve1', #127 ) ;
#226 = PRESENTATION_LAYER_ASSIGNMENT (  '', '', ( #18 ) ) ;
#227 = APPLICATION_PROTOCOL_DEFINITION ( 'draft international standard', 'automotive_design', 1998, #206 ) ;
#228 = ORIENTED_EDGE ( 'NONE', *, *, #39, .T. ) ;
#229 = ORIENTED_EDGE ( 'NONE', *, *, #169, .F. ) ;
#230 = PRESENTATION_LAYER_ASSIGNMENT (  '', '', ( #264 ) ) ;
#231 = ORIENTED_EDGE ( 'NONE', *, *, #2, .T. ) ;
#232 = ORIENTED_EDGE ( 'NONE', *, *, #115, .F. ) ;
#233 = DIRECTION ( 'NONE',  ( 1.000000000000000000, 0.0000000000000000000, 0.0000000000000000000 ) ) ;
#234 = DIRECTION ( 'NONE',  ( 0.0000000000000000000, 0.0000000000000000000, -1.000000000000000000 ) ) ;
#235 = AXIS2_PLACEMENT_3D ( 'NONE', #108, #291, #105 ) ;
#236 = CYLINDRICAL_SURFACE ( 'NONE', #123, 0.06250000000000000000 ) ;
#237 = APPLICATION_CONTEXT ( 'automotive_design' ) ;
#238 = CARTESIAN_POINT ( 'NONE',  ( 0.0000000000000000000, 0.0000000000000000000, 1.485000000000000764 ) ) ;
#239 = CARTESIAN_POINT ( 'NONE',  ( 0.0000000000000000000, 0.0000000000000000000, 1.500000000000000222 ) ) ;
#240 = CIRCLE ( 'NONE', #112, 0.03121875000000000691 ) ;
#241 =( NAMED_UNIT ( * ) PLANE_ANGLE_UNIT ( ) SI_UNIT ( $, .RADIAN. ) );
#242 = CARTESIAN_POINT ( 'NONE',  ( 0.0000000000000000000, 0.0000000000000000000, 1.485000000000000764 ) ) ;
#243 = CARTESIAN_POINT ( 'NONE',  ( 1.530808498934191817E-17, 0.0000000000000000000, 0.1250000000000000000 ) ) ;
#244 = DIRECTION ( 'NONE',  ( -1.224646799147353454E-16, -0.0000000000000000000, -1.000000000000000000 ) ) ;
#245 = EDGE_CURVE ( 'NONE', #117, #142, #240, .T. ) ;
#246 = DIRECTION ( 'NONE',  ( 0.0000000000000000000, 0.0000000000000000000, -1.000000000000000000 ) ) ;
#247 = CARTESIAN_POINT ( 'NONE',  ( 0.0000000000000000000, 0.0000000000000000000, 0.0000000000000000000 ) ) ;
#248 = AXIS2_PLACEMENT_3D ( 'NONE', #124, #27, #6 ) ;
#249 =( LENGTH_UNIT ( ) NAMED_UNIT ( * ) SI_UNIT ( $, .METRE. ) );
#250 = EDGE_LOOP ( 'NONE', ( #272, #49, #210, #187 ) ) ;
#251 = LENGTH_MEASURE_WITH_UNIT ( LENGTH_MEASURE( 0.02539999999999999897 ), #249 );
#252 = VERTEX_POINT ( 'NONE', #224 ) ;
#253 =( CONVERSION_BASED_UNIT ( 'INCH', #167 ) LENGTH_UNIT ( ) NAMED_UNIT ( #221 ) );
#254 = VERTEX_POINT ( 'NONE', #107 ) ;
#255 = CIRCLE ( 'NONE', #218, 0.03121874999999999997 ) ;
#256 = ORIENTED_EDGE ( 'NONE', *, *, #145, .F. ) ;
#257 = ORIENTED_EDGE ( 'NONE', *, *, #50, .T. ) ;
#258 = DIRECTION ( 'NONE',  ( 1.000000000000000000, 0.0000000000000000000, 0.0000000000000000000 ) ) ;
#259 = DIRECTION ( 'NONE',  ( 0.0000000000000000000, 0.0000000000000000000, 1.000000000000000000 ) ) ;
#260 = VECTOR ( 'NONE', #126, 39.37007874015748143 ) ;
#261 = DIRECTION ( 'NONE',  ( 1.224646799147353454E-16, 0.0000000000000000000, 1.000000000000000000 ) ) ;
#262 = EDGE_LOOP ( 'NONE', ( #256, #32, #207, #45 ) ) ;
#263 = DIRECTION ( 'NONE',  ( 1.000000000000000000, 0.0000000000000000000, 0.0000000000000000000 ) ) ;
#264 = STYLED_ITEM ( 'NONE', ( #38 ), #225 ) ;
#265 = CARTESIAN_POINT ( 'NONE',  ( 3.703390512866948185E-17, 0.0000000000000000000, 0.3024047844199154178 ) ) ;
#266 = LENGTH_MEASURE_WITH_UNIT ( LENGTH_MEASURE( 0.02539999999999999897 ), #181 );
#267 = CIRCLE ( 'NONE', #165, 0.04750000000000064587 ) ;
#268 = SURFACE_STYLE_USAGE ( .BOTH. , #203 ) ;
#269 = EDGE_CURVE ( 'NONE', #142, #274, #199, .T. ) ;
#270 = VECTOR ( 'NONE', #60, 39.37007874015748143 ) ;
#271 =( CONVERSION_BASED_UNIT ( 'INCH', #251 ) LENGTH_UNIT ( ) NAMED_UNIT ( #84 ) );
#272 = ORIENTED_EDGE ( 'NONE', *, *, #78, .F. ) ;
#273 = DIRECTION ( 'NONE',  ( -1.000000000000000000, 0.0000000000000000000, 1.224646799147353207E-16 ) ) ;
#274 = VERTEX_POINT ( 'NONE', #16 ) ;
#275 = PRODUCT_CONTEXT ( 'NONE', #206, 'mechanical' ) ;
#276 = PRODUCT_DEFINITION_CONTEXT ( 'detailed design', #237, 'design' ) ;
#277 = ORIENTED_EDGE ( 'NONE', *, *, #115, .T. ) ;
#278 = ADVANCED_FACE ( 'NONE', ( #90 ), #208, .F. ) ;
#279 = VECTOR ( 'NONE', #223, 39.37007874015748143 ) ;
#280 = VERTEX_POINT ( 'NONE', #63 ) ;
#281 = CARTESIAN_POINT ( 'NONE',  ( 0.03121875000000000691, 3.823194226088144458E-18, -3.823194226088144458E-18 ) ) ;
#282 = CARTESIAN_POINT ( 'NONE',  ( 0.03121874999999999997, 3.823194226088143687E-18, -4.739000847409537175E-34 ) ) ;
#283 = DIRECTION ( 'NONE',  ( -0.7071067811865456854, 0.0000000000000000000, -0.7071067811865493491 ) ) ;
#284 = CONICAL_SURFACE ( 'NONE', #235, 0.04750000000000064587, 0.7853981633974457255 ) ;
#285 = CARTESIAN_POINT ( 'NONE',  ( -0.04750000000000064587, 0.0000000000000000000, 1.500000000000000222 ) ) ;
#286 = ORIENTED_EDGE ( 'NONE', *, *, #109, .T. ) ;
#287 = DIRECTION ( 'NONE',  ( -0.1736481776669312194, 2.126576849575783625E-17, 0.9848077530122080203 ) ) ;
#288 = DIRECTION ( 'NONE',  ( -1.000000000000000000, 0.0000000000000000000, 1.224646799147353207E-16 ) ) ;
#289 = CARTESIAN_POINT ( 'NONE',  ( 1.530808498934191817E-17, 0.0000000000000000000, 0.1250000000000000000 ) ) ;
#290 = ADVANCED_FACE ( 'NONE', ( #64 ), #89, .T. ) ;
#291 = DIRECTION ( 'NONE',  ( 0.0000000000000000000, 0.0000000000000000000, -1.000000000000000000 ) ) ;
#292 = CIRCLE ( 'NONE', #173, 0.06250000000000000000 ) ;
#293 = UNCERTAINTY_MEASURE_WITH_UNIT (LENGTH_MEASURE( 1.000000000000000082E-05 ), #253, 'distance_accuracy_value', 'NONE');
#294 = ADVANCED_BREP_SHAPE_REPRESENTATION ( 'Micro_SEM-062-04X', ( #225, #24 ), #180 ) ;
#295 = EDGE_LOOP ( 'NONE', ( #196, #213, #25, #120 ) ) ;
#296 = PRODUCT_RELATED_PRODUCT_CATEGORY ( 'part', '', ( #5 ) ) ;
#297 =( LENGTH_UNIT ( ) NAMED_UNIT ( * ) SI_UNIT ( $, .METRE. ) );
#298 = EDGE_LOOP ( 'NONE', ( #228, #172 ) ) ;
#299 = AXIS2_PLACEMENT_3D ( 'NONE', #219, #195, #263 ) ;
ENDSEC;
END-ISO-10303-21;
