ISO-10303-21;
HEADER;
FILE_DESCRIPTION (( 'STEP AP214' ),
    '1' );
FILE_NAME ('59705.STEP',
    '2023-07-24T15:26:27',
    ( '' ),
    ( '' ),
    'SwSTEP 2.0',
    'SolidWorks 2023',
    '' );
FILE_SCHEMA (( 'AUTOMOTIVE_DESIGN' ));
ENDSEC;

DATA;
#1 =( LENGTH_UNIT ( ) NAMED_UNIT ( * ) SI_UNIT ( .MILLI., .METRE. ) );
#2 = CIRCLE ( 'NONE', #70, 5.000000000000000000 ) ;
#3 = AXIS2_PLACEMENT_3D ( 'NONE', #94, #305, #97 ) ;
#4 = FACE_OUTER_BOUND ( 'NONE', #223, .T. ) ;
#5 =( GEOMETRIC_REPRESENTATION_CONTEXT ( 3 ) GLOBAL_UNCERTAINTY_ASSIGNED_CONTEXT ( ( #311 ) ) GLOBAL_UNIT_ASSIGNED_CONTEXT ( ( #299, #145, #116 ) ) REPRESENTATION_CONTEXT ( 'NONE', 'WORKASPACE' ) );
#6 = CARTESIAN_POINT ( 'NONE',  ( 5.000000000000000000, 15.00000000000000000, 6.123233995736762338E-16 ) ) ;
#7 = ORIENTED_EDGE ( 'NONE', *, *, #249, .F. ) ;
#8 = DIRECTION ( 'NONE',  ( -9.135657442593541248E-17, 1.000000000000000000, -0.000000000000000000 ) ) ;
#9 = ORIENTED_EDGE ( 'NONE', *, *, #104, .T. ) ;
#10 = SURFACE_SIDE_STYLE ('',( #290 ) ) ;
#11 = EDGE_CURVE ( 'NONE', #144, #163, #363, .T. ) ;
#12 = CARTESIAN_POINT ( 'NONE',  ( 0.000000000000000000, 0.000000000000000000, 0.000000000000000000 ) ) ;
#13 = CARTESIAN_POINT ( 'NONE',  ( 0.000000000000000000, 0.000000000000000000, 0.000000000000000000 ) ) ;
#14 = UNCERTAINTY_MEASURE_WITH_UNIT (LENGTH_MEASURE( 1.000000000000000082E-05 ), #246, 'distance_accuracy_value', 'NONE');
#15 = SURFACE_STYLE_USAGE ( .BOTH. , #353 ) ;
#16 = VERTEX_POINT ( 'NONE', #68 ) ;
#17 = PRESENTATION_STYLE_ASSIGNMENT (( #262 ) ) ;
#18 = EDGE_CURVE ( 'NONE', #332, #288, #105, .T. ) ;
#19 = EDGE_LOOP ( 'NONE', ( #54, #36 ) ) ;
#20 = AXIS2_PLACEMENT_3D ( 'NONE', #13, #114, #228 ) ;
#21 = COLOUR_RGB ( '',1.000000000000000000, 0.000000000000000000, 0.000000000000000000 ) ;
#22 = CARTESIAN_POINT ( 'NONE',  ( 5.854691731421723944E-15, 15.00000000000000000, 0.000000000000000000 ) ) ;
#23 = DIRECTION ( 'NONE',  ( -9.135657442593541248E-17, 1.000000000000000000, -0.000000000000000000 ) ) ;
#24 = ORIENTED_EDGE ( 'NONE', *, *, #211, .F. ) ;
#25 = PRESENTATION_LAYER_ASSIGNMENT (  '', '', ( #303 ) ) ;
#26 = TOROIDAL_SURFACE ( 'NONE', #209, 4.500000000000000888, 0.4999999999999997780 ) ;
#27 = PRODUCT_CONTEXT ( 'NONE', #61, 'mechanical' ) ;
#28 = PRESENTATION_STYLE_ASSIGNMENT (( #184 ) ) ;
#29 = AXIS2_PLACEMENT_3D ( 'NONE', #231, #266, #176 ) ;
#30 = AXIS2_PLACEMENT_3D ( 'NONE', #112, #237, #258 ) ;
#31 = ADVANCED_FACE ( 'NONE', ( #348 ), #73, .T. ) ;
#32 =( NAMED_UNIT ( * ) PLANE_ANGLE_UNIT ( ) SI_UNIT ( $, .RADIAN. ) );
#33 = COLOUR_RGB ( '',1.000000000000000000, 0.000000000000000000, 0.000000000000000000 ) ;
#34 = ORIENTED_EDGE ( 'NONE', *, *, #149, .T. ) ;
#35 = PRESENTATION_STYLE_ASSIGNMENT (( #80 ) ) ;
#36 = ORIENTED_EDGE ( 'NONE', *, *, #168, .T. ) ;
#37 = LINE ( 'NONE', #254, #188 ) ;
#38 = SURFACE_STYLE_FILL_AREA ( #312 ) ;
#39 = DIRECTION ( 'NONE',  ( 0.000000000000000000, 0.000000000000000000, 1.000000000000000000 ) ) ;
#40 = ORIENTED_EDGE ( 'NONE', *, *, #157, .T. ) ;
#41 = FILL_AREA_STYLE ('',( #174 ) ) ;
#42 = CARTESIAN_POINT ( 'NONE',  ( 0.000000000000000000, 0.5000000000000000000, 0.000000000000000000 ) ) ;
#43 = FILL_AREA_STYLE_COLOUR ( '', #234 ) ;
#44 = PRESENTATION_LAYER_ASSIGNMENT (  '', '', ( #155 ) ) ;
#45 = ADVANCED_FACE ( 'NONE', ( #74 ), #271, .F. ) ;
#46 = SURFACE_SIDE_STYLE ('',( #302 ) ) ;
#47 = SURFACE_STYLE_FILL_AREA ( #41 ) ;
#48 = PRESENTATION_LAYER_ASSIGNMENT (  '', '', ( #253 ) ) ;
#49 =( GEOMETRIC_REPRESENTATION_CONTEXT ( 3 ) GLOBAL_UNCERTAINTY_ASSIGNED_CONTEXT ( ( #14 ) ) GLOBAL_UNIT_ASSIGNED_CONTEXT ( ( #246, #370, #186 ) ) REPRESENTATION_CONTEXT ( 'NONE', 'WORKASPACE' ) );
#50 = MECHANICAL_DESIGN_GEOMETRIC_PRESENTATION_REPRESENTATION (  '', ( #99 ), #260 ) ;
#51 = DIRECTION ( 'NONE',  ( -0.000000000000000000, -1.000000000000000000, -0.000000000000000000 ) ) ;
#52 = DIRECTION ( 'NONE',  ( -0.000000000000000000, -1.000000000000000000, -0.000000000000000000 ) ) ;
#53 = CARTESIAN_POINT ( 'NONE',  ( 0.000000000000000000, 0.000000000000000000, -5.000000000000000000 ) ) ;
#54 = ORIENTED_EDGE ( 'NONE', *, *, #239, .T. ) ;
#55 = CIRCLE ( 'NONE', #279, 4.500000000000000888 ) ;
#56 = DIRECTION ( 'NONE',  ( -9.135657442593541248E-17, 1.000000000000000000, -0.000000000000000000 ) ) ;
#57 = UNCERTAINTY_MEASURE_WITH_UNIT (LENGTH_MEASURE( 1.000000000000000082E-05 ), #341, 'distance_accuracy_value', 'NONE');
#58 = CARTESIAN_POINT ( 'NONE',  ( 5.854691731421723944E-15, 15.00000000000000000, 0.000000000000000000 ) ) ;
#59 = ORIENTED_EDGE ( 'NONE', *, *, #104, .F. ) ;
#60 =( NAMED_UNIT ( * ) SI_UNIT ( $, .STERADIAN. ) SOLID_ANGLE_UNIT ( ) );
#61 = APPLICATION_CONTEXT ( 'automotive_design' ) ;
#62 = CARTESIAN_POINT ( 'NONE',  ( 0.000000000000000000, 15.00000000000000000, -5.000000000000000000 ) ) ;
#63 = DIRECTION ( 'NONE',  ( -1.000000000000000000, 0.000000000000000000, 0.000000000000000000 ) ) ;
#64 = ORIENTED_EDGE ( 'NONE', *, *, #367, .T. ) ;
#65 = FACE_OUTER_BOUND ( 'NONE', #122, .T. ) ;
#66 = CIRCLE ( 'NONE', #85, 4.999999999999993783 ) ;
#67 = MECHANICAL_DESIGN_GEOMETRIC_PRESENTATION_REPRESENTATION (  '', ( #310 ), #101 ) ;
#68 = CARTESIAN_POINT ( 'NONE',  ( -4.999999999999996447, 63.00000000000000000, 0.000000000000000000 ) ) ;
#69 = ADVANCED_FACE ( 'NONE', ( #362 ), #156, .T. ) ;
#70 = AXIS2_PLACEMENT_3D ( 'NONE', #131, #51, #314 ) ;
#71 = SHAPE_DEFINITION_REPRESENTATION ( #284, #187 ) ;
#72 = VECTOR ( 'NONE', #222, 1000.000000000000000 ) ;
#73 = TOROIDAL_SURFACE ( 'NONE', #135, 4.500000000000000888, 0.4999999999999997780 ) ;
#74 = FACE_OUTER_BOUND ( 'NONE', #153, .T. ) ;
#75 =( NAMED_UNIT ( * ) SI_UNIT ( $, .STERADIAN. ) SOLID_ANGLE_UNIT ( ) );
#76 = DIRECTION ( 'NONE',  ( -1.224646799147353454E-16, 0.000000000000000000, -1.000000000000000000 ) ) ;
#77 = DIRECTION ( 'NONE',  ( -1.000000000000000000, 0.000000000000000000, 0.000000000000000000 ) ) ;
#78 = CIRCLE ( 'NONE', #293, 4.999999999999998224 ) ;
#79 =( GEOMETRIC_REPRESENTATION_CONTEXT ( 3 ) GLOBAL_UNCERTAINTY_ASSIGNED_CONTEXT ( ( #342 ) ) GLOBAL_UNIT_ASSIGNED_CONTEXT ( ( #1, #32, #307 ) ) REPRESENTATION_CONTEXT ( 'NONE', 'WORKASPACE' ) );
#80 = SURFACE_STYLE_USAGE ( .BOTH. , #10 ) ;
#81 = FILL_AREA_STYLE_COLOUR ( '', #33 ) ;
#82 =( NAMED_UNIT ( * ) PLANE_ANGLE_UNIT ( ) SI_UNIT ( $, .RADIAN. ) );
#83 = VERTEX_POINT ( 'NONE', #277 ) ;
#84 = FILL_AREA_STYLE ('',( #43 ) ) ;
#85 = AXIS2_PLACEMENT_3D ( 'NONE', #58, #8, #77 ) ;
#86 = MECHANICAL_DESIGN_GEOMETRIC_PRESENTATION_REPRESENTATION (  '', ( #253 ), #282 ) ;
#87 = CARTESIAN_POINT ( 'NONE',  ( 1.469576158976823750E-15, 63.00000000000000000, 0.000000000000000000 ) ) ;
#88 = CARTESIAN_POINT ( 'NONE',  ( 0.000000000000000000, 15.00000000000000000, 0.000000000000000000 ) ) ;
#89 = LINE ( 'NONE', #199, #216 ) ;
#90 = FILL_AREA_STYLE_COLOUR ( '', #159 ) ;
#91 = DIRECTION ( 'NONE',  ( -9.135657442593541248E-17, 1.000000000000000000, -0.000000000000000000 ) ) ;
#92 = CARTESIAN_POINT ( 'NONE',  ( 4.999999999999997335, 63.00000000000000000, 6.123233995736761352E-16 ) ) ;
#93 = DIRECTION ( 'NONE',  ( -1.000000000000000000, 0.000000000000000000, 0.000000000000000000 ) ) ;
#94 = CARTESIAN_POINT ( 'NONE',  ( 0.000000000000000000, 15.00000000000000000, 0.000000000000000000 ) ) ;
#95 = MANIFOLD_SOLID_BREP ( 'Revolve - Cutting Edge', #217 ) ;
#96 = EDGE_CURVE ( 'NONE', #251, #152, #55, .T. ) ;
#97 = DIRECTION ( 'NONE',  ( 0.000000000000000000, -0.000000000000000000, 1.000000000000000000 ) ) ;
#98 = AXIS2_PLACEMENT_3D ( 'NONE', #190, #91, #151 ) ;
#99 = STYLED_ITEM ( 'NONE', ( #28 ), #350 ) ;
#100 = MANIFOLD_SOLID_BREP ( 'Revolve - Tool Body (Straight Shanked)', #273 ) ;
#101 =( GEOMETRIC_REPRESENTATION_CONTEXT ( 3 ) GLOBAL_UNCERTAINTY_ASSIGNED_CONTEXT ( ( #164 ) ) GLOBAL_UNIT_ASSIGNED_CONTEXT ( ( #329, #268, #357 ) ) REPRESENTATION_CONTEXT ( 'NONE', 'WORKASPACE' ) );
#102 = PRESENTATION_STYLE_ASSIGNMENT (( #274 ) ) ;
#103 = DIRECTION ( 'NONE',  ( -0.000000000000000000, -1.000000000000000000, -0.000000000000000000 ) ) ;
#104 = EDGE_CURVE ( 'NONE', #288, #332, #2, .T. ) ;
#105 = CIRCLE ( 'NONE', #183, 5.000000000000000000 ) ;
#106 = FILL_AREA_STYLE_COLOUR ( '', #169 ) ;
#107 = APPLICATION_CONTEXT ( 'automotive_design' ) ;
#108 = PRODUCT_RELATED_PRODUCT_CATEGORY ( 'part', '', ( #192 ) ) ;
#109 = ORIENTED_EDGE ( 'NONE', *, *, #211, .T. ) ;
#110 = ORIENTED_EDGE ( 'NONE', *, *, #249, .T. ) ;
#111 = STYLED_ITEM ( 'NONE', ( #102 ), #100 ) ;
#112 = CARTESIAN_POINT ( 'NONE',  ( 5.000000000000000000, 63.00000000000000000, 0.000000000000000000 ) ) ;
#113 = SURFACE_STYLE_FILL_AREA ( #208 ) ;
#114 = DIRECTION ( 'NONE',  ( -0.000000000000000000, -1.000000000000000000, -0.000000000000000000 ) ) ;
#115 = ORIENTED_EDGE ( 'NONE', *, *, #136, .F. ) ;
#116 =( NAMED_UNIT ( * ) SI_UNIT ( $, .STERADIAN. ) SOLID_ANGLE_UNIT ( ) );
#117 = CARTESIAN_POINT ( 'NONE',  ( 0.000000000000000000, 0.000000000000000000, 0.000000000000000000 ) ) ;
#118 =( NAMED_UNIT ( * ) PLANE_ANGLE_UNIT ( ) SI_UNIT ( $, .RADIAN. ) );
#119 = ORIENTED_EDGE ( 'NONE', *, *, #96, .T. ) ;
#120 = SURFACE_STYLE_USAGE ( .BOTH. , #200 ) ;
#121 = CIRCLE ( 'NONE', #98, 4.999999999999993783 ) ;
#122 = EDGE_LOOP ( 'NONE', ( #110, #119 ) ) ;
#123 = AXIS2_PLACEMENT_3D ( 'NONE', #87, #204, #207 ) ;
#124 = FACE_OUTER_BOUND ( 'NONE', #19, .T. ) ;
#125 = DIRECTION ( 'NONE',  ( -9.135657442593541248E-17, 1.000000000000000000, 0.000000000000000000 ) ) ;
#126 = CYLINDRICAL_SURFACE ( 'NONE', #193, 4.999999999999995559 ) ;
#127 = CARTESIAN_POINT ( 'NONE',  ( 0.000000000000000000, 0.5000000000000000000, -5.000000000000000000 ) ) ;
#128 = DIRECTION ( 'NONE',  ( -1.000000000000000000, -9.135657442593541248E-17, 0.000000000000000000 ) ) ;
#129 = DIRECTION ( 'NONE',  ( -1.000000000000000000, 0.000000000000000000, 0.000000000000000000 ) ) ;
#130 = COLOUR_RGB ( '',0.7921568627450980005, 0.8196078431372548767, 0.9333333333333333481 ) ;
#131 = CARTESIAN_POINT ( 'NONE',  ( 0.000000000000000000, 0.5000000000000000000, 0.000000000000000000 ) ) ;
#132 = APPLICATION_PROTOCOL_DEFINITION ( 'draft international standard', 'automotive_design', 1998, #61 ) ;
#133 = FILL_AREA_STYLE_COLOUR ( '', #21 ) ;
#134 = AXIS2_PLACEMENT_3D ( 'NONE', #330, #366, #93 ) ;
#135 = AXIS2_PLACEMENT_3D ( 'NONE', #42, #150, #359 ) ;
#136 = EDGE_CURVE ( 'NONE', #83, #332, #37, .T. ) ;
#137 =( NAMED_UNIT ( * ) SI_UNIT ( $, .STERADIAN. ) SOLID_ANGLE_UNIT ( ) );
#138 = SURFACE_STYLE_FILL_AREA ( #213 ) ;
#139 = CARTESIAN_POINT ( 'NONE',  ( 1.469576158976823750E-15, 63.00000000000000000, 0.000000000000000000 ) ) ;
#140 = EDGE_LOOP ( 'NONE', ( #315, #344, #354, #360 ) ) ;
#141 = DIRECTION ( 'NONE',  ( -0.000000000000000000, -1.000000000000000000, -0.000000000000000000 ) ) ;
#142 = MECHANICAL_DESIGN_GEOMETRIC_PRESENTATION_REPRESENTATION (  '', ( #347 ), #5 ) ;
#143 = PRODUCT_DEFINITION ( 'UNKNOWN', '', #240, #325 ) ;
#144 = VERTEX_POINT ( 'NONE', #6 ) ;
#145 =( NAMED_UNIT ( * ) PLANE_ANGLE_UNIT ( ) SI_UNIT ( $, .RADIAN. ) );
#146 = ORIENTED_EDGE ( 'NONE', *, *, #168, .F. ) ;
#147 = DIRECTION ( 'NONE',  ( 0.000000000000000000, 0.000000000000000000, -1.000000000000000000 ) ) ;
#148 = SURFACE_SIDE_STYLE ('',( #47 ) ) ;
#149 = EDGE_CURVE ( 'NONE', #229, #288, #250, .T. ) ;
#150 = DIRECTION ( 'NONE',  ( -0.000000000000000000, -1.000000000000000000, -0.000000000000000000 ) ) ;
#151 = DIRECTION ( 'NONE',  ( -1.000000000000000000, 0.000000000000000000, 0.000000000000000000 ) ) ;
#152 = VERTEX_POINT ( 'NONE', #345 ) ;
#153 = EDGE_LOOP ( 'NONE', ( #24, #220 ) ) ;
#154 =( LENGTH_UNIT ( ) NAMED_UNIT ( * ) SI_UNIT ( .MILLI., .METRE. ) );
#155 = STYLED_ITEM ( 'NONE', ( #339 ), #95 ) ;
#156 = PLANE ( 'NONE',  #3 ) ;
#157 = EDGE_CURVE ( 'NONE', #144, #320, #66, .T. ) ;
#158 = PRESENTATION_LAYER_ASSIGNMENT (  '', '', ( #252 ) ) ;
#159 = COLOUR_RGB ( '',1.000000000000000000, 0.000000000000000000, 0.000000000000000000 ) ;
#160 = FILL_AREA_STYLE_COLOUR ( '', #130 ) ;
#161 = ORIENTED_EDGE ( 'NONE', *, *, #239, .F. ) ;
#162 = DIRECTION ( 'NONE',  ( 0.000000000000000000, 0.000000000000000000, -1.000000000000000000 ) ) ;
#163 = VERTEX_POINT ( 'NONE', #317 ) ;
#164 = UNCERTAINTY_MEASURE_WITH_UNIT (LENGTH_MEASURE( 1.000000000000000082E-05 ), #329, 'distance_accuracy_value', 'NONE');
#165 = AXIS2_PLACEMENT_3D ( 'NONE', #221, #52, #162 ) ;
#166 = FILL_AREA_STYLE ('',( #106 ) ) ;
#167 = UNCERTAINTY_MEASURE_WITH_UNIT (LENGTH_MEASURE( 1.000000000000000082E-05 ), #154, 'distance_accuracy_value', 'NONE');
#168 = EDGE_CURVE ( 'NONE', #163, #16, #78, .T. ) ;
#169 = COLOUR_RGB ( '',1.000000000000000000, 0.000000000000000000, 0.000000000000000000 ) ;
#170 = CARTESIAN_POINT ( 'NONE',  ( 1.469576158976823750E-15, 63.00000000000000000, 0.000000000000000000 ) ) ;
#171 = EDGE_LOOP ( 'NONE', ( #109, #191, #161, #298 ) ) ;
#172 = CARTESIAN_POINT ( 'NONE',  ( 0.000000000000000000, 0.5000000000000000000, -4.500000000000000888 ) ) ;
#173 = EDGE_CURVE ( 'NONE', #332, #251, #340, .T. ) ;
#174 = FILL_AREA_STYLE_COLOUR ( '', #224 ) ;
#175 = DIRECTION ( 'NONE',  ( -0.000000000000000000, -1.000000000000000000, -0.000000000000000000 ) ) ;
#176 = DIRECTION ( 'NONE',  ( 0.000000000000000000, 0.000000000000000000, -1.000000000000000000 ) ) ;
#177 = CIRCLE ( 'NONE', #29, 4.500000000000000888 ) ;
#178 = CYLINDRICAL_SURFACE ( 'NONE', #309, 5.000000000000000000 ) ;
#179 =( NAMED_UNIT ( * ) SI_UNIT ( $, .STERADIAN. ) SOLID_ANGLE_UNIT ( ) );
#180 = EDGE_LOOP ( 'NONE', ( #9, #203, #7, #349 ) ) ;
#181 = SURFACE_STYLE_USAGE ( .BOTH. , #148 ) ;
#182 = PRESENTATION_LAYER_ASSIGNMENT (  '', '', ( #111 ) ) ;
#183 = AXIS2_PLACEMENT_3D ( 'NONE', #276, #338, #278 ) ;
#184 = SURFACE_STYLE_USAGE ( .BOTH. , #46 ) ;
#185 =( NAMED_UNIT ( * ) PLANE_ANGLE_UNIT ( ) SI_UNIT ( $, .RADIAN. ) );
#186 =( NAMED_UNIT ( * ) SI_UNIT ( $, .STERADIAN. ) SOLID_ANGLE_UNIT ( ) );
#187 = ADVANCED_BREP_SHAPE_REPRESENTATION ( '59705', ( #95, #100, #194 ), #79 ) ;
#188 = VECTOR ( 'NONE', #287, 1000.000000000000000 ) ;
#189 = AXIS2_PLACEMENT_3D ( 'NONE', #280, #351, #313 ) ;
#190 = CARTESIAN_POINT ( 'NONE',  ( 5.854691731421723944E-15, 15.00000000000000000, 0.000000000000000000 ) ) ;
#191 = ORIENTED_EDGE ( 'NONE', *, *, #11, .T. ) ;
#192 = PRODUCT ( '59705', '59705', '', ( #27 ) ) ;
#193 = AXIS2_PLACEMENT_3D ( 'NONE', #170, #23, #129 ) ;
#194 = AXIS2_PLACEMENT_3D ( 'NONE', #117, #202, #328 ) ;
#195 = VECTOR ( 'NONE', #358, 1000.000000000000000 ) ;
#196 = ORIENTED_EDGE ( 'NONE', *, *, #367, .F. ) ;
#197 = ADVANCED_FACE ( 'NONE', ( #4 ), #261, .T. ) ;
#198 = ORIENTED_EDGE ( 'NONE', *, *, #136, .T. ) ;
#199 = CARTESIAN_POINT ( 'NONE',  ( -4.999999999999993783, 63.00000000000000000, 0.000000000000000000 ) ) ;
#200 = SURFACE_SIDE_STYLE ('',( #38 ) ) ;
#201 = PLANE ( 'NONE',  #30 ) ;
#202 = DIRECTION ( 'NONE',  ( 0.000000000000000000, 0.000000000000000000, 1.000000000000000000 ) ) ;
#203 = ORIENTED_EDGE ( 'NONE', *, *, #173, .T. ) ;
#204 = DIRECTION ( 'NONE',  ( -9.135657442593541248E-17, 1.000000000000000000, -0.000000000000000000 ) ) ;
#205 = DIRECTION ( 'NONE',  ( -0.000000000000000000, -1.000000000000000000, -0.000000000000000000 ) ) ;
#206 =( LENGTH_UNIT ( ) NAMED_UNIT ( * ) SI_UNIT ( .MILLI., .METRE. ) );
#207 = DIRECTION ( 'NONE',  ( -1.000000000000000000, 0.000000000000000000, 0.000000000000000000 ) ) ;
#208 = FILL_AREA_STYLE ('',( #90 ) ) ;
#209 = AXIS2_PLACEMENT_3D ( 'NONE', #352, #141, #264 ) ;
#210 = FILL_AREA_STYLE ('',( #133 ) ) ;
#211 = EDGE_CURVE ( 'NONE', #320, #144, #121, .T. ) ;
#212 = EDGE_LOOP ( 'NONE', ( #263, #40, #301, #146 ) ) ;
#213 = FILL_AREA_STYLE ('',( #160 ) ) ;
#214 = APPLICATION_PROTOCOL_DEFINITION ( 'draft international standard', 'automotive_design', 1998, #107 ) ;
#215 = MECHANICAL_DESIGN_GEOMETRIC_PRESENTATION_REPRESENTATION (  '', ( #303 ), #233 ) ;
#216 = VECTOR ( 'NONE', #324, 1000.000000000000000 ) ;
#217 = CLOSED_SHELL ( 'NONE', ( #265, #31, #350, #285, #197, #69 ) ) ;
#218 = ADVANCED_FACE ( 'NONE', ( #235 ), #126, .T. ) ;
#219 =( LENGTH_UNIT ( ) NAMED_UNIT ( * ) SI_UNIT ( .MILLI., .METRE. ) );
#220 = ORIENTED_EDGE ( 'NONE', *, *, #157, .F. ) ;
#221 = CARTESIAN_POINT ( 'NONE',  ( 0.000000000000000000, 15.00000000000000000, 0.000000000000000000 ) ) ;
#222 = DIRECTION ( 'NONE',  ( -0.000000000000000000, -1.000000000000000000, -0.000000000000000000 ) ) ;
#223 = EDGE_LOOP ( 'NONE', ( #115, #238, #34, #318 ) ) ;
#224 = COLOUR_RGB ( '',1.000000000000000000, 0.000000000000000000, 0.000000000000000000 ) ;
#225 = PRESENTATION_LAYER_ASSIGNMENT (  '', '', ( #99 ) ) ;
#226 =( LENGTH_UNIT ( ) NAMED_UNIT ( * ) SI_UNIT ( .MILLI., .METRE. ) );
#227 = CARTESIAN_POINT ( 'NONE',  ( -4.999999999999987566, 15.00000000000000000, 0.000000000000000000 ) ) ;
#228 = DIRECTION ( 'NONE',  ( 0.000000000000000000, 0.000000000000000000, -1.000000000000000000 ) ) ;
#229 = VERTEX_POINT ( 'NONE', #62 ) ;
#230 = UNCERTAINTY_MEASURE_WITH_UNIT (LENGTH_MEASURE( 1.000000000000000082E-05 ), #226, 'distance_accuracy_value', 'NONE');
#231 = CARTESIAN_POINT ( 'NONE',  ( 0.000000000000000000, 0.000000000000000000, 0.000000000000000000 ) ) ;
#232 = SURFACE_STYLE_FILL_AREA ( #84 ) ;
#233 =( GEOMETRIC_REPRESENTATION_CONTEXT ( 3 ) GLOBAL_UNCERTAINTY_ASSIGNED_CONTEXT ( ( #230 ) ) GLOBAL_UNIT_ASSIGNED_CONTEXT ( ( #226, #82, #60 ) ) REPRESENTATION_CONTEXT ( 'NONE', 'WORKASPACE' ) );
#234 = COLOUR_RGB ( '',1.000000000000000000, 0.000000000000000000, 0.000000000000000000 ) ;
#235 = FACE_OUTER_BOUND ( 'NONE', #171, .T. ) ;
#236 = PRESENTATION_LAYER_ASSIGNMENT (  '', '', ( #310 ) ) ;
#237 = DIRECTION ( 'NONE',  ( 9.135657442593541248E-17, -1.000000000000000000, 0.000000000000000000 ) ) ;
#238 = ORIENTED_EDGE ( 'NONE', *, *, #336, .T. ) ;
#239 = EDGE_CURVE ( 'NONE', #16, #163, #369, .T. ) ;
#240 = PRODUCT_DEFINITION_FORMATION_WITH_SPECIFIED_SOURCE ( 'ANY', '', #192, .NOT_KNOWN. ) ;
#241 = PLANE ( 'NONE',  #189 ) ;
#242 = DIRECTION ( 'NONE',  ( 0.000000000000000000, 0.000000000000000000, -1.000000000000000000 ) ) ;
#243 = CARTESIAN_POINT ( 'NONE',  ( 5.817072295949928412E-16, 0.000000000000000000, 4.500000000000000888 ) ) ;
#244 = FILL_AREA_STYLE ('',( #275 ) ) ;
#245 = COLOUR_RGB ( '',0.7921568627450980005, 0.8196078431372548767, 0.9333333333333333481 ) ;
#246 =( LENGTH_UNIT ( ) NAMED_UNIT ( * ) SI_UNIT ( .MILLI., .METRE. ) );
#247 =( NAMED_UNIT ( * ) PLANE_ANGLE_UNIT ( ) SI_UNIT ( $, .RADIAN. ) );
#248 = SURFACE_STYLE_USAGE ( .BOTH. , #368 ) ;
#249 = EDGE_CURVE ( 'NONE', #152, #251, #177, .T. ) ;
#250 = LINE ( 'NONE', #53, #72 ) ;
#251 = VERTEX_POINT ( 'NONE', #243 ) ;
#252 = STYLED_ITEM ( 'NONE', ( #294 ), #69 ) ;
#253 = STYLED_ITEM ( 'NONE', ( #361 ), #265 ) ;
#254 = CARTESIAN_POINT ( 'NONE',  ( 6.123233995736766282E-16, 0.000000000000000000, 5.000000000000000000 ) ) ;
#255 = ORIENTED_EDGE ( 'NONE', *, *, #336, .F. ) ;
#256 = CARTESIAN_POINT ( 'NONE',  ( 5.510910596163089556E-16, 0.5000000000000000000, 4.500000000000000888 ) ) ;
#257 = EDGE_LOOP ( 'NONE', ( #196, #255 ) ) ;
#258 = DIRECTION ( 'NONE',  ( 1.000000000000000000, 9.135657442593541248E-17, 0.000000000000000000 ) ) ;
#259 = UNCERTAINTY_MEASURE_WITH_UNIT (LENGTH_MEASURE( 1.000000000000000082E-05 ), #206, 'distance_accuracy_value', 'NONE');
#260 =( GEOMETRIC_REPRESENTATION_CONTEXT ( 3 ) GLOBAL_UNCERTAINTY_ASSIGNED_CONTEXT ( ( #292 ) ) GLOBAL_UNIT_ASSIGNED_CONTEXT ( ( #219, #247, #75 ) ) REPRESENTATION_CONTEXT ( 'NONE', 'WORKASPACE' ) );
#261 = CYLINDRICAL_SURFACE ( 'NONE', #20, 5.000000000000000000 ) ;
#262 = SURFACE_STYLE_USAGE ( .BOTH. , #269 ) ;
#263 = ORIENTED_EDGE ( 'NONE', *, *, #11, .F. ) ;
#264 = DIRECTION ( 'NONE',  ( 0.000000000000000000, 0.000000000000000000, -1.000000000000000000 ) ) ;
#265 = ADVANCED_FACE ( 'NONE', ( #272 ), #178, .T. ) ;
#266 = DIRECTION ( 'NONE',  ( -0.000000000000000000, -1.000000000000000000, -0.000000000000000000 ) ) ;
#267 =( GEOMETRIC_REPRESENTATION_CONTEXT ( 3 ) GLOBAL_UNCERTAINTY_ASSIGNED_CONTEXT ( ( #259 ) ) GLOBAL_UNIT_ASSIGNED_CONTEXT ( ( #206, #118, #179 ) ) REPRESENTATION_CONTEXT ( 'NONE', 'WORKASPACE' ) );
#268 =( NAMED_UNIT ( * ) PLANE_ANGLE_UNIT ( ) SI_UNIT ( $, .RADIAN. ) );
#269 = SURFACE_SIDE_STYLE ('',( #232 ) ) ;
#270 = EDGE_LOOP ( 'NONE', ( #64, #198, #59, #291 ) ) ;
#271 = PLANE ( 'NONE',  #283 ) ;
#272 = FACE_OUTER_BOUND ( 'NONE', #270, .T. ) ;
#273 = CLOSED_SHELL ( 'NONE', ( #218, #45, #323, #295 ) ) ;
#274 = SURFACE_STYLE_USAGE ( .BOTH. , #286 ) ;
#275 = FILL_AREA_STYLE_COLOUR ( '', #245 ) ;
#276 = CARTESIAN_POINT ( 'NONE',  ( 0.000000000000000000, 0.5000000000000000000, 0.000000000000000000 ) ) ;
#277 = CARTESIAN_POINT ( 'NONE',  ( 6.123233995736766282E-16, 15.00000000000000000, 5.000000000000000000 ) ) ;
#278 = DIRECTION ( 'NONE',  ( 0.000000000000000000, 0.000000000000000000, -1.000000000000000000 ) ) ;
#279 = AXIS2_PLACEMENT_3D ( 'NONE', #281, #103, #242 ) ;
#280 = CARTESIAN_POINT ( 'NONE',  ( 0.000000000000000000, 0.000000000000000000, 0.000000000000000000 ) ) ;
#281 = CARTESIAN_POINT ( 'NONE',  ( 0.000000000000000000, 0.000000000000000000, 0.000000000000000000 ) ) ;
#282 =( GEOMETRIC_REPRESENTATION_CONTEXT ( 3 ) GLOBAL_UNCERTAINTY_ASSIGNED_CONTEXT ( ( #167 ) ) GLOBAL_UNIT_ASSIGNED_CONTEXT ( ( #154, #321, #296 ) ) REPRESENTATION_CONTEXT ( 'NONE', 'WORKASPACE' ) );
#283 = AXIS2_PLACEMENT_3D ( 'NONE', #22, #125, #128 ) ;
#284 = PRODUCT_DEFINITION_SHAPE ( 'NONE', 'NONE',  #143 ) ;
#285 = ADVANCED_FACE ( 'NONE', ( #333 ), #26, .T. ) ;
#286 = SURFACE_SIDE_STYLE ('',( #308 ) ) ;
#287 = DIRECTION ( 'NONE',  ( -0.000000000000000000, -1.000000000000000000, -0.000000000000000000 ) ) ;
#288 = VERTEX_POINT ( 'NONE', #127 ) ;
#289 = CIRCLE ( 'NONE', #365, 0.4999999999999995559 ) ;
#290 = SURFACE_STYLE_FILL_AREA ( #166 ) ;
#291 = ORIENTED_EDGE ( 'NONE', *, *, #149, .F. ) ;
#292 = UNCERTAINTY_MEASURE_WITH_UNIT (LENGTH_MEASURE( 1.000000000000000082E-05 ), #219, 'distance_accuracy_value', 'NONE');
#293 = AXIS2_PLACEMENT_3D ( 'NONE', #139, #56, #343 ) ;
#294 = PRESENTATION_STYLE_ASSIGNMENT (( #15 ) ) ;
#295 = ADVANCED_FACE ( 'NONE', ( #124 ), #201, .F. ) ;
#296 =( NAMED_UNIT ( * ) SI_UNIT ( $, .STERADIAN. ) SOLID_ANGLE_UNIT ( ) );
#297 = PRESENTATION_STYLE_ASSIGNMENT (( #120 ) ) ;
#298 = ORIENTED_EDGE ( 'NONE', *, *, #306, .F. ) ;
#299 =( LENGTH_UNIT ( ) NAMED_UNIT ( * ) SI_UNIT ( .MILLI., .METRE. ) );
#300 = MECHANICAL_DESIGN_GEOMETRIC_PRESENTATION_REPRESENTATION (  '', ( #155 ), #49 ) ;
#301 = ORIENTED_EDGE ( 'NONE', *, *, #306, .T. ) ;
#302 = SURFACE_STYLE_FILL_AREA ( #210 ) ;
#303 = STYLED_ITEM ( 'NONE', ( #35 ), #197 ) ;
#304 = AXIS2_PLACEMENT_3D ( 'NONE', #88, #205, #334 ) ;
#305 = DIRECTION ( 'NONE',  ( 0.000000000000000000, 1.000000000000000000, 0.000000000000000000 ) ) ;
#306 = EDGE_CURVE ( 'NONE', #320, #16, #89, .T. ) ;
#307 =( NAMED_UNIT ( * ) SI_UNIT ( $, .STERADIAN. ) SOLID_ANGLE_UNIT ( ) );
#308 = SURFACE_STYLE_FILL_AREA ( #244 ) ;
#309 = AXIS2_PLACEMENT_3D ( 'NONE', #12, #175, #147 ) ;
#310 = STYLED_ITEM ( 'NONE', ( #297 ), #31 ) ;
#311 = UNCERTAINTY_MEASURE_WITH_UNIT (LENGTH_MEASURE( 1.000000000000000082E-05 ), #299, 'distance_accuracy_value', 'NONE');
#312 = FILL_AREA_STYLE ('',( #81 ) ) ;
#313 = DIRECTION ( 'NONE',  ( 0.000000000000000000, 0.000000000000000000, -1.000000000000000000 ) ) ;
#314 = DIRECTION ( 'NONE',  ( 0.000000000000000000, 0.000000000000000000, -1.000000000000000000 ) ) ;
#315 = ORIENTED_EDGE ( 'NONE', *, *, #173, .F. ) ;
#316 = EDGE_CURVE ( 'NONE', #288, #152, #289, .T. ) ;
#317 = CARTESIAN_POINT ( 'NONE',  ( 5.000000000000000000, 63.00000000000000000, 6.123233995736762338E-16 ) ) ;
#318 = ORIENTED_EDGE ( 'NONE', *, *, #18, .F. ) ;
#319 =( GEOMETRIC_REPRESENTATION_CONTEXT ( 3 ) GLOBAL_UNCERTAINTY_ASSIGNED_CONTEXT ( ( #57 ) ) GLOBAL_UNIT_ASSIGNED_CONTEXT ( ( #341, #185, #137 ) ) REPRESENTATION_CONTEXT ( 'NONE', 'WORKASPACE' ) );
#320 = VERTEX_POINT ( 'NONE', #227 ) ;
#321 =( NAMED_UNIT ( * ) PLANE_ANGLE_UNIT ( ) SI_UNIT ( $, .RADIAN. ) );
#322 = CYLINDRICAL_SURFACE ( 'NONE', #123, 4.999999999999995559 ) ;
#323 = ADVANCED_FACE ( 'NONE', ( #355 ), #322, .T. ) ;
#324 = DIRECTION ( 'NONE',  ( -9.135657442593541248E-17, 1.000000000000000000, -0.000000000000000000 ) ) ;
#325 = PRODUCT_DEFINITION_CONTEXT ( 'detailed design', #107, 'design' ) ;
#326 = MECHANICAL_DESIGN_GEOMETRIC_PRESENTATION_REPRESENTATION (  '', ( #252 ), #267 ) ;
#327 = CIRCLE ( 'NONE', #304, 5.000000000000000000 ) ;
#328 = DIRECTION ( 'NONE',  ( 1.000000000000000000, 0.000000000000000000, 0.000000000000000000 ) ) ;
#329 =( LENGTH_UNIT ( ) NAMED_UNIT ( * ) SI_UNIT ( .MILLI., .METRE. ) );
#330 = CARTESIAN_POINT ( 'NONE',  ( 1.469576158976823750E-15, 63.00000000000000000, 0.000000000000000000 ) ) ;
#331 = CARTESIAN_POINT ( 'NONE',  ( 6.123233995736766282E-16, 0.5000000000000000000, 5.000000000000000000 ) ) ;
#332 = VERTEX_POINT ( 'NONE', #331 ) ;
#333 = FACE_OUTER_BOUND ( 'NONE', #140, .T. ) ;
#334 = DIRECTION ( 'NONE',  ( 0.000000000000000000, 0.000000000000000000, -1.000000000000000000 ) ) ;
#335 = AXIS2_PLACEMENT_3D ( 'NONE', #256, #346, #76 ) ;
#336 = EDGE_CURVE ( 'NONE', #83, #229, #327, .T. ) ;
#337 = CIRCLE ( 'NONE', #165, 5.000000000000000000 ) ;
#338 = DIRECTION ( 'NONE',  ( -0.000000000000000000, -1.000000000000000000, -0.000000000000000000 ) ) ;
#339 = PRESENTATION_STYLE_ASSIGNMENT (( #248 ) ) ;
#340 = CIRCLE ( 'NONE', #335, 0.4999999999999995559 ) ;
#341 =( LENGTH_UNIT ( ) NAMED_UNIT ( * ) SI_UNIT ( .MILLI., .METRE. ) );
#342 = UNCERTAINTY_MEASURE_WITH_UNIT (LENGTH_MEASURE( 1.000000000000000082E-05 ), #1, 'distance_accuracy_value', 'NONE');
#343 = DIRECTION ( 'NONE',  ( -1.000000000000000000, 0.000000000000000000, 0.000000000000000000 ) ) ;
#344 = ORIENTED_EDGE ( 'NONE', *, *, #18, .T. ) ;
#345 = CARTESIAN_POINT ( 'NONE',  ( 0.000000000000000000, 0.000000000000000000, -4.500000000000000888 ) ) ;
#346 = DIRECTION ( 'NONE',  ( 1.000000000000000000, 0.000000000000000000, -1.224646799147353207E-16 ) ) ;
#347 = STYLED_ITEM ( 'NONE', ( #17 ), #285 ) ;
#348 = FACE_OUTER_BOUND ( 'NONE', #180, .T. ) ;
#349 = ORIENTED_EDGE ( 'NONE', *, *, #316, .F. ) ;
#350 = ADVANCED_FACE ( 'NONE', ( #65 ), #241, .T. ) ;
#351 = DIRECTION ( 'NONE',  ( 0.000000000000000000, -1.000000000000000000, -0.000000000000000000 ) ) ;
#352 = CARTESIAN_POINT ( 'NONE',  ( 0.000000000000000000, 0.5000000000000000000, 0.000000000000000000 ) ) ;
#353 = SURFACE_SIDE_STYLE ('',( #113 ) ) ;
#354 = ORIENTED_EDGE ( 'NONE', *, *, #316, .T. ) ;
#355 = FACE_OUTER_BOUND ( 'NONE', #212, .T. ) ;
#356 = PRESENTATION_LAYER_ASSIGNMENT (  '', '', ( #347 ) ) ;
#357 =( NAMED_UNIT ( * ) SI_UNIT ( $, .STERADIAN. ) SOLID_ANGLE_UNIT ( ) );
#358 = DIRECTION ( 'NONE',  ( -9.135657442593541248E-17, 1.000000000000000000, -0.000000000000000000 ) ) ;
#359 = DIRECTION ( 'NONE',  ( 0.000000000000000000, 0.000000000000000000, -1.000000000000000000 ) ) ;
#360 = ORIENTED_EDGE ( 'NONE', *, *, #96, .F. ) ;
#361 = PRESENTATION_STYLE_ASSIGNMENT (( #181 ) ) ;
#362 = FACE_OUTER_BOUND ( 'NONE', #257, .T. ) ;
#363 = LINE ( 'NONE', #92, #195 ) ;
#364 = MECHANICAL_DESIGN_GEOMETRIC_PRESENTATION_REPRESENTATION (  '', ( #111 ), #319 ) ;
#365 = AXIS2_PLACEMENT_3D ( 'NONE', #172, #63, #39 ) ;
#366 = DIRECTION ( 'NONE',  ( -9.135657442593541248E-17, 1.000000000000000000, -0.000000000000000000 ) ) ;
#367 = EDGE_CURVE ( 'NONE', #229, #83, #337, .T. ) ;
#368 = SURFACE_SIDE_STYLE ('',( #138 ) ) ;
#369 = CIRCLE ( 'NONE', #134, 4.999999999999998224 ) ;
#370 =( NAMED_UNIT ( * ) PLANE_ANGLE_UNIT ( ) SI_UNIT ( $, .RADIAN. ) );
ENDSEC;
END-ISO-10303-21;
