ISO-10303-21;
HEADER;
FILE_DESCRIPTION (( 'STEP AP214' ),
    '1' );
FILE_NAME ('49286.STEP',
    '2023-06-30T22:00:02',
    ( '' ),
    ( '' ),
    'SwSTEP 2.0',
    'SolidWorks 2023',
    '' );
FILE_SCHEMA (( 'AUTOMOTIVE_DESIGN' ));
ENDSEC;

DATA;
#1 =( GEOMETRIC_REPRESENTATION_CONTEXT ( 3 ) GLOBAL_UNCERTAINTY_ASSIGNED_CONTEXT ( ( #187 ) ) GLOBAL_UNIT_ASSIGNED_CONTEXT ( ( #179, #25, #373 ) ) REPRESENTATION_CONTEXT ( 'NONE', 'WORKASPACE' ) );
#2 = CIRCLE ( 'NONE', #82, 0.2499999999999996114 ) ;
#3 = APPLICATION_CONTEXT ( 'automotive_design' ) ;
#4 = CARTESIAN_POINT ( 'NONE',  ( 0.000000000000000000, 0.2500000000000000555, 0.000000000000000000 ) ) ;
#5 =( NAMED_UNIT ( * ) PLANE_ANGLE_UNIT ( ) SI_UNIT ( $, .RADIAN. ) );
#6 = ORIENTED_EDGE ( 'NONE', *, *, #91, .T. ) ;
#7 = ORIENTED_EDGE ( 'NONE', *, *, #294, .F. ) ;
#8 = ORIENTED_EDGE ( 'NONE', *, *, #184, .T. ) ;
#9 = PRODUCT_DEFINITION_FORMATION_WITH_SPECIFIED_SOURCE ( 'ANY', '', #299, .NOT_KNOWN. ) ;
#10 = MANIFOLD_SOLID_BREP ( 'Revolve - Tool Body (Straight Shanked)', #329 ) ;
#11 = DIMENSIONAL_EXPONENTS ( 1.000000000000000000, 0.000000000000000000, 0.000000000000000000, 0.000000000000000000, 0.000000000000000000, 0.000000000000000000, 0.000000000000000000 ) ;
#12 = CIRCLE ( 'NONE', #28, 0.2500000000000000000 ) ;
#13 = DIRECTION ( 'NONE',  ( 0.000000000000000000, 0.000000000000000000, -1.000000000000000000 ) ) ;
#14 = CARTESIAN_POINT ( 'NONE',  ( -6.123233995736772199E-17, 3.000000000000000444, 0.000000000000000000 ) ) ;
#15 = CARTESIAN_POINT ( 'NONE',  ( 0.2500000000000000000, 0.2500000000000000555, 0.000000000000000000 ) ) ;
#16 =( GEOMETRIC_REPRESENTATION_CONTEXT ( 3 ) GLOBAL_UNCERTAINTY_ASSIGNED_CONTEXT ( ( #306 ) ) GLOBAL_UNIT_ASSIGNED_CONTEXT ( ( #150, #233, #287 ) ) REPRESENTATION_CONTEXT ( 'NONE', 'WORKASPACE' ) );
#17 = DIRECTION ( 'NONE',  ( -1.574545884618025728E-16, 1.000000000000000000, -0.000000000000000000 ) ) ;
#18 = DIRECTION ( 'NONE',  ( -1.000000000000000000, 0.000000000000000000, 0.000000000000000000 ) ) ;
#19 = MANIFOLD_SOLID_BREP ( 'Revolve - Cutting Edge', #167 ) ;
#20 = FACE_OUTER_BOUND ( 'NONE', #265, .T. ) ;
#21 = SURFACE_STYLE_USAGE ( .BOTH. , #83 ) ;
#22 = FILL_AREA_STYLE_COLOUR ( '', #273 ) ;
#23 = ADVANCED_FACE ( 'NONE', ( #20 ), #280, .F. ) ;
#24 = ORIENTED_EDGE ( 'NONE', *, *, #239, .T. ) ;
#25 =( NAMED_UNIT ( * ) PLANE_ANGLE_UNIT ( ) SI_UNIT ( $, .RADIAN. ) );
#26 = LINE ( 'NONE', #71, #317 ) ;
#27 =( NAMED_UNIT ( * ) PLANE_ANGLE_UNIT ( ) SI_UNIT ( $, .RADIAN. ) );
#28 = AXIS2_PLACEMENT_3D ( 'NONE', #4, #65, #349 ) ;
#29 = COLOUR_RGB ( '',1.000000000000000000, 0.000000000000000000, 0.000000000000000000 ) ;
#30 = ORIENTED_EDGE ( 'NONE', *, *, #272, .F. ) ;
#31 = PRESENTATION_STYLE_ASSIGNMENT (( #283 ) ) ;
#32 = LENGTH_MEASURE_WITH_UNIT ( LENGTH_MEASURE( 0.02539999999999999897 ), #58 );
#33 = CARTESIAN_POINT ( 'NONE',  ( 0.000000000000000000, 0.000000000000000000, 0.000000000000000000 ) ) ;
#34 =( CONVERSION_BASED_UNIT ( 'INCH', #53 ) LENGTH_UNIT ( ) NAMED_UNIT ( #249 ) );
#35 =( LENGTH_UNIT ( ) NAMED_UNIT ( * ) SI_UNIT ( $, .METRE. ) );
#36 = STYLED_ITEM ( 'NONE', ( #316 ), #297 ) ;
#37 = VERTEX_POINT ( 'NONE', #200 ) ;
#38 = APPLICATION_CONTEXT ( 'automotive_design' ) ;
#39 = SURFACE_STYLE_FILL_AREA ( #116 ) ;
#40 = EDGE_LOOP ( 'NONE', ( #7, #284, #131, #128 ) ) ;
#41 = DIRECTION ( 'NONE',  ( 1.000000000000000000, 0.000000000000000000, 0.000000000000000000 ) ) ;
#42 = AXIS2_PLACEMENT_3D ( 'NONE', #33, #151, #262 ) ;
#43 = EDGE_LOOP ( 'NONE', ( #223, #192, #158, #244, #261 ) ) ;
#44 = AXIS2_PLACEMENT_3D ( 'NONE', #169, #221, #13 ) ;
#45 = PRESENTATION_LAYER_ASSIGNMENT (  '', '', ( #209 ) ) ;
#46 = CARTESIAN_POINT ( 'NONE',  ( 0.000000000000000000, 0.2500000000000000555, 0.000000000000000000 ) ) ;
#47 = CARTESIAN_POINT ( 'NONE',  ( 0.2499999999999998612, 1.250000000000000000, 3.061616997868381169E-17 ) ) ;
#48 = COLOUR_RGB ( '',0.7921568627450980005, 0.8196078431372548767, 0.9333333333333333481 ) ;
#49 = EDGE_CURVE ( 'NONE', #190, #66, #26, .T. ) ;
#50 = CARTESIAN_POINT ( 'NONE',  ( 0.000000000000000000, 0.000000000000000000, -0.2499999999999999167 ) ) ;
#51 = PRESENTATION_STYLE_ASSIGNMENT (( #235 ) ) ;
#52 = LENGTH_MEASURE_WITH_UNIT ( LENGTH_MEASURE( 0.02539999999999999897 ), #370 );
#53 = LENGTH_MEASURE_WITH_UNIT ( LENGTH_MEASURE( 0.02539999999999999897 ), #230 );
#54 = DIRECTION ( 'NONE',  ( -1.000000000000000000, -1.574545884618025728E-16, 0.000000000000000000 ) ) ;
#55 = AXIS2_PLACEMENT_3D ( 'NONE', #347, #328, #73 ) ;
#56 = FACE_OUTER_BOUND ( 'NONE', #327, .T. ) ;
#57 = SURFACE_SIDE_STYLE ('',( #95 ) ) ;
#58 =( LENGTH_UNIT ( ) NAMED_UNIT ( * ) SI_UNIT ( $, .METRE. ) );
#59 = CARTESIAN_POINT ( 'NONE',  ( -1.530808498934191509E-17, 0.000000000000000000, 0.000000000000000000 ) ) ;
#60 = FILL_AREA_STYLE_COLOUR ( '', #205 ) ;
#61 = ORIENTED_EDGE ( 'NONE', *, *, #337, .T. ) ;
#62 = AXIS2_PLACEMENT_3D ( 'NONE', #335, #137, #222 ) ;
#63 = EDGE_CURVE ( 'NONE', #238, #186, #295, .T. ) ;
#64 = AXIS2_PLACEMENT_3D ( 'NONE', #351, #277, #305 ) ;
#65 = DIRECTION ( 'NONE',  ( -0.000000000000000000, -1.000000000000000000, -0.000000000000000000 ) ) ;
#66 = VERTEX_POINT ( 'NONE', #124 ) ;
#67 = ORIENTED_EDGE ( 'NONE', *, *, #141, .T. ) ;
#68 = DIRECTION ( 'NONE',  ( 0.000000000000000000, 0.000000000000000000, 1.000000000000000000 ) ) ;
#69 = AXIS2_PLACEMENT_3D ( 'NONE', #264, #96, #232 ) ;
#70 = AXIS2_PLACEMENT_3D ( 'NONE', #229, #142, #286 ) ;
#71 = CARTESIAN_POINT ( 'NONE',  ( 3.061616997868382402E-17, 0.000000000000000000, 0.2499999999999999167 ) ) ;
#72 = DIRECTION ( 'NONE',  ( -1.574545884618025728E-16, 1.000000000000000000, -0.000000000000000000 ) ) ;
#73 = DIRECTION ( 'NONE',  ( 0.000000000000000000, -0.000000000000000000, 1.000000000000000000 ) ) ;
#74 =( NAMED_UNIT ( * ) SI_UNIT ( $, .STERADIAN. ) SOLID_ANGLE_UNIT ( ) );
#75 = CARTESIAN_POINT ( 'NONE',  ( 3.061616997868381785E-17, 1.250000000000000000, 0.2499999999999998335 ) ) ;
#76 = AXIS2_PLACEMENT_3D ( 'NONE', #302, #72, #166 ) ;
#77 = DIRECTION ( 'NONE',  ( -1.000000000000000000, 0.000000000000000000, 0.000000000000000000 ) ) ;
#78 = DIMENSIONAL_EXPONENTS ( 1.000000000000000000, 0.000000000000000000, 0.000000000000000000, 0.000000000000000000, 0.000000000000000000, 0.000000000000000000, 0.000000000000000000 ) ;
#79 = DIRECTION ( 'NONE',  ( -1.574545884618025728E-16, 1.000000000000000000, -0.000000000000000000 ) ) ;
#80 = CARTESIAN_POINT ( 'NONE',  ( 0.000000000000000000, 1.250000000000000000, 0.000000000000000000 ) ) ;
#81 = ADVANCED_BREP_SHAPE_REPRESENTATION ( '49286', ( #19, #10, #178 ), #154 ) ;
#82 = AXIS2_PLACEMENT_3D ( 'NONE', #85, #17, #358 ) ;
#83 = SURFACE_SIDE_STYLE ('',( #224 ) ) ;
#84 = PRODUCT_RELATED_PRODUCT_CATEGORY ( 'part', '', ( #299 ) ) ;
#85 = CARTESIAN_POINT ( 'NONE',  ( 2.143131898507868297E-16, 1.250000000000000000, 0.000000000000000000 ) ) ;
#86 = DIRECTION ( 'NONE',  ( 1.000000000000000000, 1.574545884618025728E-16, 0.000000000000000000 ) ) ;
#87 = CARTESIAN_POINT ( 'NONE',  ( 0.2499999999999998890, 3.000000000000000444, 0.000000000000000000 ) ) ;
#88 = DIRECTION ( 'NONE',  ( -1.574545884618025728E-16, 1.000000000000000000, 0.000000000000000000 ) ) ;
#89 = VERTEX_POINT ( 'NONE', #59 ) ;
#90 = SURFACE_STYLE_FILL_AREA ( #258 ) ;
#91 = EDGE_CURVE ( 'NONE', #240, #66, #12, .T. ) ;
#92 = CYLINDRICAL_SURFACE ( 'NONE', #42, 0.2499999999999999167 ) ;
#93 = PRESENTATION_STYLE_ASSIGNMENT (( #144 ) ) ;
#94 =( NAMED_UNIT ( * ) SI_UNIT ( $, .STERADIAN. ) SOLID_ANGLE_UNIT ( ) );
#95 = SURFACE_STYLE_FILL_AREA ( #203 ) ;
#96 = DIRECTION ( 'NONE',  ( 1.224646799147353207E-16, -0.000000000000000000, 1.000000000000000000 ) ) ;
#97 = ORIENTED_EDGE ( 'NONE', *, *, #294, .T. ) ;
#98 =( GEOMETRIC_REPRESENTATION_CONTEXT ( 3 ) GLOBAL_UNCERTAINTY_ASSIGNED_CONTEXT ( ( #359 ) ) GLOBAL_UNIT_ASSIGNED_CONTEXT ( ( #285, #27, #259 ) ) REPRESENTATION_CONTEXT ( 'NONE', 'WORKASPACE' ) );
#99 = EDGE_CURVE ( 'NONE', #325, #89, #118, .T. ) ;
#100 = APPLICATION_PROTOCOL_DEFINITION ( 'draft international standard', 'automotive_design', 1998, #38 ) ;
#101 = DIMENSIONAL_EXPONENTS ( 1.000000000000000000, 0.000000000000000000, 0.000000000000000000, 0.000000000000000000, 0.000000000000000000, 0.000000000000000000, 0.000000000000000000 ) ;
#102 = MECHANICAL_DESIGN_GEOMETRIC_PRESENTATION_REPRESENTATION (  '', ( #160 ), #1 ) ;
#103 = CIRCLE ( 'NONE', #353, 0.2500000000000000000 ) ;
#104 = ADVANCED_FACE ( 'NONE', ( #180 ), #231, .F. ) ;
#105 = DIRECTION ( 'NONE',  ( -1.574545884618025728E-16, 1.000000000000000000, -0.000000000000000000 ) ) ;
#106 = CARTESIAN_POINT ( 'NONE',  ( 2.143131898507868297E-16, 1.250000000000000000, 0.000000000000000000 ) ) ;
#107 = DIRECTION ( 'NONE',  ( 0.000000000000000000, 0.000000000000000000, -1.000000000000000000 ) ) ;
#108 = UNCERTAINTY_MEASURE_WITH_UNIT (LENGTH_MEASURE( 1.000000000000000082E-05 ), #133, 'distance_accuracy_value', 'NONE');
#109 = DIRECTION ( 'NONE',  ( 0.000000000000000000, 0.000000000000000000, -1.000000000000000000 ) ) ;
#110 = PRESENTATION_STYLE_ASSIGNMENT (( #279 ) ) ;
#111 = FILL_AREA_STYLE ('',( #181 ) ) ;
#112 = CYLINDRICAL_SURFACE ( 'NONE', #242, 0.2499999999999998057 ) ;
#113 = COLOUR_RGB ( '',1.000000000000000000, 0.000000000000000000, 0.000000000000000000 ) ;
#114 = SURFACE_SIDE_STYLE ('',( #366 ) ) ;
#115 = DIRECTION ( 'NONE',  ( -0.000000000000000000, -1.000000000000000000, -0.000000000000000000 ) ) ;
#116 = FILL_AREA_STYLE ('',( #189 ) ) ;
#117 = PRESENTATION_STYLE_ASSIGNMENT (( #21 ) ) ;
#118 = CIRCLE ( 'NONE', #69, 0.2500000000000000000 ) ;
#119 = MECHANICAL_DESIGN_GEOMETRIC_PRESENTATION_REPRESENTATION (  '', ( #340 ), #188 ) ;
#120 =( NAMED_UNIT ( * ) PLANE_ANGLE_UNIT ( ) SI_UNIT ( $, .RADIAN. ) );
#121 = FILL_AREA_STYLE_COLOUR ( '', #113 ) ;
#122 = EDGE_LOOP ( 'NONE', ( #61, #97, #30, #156 ) ) ;
#123 = CARTESIAN_POINT ( 'NONE',  ( 0.000000000000000000, 0.000000000000000000, 0.000000000000000000 ) ) ;
#124 = CARTESIAN_POINT ( 'NONE',  ( 3.061616997868383018E-17, 0.2500000000000000555, 0.2500000000000000000 ) ) ;
#125 = ORIENTED_EDGE ( 'NONE', *, *, #172, .F. ) ;
#126 =( NAMED_UNIT ( * ) PLANE_ANGLE_UNIT ( ) SI_UNIT ( $, .RADIAN. ) );
#127 =( NAMED_UNIT ( * ) SI_UNIT ( $, .STERADIAN. ) SOLID_ANGLE_UNIT ( ) );
#128 = ORIENTED_EDGE ( 'NONE', *, *, #184, .F. ) ;
#129 = LENGTH_MEASURE_WITH_UNIT ( LENGTH_MEASURE( 0.02539999999999999897 ), #326 );
#130 =( GEOMETRIC_REPRESENTATION_CONTEXT ( 3 ) GLOBAL_UNCERTAINTY_ASSIGNED_CONTEXT ( ( #220 ) ) GLOBAL_UNIT_ASSIGNED_CONTEXT ( ( #34, #120, #127 ) ) REPRESENTATION_CONTEXT ( 'NONE', 'WORKASPACE' ) );
#131 = ORIENTED_EDGE ( 'NONE', *, *, #63, .T. ) ;
#132 = ADVANCED_FACE ( 'NONE', ( #201 ), #267, .T. ) ;
#133 =( CONVERSION_BASED_UNIT ( 'INCH', #129 ) LENGTH_UNIT ( ) NAMED_UNIT ( #78 ) );
#134 =( NAMED_UNIT ( * ) SI_UNIT ( $, .STERADIAN. ) SOLID_ANGLE_UNIT ( ) );
#135 = FACE_OUTER_BOUND ( 'NONE', #43, .T. ) ;
#136 = CYLINDRICAL_SURFACE ( 'NONE', #357, 0.2499999999999999167 ) ;
#137 = DIRECTION ( 'NONE',  ( -0.000000000000000000, -1.000000000000000000, -0.000000000000000000 ) ) ;
#138 = DIMENSIONAL_EXPONENTS ( 1.000000000000000000, 0.000000000000000000, 0.000000000000000000, 0.000000000000000000, 0.000000000000000000, 0.000000000000000000, 0.000000000000000000 ) ;
#139 = MECHANICAL_DESIGN_GEOMETRIC_PRESENTATION_REPRESENTATION (  '', ( #362 ), #130 ) ;
#140 = DIRECTION ( 'NONE',  ( -0.000000000000000000, -1.000000000000000000, -0.000000000000000000 ) ) ;
#141 = EDGE_CURVE ( 'NONE', #240, #89, #226, .T. ) ;
#142 = DIRECTION ( 'NONE',  ( 0.000000000000000000, 0.000000000000000000, 1.000000000000000000 ) ) ;
#143 = FILL_AREA_STYLE ('',( #22 ) ) ;
#144 = SURFACE_STYLE_USAGE ( .BOTH. , #345 ) ;
#145 = DIRECTION ( 'NONE',  ( -0.000000000000000000, -1.000000000000000000, -0.000000000000000000 ) ) ;
#146 = CIRCLE ( 'NONE', #76, 0.2499999999999999722 ) ;
#147 = EDGE_CURVE ( 'NONE', #66, #325, #153, .T. ) ;
#148 = CIRCLE ( 'NONE', #165, 0.2499999999999996114 ) ;
#149 = VERTEX_POINT ( 'NONE', #310 ) ;
#150 =( CONVERSION_BASED_UNIT ( 'INCH', #344 ) LENGTH_UNIT ( ) NAMED_UNIT ( #298 ) );
#151 = DIRECTION ( 'NONE',  ( -0.000000000000000000, -1.000000000000000000, -0.000000000000000000 ) ) ;
#152 = EDGE_LOOP ( 'NONE', ( #324, #288, #312, #67 ) ) ;
#153 = CIRCLE ( 'NONE', #62, 0.2500000000000000000 ) ;
#154 =( GEOMETRIC_REPRESENTATION_CONTEXT ( 3 ) GLOBAL_UNCERTAINTY_ASSIGNED_CONTEXT ( ( #108 ) ) GLOBAL_UNIT_ASSIGNED_CONTEXT ( ( #133, #126, #241 ) ) REPRESENTATION_CONTEXT ( 'NONE', 'WORKASPACE' ) );
#155 =( CONVERSION_BASED_UNIT ( 'INCH', #32 ) LENGTH_UNIT ( ) NAMED_UNIT ( #11 ) );
#156 = ORIENTED_EDGE ( 'NONE', *, *, #63, .F. ) ;
#157 = CARTESIAN_POINT ( 'NONE',  ( -0.2499999999999998612, 3.000000000000000444, 0.000000000000000000 ) ) ;
#158 = ORIENTED_EDGE ( 'NONE', *, *, #91, .F. ) ;
#159 = PRODUCT_CONTEXT ( 'NONE', #3, 'mechanical' ) ;
#160 = STYLED_ITEM ( 'NONE', ( #51 ), #10 ) ;
#161 = VECTOR ( 'NONE', #174, 39.37007874015748143 ) ;
#162 = ORIENTED_EDGE ( 'NONE', *, *, #49, .F. ) ;
#163 = ADVANCED_FACE ( 'NONE', ( #296 ), #361, .T. ) ;
#164 = CIRCLE ( 'NONE', #300, 0.2499999999999999722 ) ;
#165 = AXIS2_PLACEMENT_3D ( 'NONE', #106, #217, #77 ) ;
#166 = DIRECTION ( 'NONE',  ( -1.000000000000000000, 0.000000000000000000, 0.000000000000000000 ) ) ;
#167 = CLOSED_SHELL ( 'NONE', ( #297, #332, #132, #369, #354 ) ) ;
#168 = DIMENSIONAL_EXPONENTS ( 1.000000000000000000, 0.000000000000000000, 0.000000000000000000, 0.000000000000000000, 0.000000000000000000, 0.000000000000000000, 0.000000000000000000 ) ;
#169 = CARTESIAN_POINT ( 'NONE',  ( 0.000000000000000000, 1.250000000000000000, 0.000000000000000000 ) ) ;
#170 = FACE_OUTER_BOUND ( 'NONE', #202, .T. ) ;
#171 = LENGTH_MEASURE_WITH_UNIT ( LENGTH_MEASURE( 0.02539999999999999897 ), #260 );
#172 = EDGE_CURVE ( 'NONE', #37, #190, #208, .T. ) ;
#173 =( LENGTH_UNIT ( ) NAMED_UNIT ( * ) SI_UNIT ( $, .METRE. ) );
#174 = DIRECTION ( 'NONE',  ( -1.574545884618025728E-16, 1.000000000000000000, -0.000000000000000000 ) ) ;
#175 = SURFACE_STYLE_USAGE ( .BOTH. , #315 ) ;
#176 = EDGE_LOOP ( 'NONE', ( #125, #352 ) ) ;
#177 = COLOUR_RGB ( '',1.000000000000000000, 0.000000000000000000, 0.000000000000000000 ) ;
#178 = AXIS2_PLACEMENT_3D ( 'NONE', #123, #68, #41 ) ;
#179 =( CONVERSION_BASED_UNIT ( 'INCH', #171 ) LENGTH_UNIT ( ) NAMED_UNIT ( #138 ) );
#180 = FACE_OUTER_BOUND ( 'NONE', #350, .T. ) ;
#181 = FILL_AREA_STYLE_COLOUR ( '', #243 ) ;
#182 = UNCERTAINTY_MEASURE_WITH_UNIT (LENGTH_MEASURE( 1.000000000000000082E-05 ), #155, 'distance_accuracy_value', 'NONE');
#183 = FILL_AREA_STYLE ('',( #60 ) ) ;
#184 = EDGE_CURVE ( 'NONE', #210, #186, #164, .T. ) ;
#185 = PRESENTATION_STYLE_ASSIGNMENT (( #175 ) ) ;
#186 = VERTEX_POINT ( 'NONE', #198 ) ;
#187 = UNCERTAINTY_MEASURE_WITH_UNIT (LENGTH_MEASURE( 1.000000000000000082E-05 ), #179, 'distance_accuracy_value', 'NONE');
#188 =( GEOMETRIC_REPRESENTATION_CONTEXT ( 3 ) GLOBAL_UNCERTAINTY_ASSIGNED_CONTEXT ( ( #263 ) ) GLOBAL_UNIT_ASSIGNED_CONTEXT ( ( #313, #234, #94 ) ) REPRESENTATION_CONTEXT ( 'NONE', 'WORKASPACE' ) );
#189 = FILL_AREA_STYLE_COLOUR ( '', #177 ) ;
#190 = VERTEX_POINT ( 'NONE', #75 ) ;
#191 = PRODUCT_DEFINITION ( 'UNKNOWN', '', #9, #250 ) ;
#192 = ORIENTED_EDGE ( 'NONE', *, *, #49, .T. ) ;
#193 = AXIS2_PLACEMENT_3D ( 'NONE', #87, #256, #86 ) ;
#194 = MECHANICAL_DESIGN_GEOMETRIC_PRESENTATION_REPRESENTATION (  '', ( #36 ), #252 ) ;
#195 =( NAMED_UNIT ( * ) PLANE_ANGLE_UNIT ( ) SI_UNIT ( $, .RADIAN. ) );
#196 = FACE_OUTER_BOUND ( 'NONE', #152, .T. ) ;
#197 = DIRECTION ( 'NONE',  ( -0.000000000000000000, -1.000000000000000000, -0.000000000000000000 ) ) ;
#198 = CARTESIAN_POINT ( 'NONE',  ( -0.2500000000000000555, 3.000000000000000444, 0.000000000000000000 ) ) ;
#199 = PRESENTATION_LAYER_ASSIGNMENT (  '', '', ( #36 ) ) ;
#200 = CARTESIAN_POINT ( 'NONE',  ( 0.000000000000000000, 1.250000000000000000, -0.2499999999999998335 ) ) ;
#201 = FACE_OUTER_BOUND ( 'NONE', #176, .T. ) ;
#202 = EDGE_LOOP ( 'NONE', ( #162, #24, #269, #268, #271 ) ) ;
#203 = FILL_AREA_STYLE ('',( #257 ) ) ;
#204 = SURFACE_SIDE_STYLE ('',( #90 ) ) ;
#205 = COLOUR_RGB ( '',1.000000000000000000, 0.000000000000000000, 0.000000000000000000 ) ;
#206 = SPHERICAL_SURFACE ( 'NONE', #70, 0.2500000000000000000 ) ;
#207 = ORIENTED_EDGE ( 'NONE', *, *, #99, .T. ) ;
#208 = CIRCLE ( 'NONE', #251, 0.2499999999999998335 ) ;
#209 = STYLED_ITEM ( 'NONE', ( #31 ), #369 ) ;
#210 = VERTEX_POINT ( 'NONE', #278 ) ;
#211 = ORIENTED_EDGE ( 'NONE', *, *, #314, .F. ) ;
#212 = MECHANICAL_DESIGN_GEOMETRIC_PRESENTATION_REPRESENTATION (  '', ( #346 ), #16 ) ;
#213 = MECHANICAL_DESIGN_GEOMETRIC_PRESENTATION_REPRESENTATION (  '', ( #245 ), #293 ) ;
#214 = DIMENSIONAL_EXPONENTS ( 1.000000000000000000, 0.000000000000000000, 0.000000000000000000, 0.000000000000000000, 0.000000000000000000, 0.000000000000000000, 0.000000000000000000 ) ;
#215 =( LENGTH_UNIT ( ) NAMED_UNIT ( * ) SI_UNIT ( $, .METRE. ) );
#216 = PRODUCT_DEFINITION_SHAPE ( 'NONE', 'NONE',  #191 ) ;
#217 = DIRECTION ( 'NONE',  ( -1.574545884618025728E-16, 1.000000000000000000, -0.000000000000000000 ) ) ;
#218 = AXIS2_PLACEMENT_3D ( 'NONE', #342, #88, #54 ) ;
#219 = PRESENTATION_LAYER_ASSIGNMENT (  '', '', ( #346 ) ) ;
#220 = UNCERTAINTY_MEASURE_WITH_UNIT (LENGTH_MEASURE( 1.000000000000000082E-05 ), #34, 'distance_accuracy_value', 'NONE');
#221 = DIRECTION ( 'NONE',  ( -0.000000000000000000, -1.000000000000000000, -0.000000000000000000 ) ) ;
#222 = DIRECTION ( 'NONE',  ( 0.000000000000000000, 0.000000000000000000, -1.000000000000000000 ) ) ;
#223 = ORIENTED_EDGE ( 'NONE', *, *, #172, .T. ) ;
#224 = SURFACE_STYLE_FILL_AREA ( #111 ) ;
#225 = CARTESIAN_POINT ( 'NONE',  ( -6.123233995736772199E-17, 3.000000000000000444, 0.000000000000000000 ) ) ;
#226 = CIRCLE ( 'NONE', #309, 0.2500000000000000000 ) ;
#227 = PRESENTATION_LAYER_ASSIGNMENT (  '', '', ( #340 ) ) ;
#228 = ORIENTED_EDGE ( 'NONE', *, *, #141, .F. ) ;
#229 = CARTESIAN_POINT ( 'NONE',  ( -3.061616997868383018E-17, 0.2500000000000000000, 0.000000000000000000 ) ) ;
#230 =( LENGTH_UNIT ( ) NAMED_UNIT ( * ) SI_UNIT ( $, .METRE. ) );
#231 = PLANE ( 'NONE',  #218 ) ;
#232 = DIRECTION ( 'NONE',  ( 1.000000000000000000, 0.000000000000000000, -1.224646799147353207E-16 ) ) ;
#233 =( NAMED_UNIT ( * ) PLANE_ANGLE_UNIT ( ) SI_UNIT ( $, .RADIAN. ) );
#234 =( NAMED_UNIT ( * ) PLANE_ANGLE_UNIT ( ) SI_UNIT ( $, .RADIAN. ) );
#235 = SURFACE_STYLE_USAGE ( .BOTH. , #57 ) ;
#236 = VERTEX_POINT ( 'NONE', #47 ) ;
#237 = SPHERICAL_SURFACE ( 'NONE', #64, 0.2500000000000000000 ) ;
#238 = VERTEX_POINT ( 'NONE', #368 ) ;
#239 = EDGE_CURVE ( 'NONE', #190, #37, #371, .T. ) ;
#240 = VERTEX_POINT ( 'NONE', #15 ) ;
#241 =( NAMED_UNIT ( * ) SI_UNIT ( $, .STERADIAN. ) SOLID_ANGLE_UNIT ( ) );
#242 = AXIS2_PLACEMENT_3D ( 'NONE', #225, #105, #18 ) ;
#243 = COLOUR_RGB ( '',1.000000000000000000, 0.000000000000000000, 0.000000000000000000 ) ;
#244 = ORIENTED_EDGE ( 'NONE', *, *, #364, .F. ) ;
#245 = STYLED_ITEM ( 'NONE', ( #110 ), #332 ) ;
#246 =( CONVERSION_BASED_UNIT ( 'INCH', #331 ) LENGTH_UNIT ( ) NAMED_UNIT ( #168 ) );
#247 = ADVANCED_FACE ( 'NONE', ( #281 ), #112, .T. ) ;
#248 = DIRECTION ( 'NONE',  ( -0.000000000000000000, -1.000000000000000000, -0.000000000000000000 ) ) ;
#249 = DIMENSIONAL_EXPONENTS ( 1.000000000000000000, 0.000000000000000000, 0.000000000000000000, 0.000000000000000000, 0.000000000000000000, 0.000000000000000000, 0.000000000000000000 ) ;
#250 = PRODUCT_DEFINITION_CONTEXT ( 'detailed design', #38, 'design' ) ;
#251 = AXIS2_PLACEMENT_3D ( 'NONE', #80, #140, #109 ) ;
#252 =( GEOMETRIC_REPRESENTATION_CONTEXT ( 3 ) GLOBAL_UNCERTAINTY_ASSIGNED_CONTEXT ( ( #182 ) ) GLOBAL_UNIT_ASSIGNED_CONTEXT ( ( #155, #5, #134 ) ) REPRESENTATION_CONTEXT ( 'NONE', 'WORKASPACE' ) );
#253 = FILL_AREA_STYLE ('',( #308 ) ) ;
#254 = CARTESIAN_POINT ( 'NONE',  ( 0.000000000000000000, 0.2500000000000000555, 0.000000000000000000 ) ) ;
#255 = CARTESIAN_POINT ( 'NONE',  ( -6.123233995736770966E-17, 3.000000000000000444, 0.000000000000000000 ) ) ;
#256 = DIRECTION ( 'NONE',  ( 1.574545884618025728E-16, -1.000000000000000000, 0.000000000000000000 ) ) ;
#257 = FILL_AREA_STYLE_COLOUR ( '', #48 ) ;
#258 = FILL_AREA_STYLE ('',( #121 ) ) ;
#259 =( NAMED_UNIT ( * ) SI_UNIT ( $, .STERADIAN. ) SOLID_ANGLE_UNIT ( ) );
#260 =( LENGTH_UNIT ( ) NAMED_UNIT ( * ) SI_UNIT ( $, .METRE. ) );
#261 = ORIENTED_EDGE ( 'NONE', *, *, #356, .F. ) ;
#262 = DIRECTION ( 'NONE',  ( 0.000000000000000000, 0.000000000000000000, -1.000000000000000000 ) ) ;
#263 = UNCERTAINTY_MEASURE_WITH_UNIT (LENGTH_MEASURE( 1.000000000000000082E-05 ), #313, 'distance_accuracy_value', 'NONE');
#264 = CARTESIAN_POINT ( 'NONE',  ( -3.061616997868383018E-17, 0.2500000000000000000, 0.000000000000000000 ) ) ;
#265 = EDGE_LOOP ( 'NONE', ( #322, #8 ) ) ;
#266 = MECHANICAL_DESIGN_GEOMETRIC_PRESENTATION_REPRESENTATION (  '', ( #209 ), #98 ) ;
#267 = PLANE ( 'NONE',  #55 ) ;
#268 = ORIENTED_EDGE ( 'NONE', *, *, #282, .F. ) ;
#269 = ORIENTED_EDGE ( 'NONE', *, *, #356, .T. ) ;
#270 = DIRECTION ( 'NONE',  ( 0.000000000000000000, 0.000000000000000000, -1.000000000000000000 ) ) ;
#271 = ORIENTED_EDGE ( 'NONE', *, *, #147, .F. ) ;
#272 = EDGE_CURVE ( 'NONE', #186, #210, #146, .T. ) ;
#273 = COLOUR_RGB ( '',0.7921568627450980005, 0.8196078431372548767, 0.9333333333333333481 ) ;
#274 = AXIS2_PLACEMENT_3D ( 'NONE', #46, #248, #107 ) ;
#275 = DIRECTION ( 'NONE',  ( -1.574545884618025728E-16, 1.000000000000000000, -0.000000000000000000 ) ) ;
#276 = SURFACE_STYLE_FILL_AREA ( #253 ) ;
#277 = DIRECTION ( 'NONE',  ( 0.000000000000000000, 0.000000000000000000, 1.000000000000000000 ) ) ;
#278 = CARTESIAN_POINT ( 'NONE',  ( 0.2499999999999998890, 3.000000000000000444, 3.061616997868381785E-17 ) ) ;
#279 = SURFACE_STYLE_USAGE ( .BOTH. , #365 ) ;
#280 = PLANE ( 'NONE',  #193 ) ;
#281 = FACE_OUTER_BOUND ( 'NONE', #122, .T. ) ;
#282 = EDGE_CURVE ( 'NONE', #325, #149, #301, .T. ) ;
#283 = SURFACE_STYLE_USAGE ( .BOTH. , #114 ) ;
#284 = ORIENTED_EDGE ( 'NONE', *, *, #314, .T. ) ;
#285 =( CONVERSION_BASED_UNIT ( 'INCH', #52 ) LENGTH_UNIT ( ) NAMED_UNIT ( #214 ) );
#286 = DIRECTION ( 'NONE',  ( 1.000000000000000000, 0.000000000000000000, 0.000000000000000000 ) ) ;
#287 =( NAMED_UNIT ( * ) SI_UNIT ( $, .STERADIAN. ) SOLID_ANGLE_UNIT ( ) );
#288 = ORIENTED_EDGE ( 'NONE', *, *, #282, .T. ) ;
#289 = ORIENTED_EDGE ( 'NONE', *, *, #337, .F. ) ;
#290 = CARTESIAN_POINT ( 'NONE',  ( -3.061616997868383018E-17, 0.2500000000000000000, 0.000000000000000000 ) ) ;
#291 = ORIENTED_EDGE ( 'NONE', *, *, #147, .T. ) ;
#292 = PRESENTATION_LAYER_ASSIGNMENT (  '', '', ( #362 ) ) ;
#293 =( GEOMETRIC_REPRESENTATION_CONTEXT ( 3 ) GLOBAL_UNCERTAINTY_ASSIGNED_CONTEXT ( ( #336 ) ) GLOBAL_UNIT_ASSIGNED_CONTEXT ( ( #246, #195, #74 ) ) REPRESENTATION_CONTEXT ( 'NONE', 'WORKASPACE' ) );
#294 = EDGE_CURVE ( 'NONE', #236, #210, #348, .T. ) ;
#295 = LINE ( 'NONE', #157, #333 ) ;
#296 = FACE_OUTER_BOUND ( 'NONE', #40, .T. ) ;
#297 = ADVANCED_FACE ( 'NONE', ( #56 ), #237, .T. ) ;
#298 = DIMENSIONAL_EXPONENTS ( 1.000000000000000000, 0.000000000000000000, 0.000000000000000000, 0.000000000000000000, 0.000000000000000000, 0.000000000000000000, 0.000000000000000000 ) ;
#299 = PRODUCT ( '49286', '49286', '', ( #159 ) ) ;
#300 = AXIS2_PLACEMENT_3D ( 'NONE', #255, #275, #304 ) ;
#301 = CIRCLE ( 'NONE', #274, 0.2500000000000000000 ) ;
#302 = CARTESIAN_POINT ( 'NONE',  ( -6.123233995736770966E-17, 3.000000000000000444, 0.000000000000000000 ) ) ;
#303 = LINE ( 'NONE', #50, #318 ) ;
#304 = DIRECTION ( 'NONE',  ( -1.000000000000000000, 0.000000000000000000, 0.000000000000000000 ) ) ;
#305 = DIRECTION ( 'NONE',  ( 1.000000000000000000, 0.000000000000000000, 0.000000000000000000 ) ) ;
#306 = UNCERTAINTY_MEASURE_WITH_UNIT (LENGTH_MEASURE( 1.000000000000000082E-05 ), #150, 'distance_accuracy_value', 'NONE');
#307 = DIRECTION ( 'NONE',  ( -1.000000000000000000, 0.000000000000000000, 0.000000000000000000 ) ) ;
#308 = FILL_AREA_STYLE_COLOUR ( '', #29 ) ;
#309 = AXIS2_PLACEMENT_3D ( 'NONE', #290, #270, #363 ) ;
#310 = CARTESIAN_POINT ( 'NONE',  ( 0.000000000000000000, 0.2500000000000000555, -0.2500000000000000000 ) ) ;
#311 = PRESENTATION_LAYER_ASSIGNMENT (  '', '', ( #245 ) ) ;
#312 = ORIENTED_EDGE ( 'NONE', *, *, #364, .T. ) ;
#313 =( CONVERSION_BASED_UNIT ( 'INCH', #320 ) LENGTH_UNIT ( ) NAMED_UNIT ( #101 ) );
#314 = EDGE_CURVE ( 'NONE', #236, #238, #2, .T. ) ;
#315 = SURFACE_SIDE_STYLE ('',( #39 ) ) ;
#316 = PRESENTATION_STYLE_ASSIGNMENT (( #321 ) ) ;
#317 = VECTOR ( 'NONE', #145, 39.37007874015748143 ) ;
#318 = VECTOR ( 'NONE', #341, 39.37007874015748143 ) ;
#319 = DIRECTION ( 'NONE',  ( 0.000000000000000000, 0.000000000000000000, -1.000000000000000000 ) ) ;
#320 = LENGTH_MEASURE_WITH_UNIT ( LENGTH_MEASURE( 0.02539999999999999897 ), #173 );
#321 = SURFACE_STYLE_USAGE ( .BOTH. , #204 ) ;
#322 = ORIENTED_EDGE ( 'NONE', *, *, #272, .T. ) ;
#323 = AXIS2_PLACEMENT_3D ( 'NONE', #14, #79, #307 ) ;
#324 = ORIENTED_EDGE ( 'NONE', *, *, #99, .F. ) ;
#325 = VERTEX_POINT ( 'NONE', #334 ) ;
#326 =( LENGTH_UNIT ( ) NAMED_UNIT ( * ) SI_UNIT ( $, .METRE. ) );
#327 = EDGE_LOOP ( 'NONE', ( #291, #207, #228, #6 ) ) ;
#328 = DIRECTION ( 'NONE',  ( 0.000000000000000000, 1.000000000000000000, 0.000000000000000000 ) ) ;
#329 = CLOSED_SHELL ( 'NONE', ( #247, #104, #163, #23 ) ) ;
#330 = APPLICATION_PROTOCOL_DEFINITION ( 'draft international standard', 'automotive_design', 1998, #3 ) ;
#331 = LENGTH_MEASURE_WITH_UNIT ( LENGTH_MEASURE( 0.02539999999999999897 ), #215 );
#332 = ADVANCED_FACE ( 'NONE', ( #135 ), #136, .T. ) ;
#333 = VECTOR ( 'NONE', #372, 39.37007874015748143 ) ;
#334 = CARTESIAN_POINT ( 'NONE',  ( -0.2500000000000000000, 0.2500000000000000555, 3.061616997868382402E-17 ) ) ;
#335 = CARTESIAN_POINT ( 'NONE',  ( 0.000000000000000000, 0.2500000000000000555, 0.000000000000000000 ) ) ;
#336 = UNCERTAINTY_MEASURE_WITH_UNIT (LENGTH_MEASURE( 1.000000000000000082E-05 ), #246, 'distance_accuracy_value', 'NONE');
#337 = EDGE_CURVE ( 'NONE', #238, #236, #148, .T. ) ;
#338 = CARTESIAN_POINT ( 'NONE',  ( 0.000000000000000000, 0.000000000000000000, 0.000000000000000000 ) ) ;
#339 = PRESENTATION_LAYER_ASSIGNMENT (  '', '', ( #160 ) ) ;
#340 = STYLED_ITEM ( 'NONE', ( #117 ), #354 ) ;
#341 = DIRECTION ( 'NONE',  ( -0.000000000000000000, -1.000000000000000000, -0.000000000000000000 ) ) ;
#342 = CARTESIAN_POINT ( 'NONE',  ( 2.143131898507868297E-16, 1.250000000000000000, 0.000000000000000000 ) ) ;
#343 = CARTESIAN_POINT ( 'NONE',  ( 0.2499999999999997224, 3.000000000000000444, 3.061616997868380553E-17 ) ) ;
#344 = LENGTH_MEASURE_WITH_UNIT ( LENGTH_MEASURE( 0.02539999999999999897 ), #35 );
#345 = SURFACE_SIDE_STYLE ('',( #367 ) ) ;
#346 = STYLED_ITEM ( 'NONE', ( #185 ), #132 ) ;
#347 = CARTESIAN_POINT ( 'NONE',  ( 0.000000000000000000, 1.250000000000000000, 0.000000000000000000 ) ) ;
#348 = LINE ( 'NONE', #343, #161 ) ;
#349 = DIRECTION ( 'NONE',  ( 0.000000000000000000, 0.000000000000000000, -1.000000000000000000 ) ) ;
#350 = EDGE_LOOP ( 'NONE', ( #289, #211 ) ) ;
#351 = CARTESIAN_POINT ( 'NONE',  ( -3.061616997868383018E-17, 0.2500000000000000000, 0.000000000000000000 ) ) ;
#352 = ORIENTED_EDGE ( 'NONE', *, *, #239, .F. ) ;
#353 = AXIS2_PLACEMENT_3D ( 'NONE', #254, #115, #319 ) ;
#354 = ADVANCED_FACE ( 'NONE', ( #196 ), #206, .T. ) ;
#355 = SHAPE_DEFINITION_REPRESENTATION ( #216, #81 ) ;
#356 = EDGE_CURVE ( 'NONE', #37, #149, #303, .T. ) ;
#357 = AXIS2_PLACEMENT_3D ( 'NONE', #338, #197, #360 ) ;
#358 = DIRECTION ( 'NONE',  ( -1.000000000000000000, 0.000000000000000000, 0.000000000000000000 ) ) ;
#359 = UNCERTAINTY_MEASURE_WITH_UNIT (LENGTH_MEASURE( 1.000000000000000082E-05 ), #285, 'distance_accuracy_value', 'NONE');
#360 = DIRECTION ( 'NONE',  ( 0.000000000000000000, 0.000000000000000000, -1.000000000000000000 ) ) ;
#361 = CYLINDRICAL_SURFACE ( 'NONE', #323, 0.2499999999999998057 ) ;
#362 = STYLED_ITEM ( 'NONE', ( #93 ), #19 ) ;
#363 = DIRECTION ( 'NONE',  ( -1.000000000000000000, 0.000000000000000000, 0.000000000000000000 ) ) ;
#364 = EDGE_CURVE ( 'NONE', #149, #240, #103, .T. ) ;
#365 = SURFACE_SIDE_STYLE ('',( #276 ) ) ;
#366 = SURFACE_STYLE_FILL_AREA ( #183 ) ;
#367 = SURFACE_STYLE_FILL_AREA ( #143 ) ;
#368 = CARTESIAN_POINT ( 'NONE',  ( -0.2499999999999994171, 1.250000000000000000, 0.000000000000000000 ) ) ;
#369 = ADVANCED_FACE ( 'NONE', ( #170 ), #92, .T. ) ;
#370 =( LENGTH_UNIT ( ) NAMED_UNIT ( * ) SI_UNIT ( $, .METRE. ) );
#371 = CIRCLE ( 'NONE', #44, 0.2499999999999998335 ) ;
#372 = DIRECTION ( 'NONE',  ( -1.574545884618025728E-16, 1.000000000000000000, -0.000000000000000000 ) ) ;
#373 =( NAMED_UNIT ( * ) SI_UNIT ( $, .STERADIAN. ) SOLID_ANGLE_UNIT ( ) );
ENDSEC;
END-ISO-10303-21;
