ISO-10303-21;
HEADER;
FILE_DESCRIPTION (( 'STEP AP214' ),
    '1' );
FILE_NAME ('Micro_AEMM-120-2.STEP',
    '2022-03-15T14:30:58',
    ( '' ),
    ( '' ),
    'SwSTEP 2.0',
    'SolidWorks 2022',
    '' );
FILE_SCHEMA (( 'AUTOMOTIVE_DESIGN' ));
ENDSEC;

DATA;
#1 = AXIS2_PLACEMENT_3D ( 'NONE', #155, #175, #57 ) ;
#2 = ORIENTED_EDGE ( 'NONE', *, *, #70, .T. ) ;
#3 = APPLICATION_PROTOCOL_DEFINITION ( 'draft international standard', 'automotive_design', 1998, #294 ) ;
#4 = FACE_OUTER_BOUND ( 'NONE', #213, .T. ) ;
#5 = DIRECTION ( 'NONE',  ( -1.000000000000000000, 0.000000000000000000, 0.000000000000000000 ) ) ;
#6 = ADVANCED_FACE ( 'NONE', ( #4 ), #199, .T. ) ;
#7 = CONICAL_SURFACE ( 'NONE', #100, 0.2212205000000019295, 0.7853981633974482790 ) ;
#8 =( LENGTH_UNIT ( ) NAMED_UNIT ( * ) SI_UNIT ( $, .METRE. ) );
#9 = EDGE_LOOP ( 'NONE', ( #284, #287, #297, #49 ) ) ;
#10 =( NAMED_UNIT ( * ) SI_UNIT ( $, .STERADIAN. ) SOLID_ANGLE_UNIT ( ) );
#11 = DIRECTION ( 'NONE',  ( -1.224646799147353454E-16, -0.000000000000000000, -1.000000000000000000 ) ) ;
#12 = EDGE_CURVE ( 'NONE', #68, #153, #227, .T. ) ;
#13 = FACE_OUTER_BOUND ( 'NONE', #93, .T. ) ;
#14 = AXIS2_PLACEMENT_3D ( 'NONE', #58, #222, #117 ) ;
#15 = LENGTH_MEASURE_WITH_UNIT ( LENGTH_MEASURE( 0.02539999999999999897 ), #64 );
#16 = CARTESIAN_POINT ( 'NONE',  ( 0.2212205000000019295, 2.709169772307794108E-17, 3.267717000000000649 ) ) ;
#17 = CARTESIAN_POINT ( 'NONE',  ( 0.2359842795000000049, 2.889973925387693713E-17, -2.889973925387694330E-17 ) ) ;
#18 = DIRECTION ( 'NONE',  ( -1.224646799147353454E-16, -0.000000000000000000, -1.000000000000000000 ) ) ;
#19 = EDGE_CURVE ( 'NONE', #170, #53, #28, .T. ) ;
#20 = CONICAL_SURFACE ( 'NONE', #225, 0.2359842795000000049, 0.1745329251994338915 ) ;
#21 = DIRECTION ( 'NONE',  ( -0.000000000000000000, -0.000000000000000000, -1.000000000000000000 ) ) ;
#22 = ORIENTED_EDGE ( 'NONE', *, *, #70, .F. ) ;
#23 = DIRECTION ( 'NONE',  ( -1.224646799147353454E-16, -0.000000000000000000, -1.000000000000000000 ) ) ;
#24 = CARTESIAN_POINT ( 'NONE',  ( 0.000000000000000000, 0.000000000000000000, 3.267717000000000649 ) ) ;
#25 = DIRECTION ( 'NONE',  ( -0.7071067811865474617, 0.000000000000000000, -0.7071067811865474617 ) ) ;
#26 = CARTESIAN_POINT ( 'NONE',  ( 0.2362204999999999999, 2.892866792179872647E-17, 3.267717000000000649 ) ) ;
#27 = EDGE_CURVE ( 'NONE', #193, #218, #145, .T. ) ;
#28 = LINE ( 'NONE', #134, #61 ) ;
#29 = CARTESIAN_POINT ( 'NONE',  ( -0.2212205000000019295, 0.000000000000000000, 3.267717000000000649 ) ) ;
#30 = AXIS2_PLACEMENT_3D ( 'NONE', #31, #84, #180 ) ;
#31 = CARTESIAN_POINT ( 'NONE',  ( 0.000000000000000000, 0.000000000000000000, 3.267717000000000649 ) ) ;
#32 = EDGE_CURVE ( 'NONE', #68, #231, #282, .T. ) ;
#33 = FACE_OUTER_BOUND ( 'NONE', #9, .T. ) ;
#34 = DIRECTION ( 'NONE',  ( 1.000000000000000000, 0.000000000000000000, -0.000000000000000000 ) ) ;
#35 = AXIS2_PLACEMENT_3D ( 'NONE', #249, #140, #36 ) ;
#36 = DIRECTION ( 'NONE',  ( -1.000000000000000000, 0.000000000000000000, 0.000000000000000000 ) ) ;
#37 = EDGE_CURVE ( 'NONE', #170, #176, #121, .T. ) ;
#38 = CARTESIAN_POINT ( 'NONE',  ( -0.2212205000000019295, 0.000000000000000000, 3.267717000000000649 ) ) ;
#39 = DIRECTION ( 'NONE',  ( 1.000000000000000000, 0.000000000000000000, 0.000000000000000000 ) ) ;
#40 = DIRECTION ( 'NONE',  ( 0.000000000000000000, 0.000000000000000000, -1.000000000000000000 ) ) ;
#41 = AXIS2_PLACEMENT_3D ( 'NONE', #46, #101, #77 ) ;
#42 = ADVANCED_FACE ( 'NONE', ( #80 ), #263, .T. ) ;
#43 = EDGE_LOOP ( 'NONE', ( #266, #174, #244, #241 ) ) ;
#44 = DIRECTION ( 'NONE',  ( -1.224646799147353454E-16, -0.000000000000000000, -1.000000000000000000 ) ) ;
#45 = CARTESIAN_POINT ( 'NONE',  ( -0.2359842794999998661, 2.891420358783783796E-17, 1.181102000000000096 ) ) ;
#46 = CARTESIAN_POINT ( 'NONE',  ( 1.446432783766537492E-16, 0.000000000000000000, 1.181102000000000096 ) ) ;
#47 = LINE ( 'NONE', #75, #267 ) ;
#48 = AXIS2_PLACEMENT_3D ( 'NONE', #102, #211, #278 ) ;
#49 = ORIENTED_EDGE ( 'NONE', *, *, #259, .T. ) ;
#50 = CARTESIAN_POINT ( 'NONE',  ( 1.448073410051043844E-16, 0.000000000000000000, 1.182441673027071039 ) ) ;
#51 = CARTESIAN_POINT ( 'NONE',  ( 0.000000000000000000, 0.000000000000000000, 3.267717000000000649 ) ) ;
#52 = SURFACE_SIDE_STYLE ('',( #173 ) ) ;
#53 = VERTEX_POINT ( 'NONE', #105 ) ;
#54 = PRODUCT_CONTEXT ( 'NONE', #294, 'mechanical' ) ;
#55 = ORIENTED_EDGE ( 'NONE', *, *, #12, .F. ) ;
#56 = VECTOR ( 'NONE', #92, 39.37007874015747433 ) ;
#57 = DIRECTION ( 'NONE',  ( 1.000000000000000000, 0.000000000000000000, 0.000000000000000000 ) ) ;
#58 = CARTESIAN_POINT ( 'NONE',  ( 0.000000000000000000, 0.000000000000000000, 3.267717000000000649 ) ) ;
#59 = EDGE_CURVE ( 'NONE', #176, #286, #60, .T. ) ;
#60 = LINE ( 'NONE', #115, #56 ) ;
#61 = VECTOR ( 'NONE', #103, 39.37007874015748143 ) ;
#62 = ADVANCED_FACE ( 'NONE', ( #33 ), #20, .T. ) ;
#63 = SURFACE_STYLE_FILL_AREA ( #292 ) ;
#64 =( LENGTH_UNIT ( ) NAMED_UNIT ( * ) SI_UNIT ( $, .METRE. ) );
#65 = PRODUCT_DEFINITION_SHAPE ( 'NONE', 'NONE',  #188 ) ;
#66 = VECTOR ( 'NONE', #25, 39.37007874015748854 ) ;
#67 = PRODUCT_DEFINITION_CONTEXT ( 'detailed design', #109, 'design' ) ;
#68 = VERTEX_POINT ( 'NONE', #38 ) ;
#69 = DIRECTION ( 'NONE',  ( -1.000000000000000000, 0.000000000000000000, 0.000000000000000000 ) ) ;
#70 = EDGE_CURVE ( 'NONE', #170, #193, #182, .T. ) ;
#71 = DIRECTION ( 'NONE',  ( -1.000000000000000000, 0.000000000000000000, 1.224646799147353454E-16 ) ) ;
#72 = CARTESIAN_POINT ( 'NONE',  ( 0.000000000000000000, 0.000000000000000000, 3.267717000000000649 ) ) ;
#73 =( NAMED_UNIT ( * ) SI_UNIT ( $, .STERADIAN. ) SOLID_ANGLE_UNIT ( ) );
#74 = CARTESIAN_POINT ( 'NONE',  ( 3.539197317345352573E-33, 0.000000000000000000, 2.889973925387694330E-17 ) ) ;
#75 = CARTESIAN_POINT ( 'NONE',  ( -0.2359842795000000049, 0.000000000000000000, 2.889973925387694330E-17 ) ) ;
#76 = MECHANICAL_DESIGN_GEOMETRIC_PRESENTATION_REPRESENTATION (  '', ( #298 ), #178 ) ;
#77 = DIRECTION ( 'NONE',  ( -1.000000000000000000, 0.000000000000000000, 0.000000000000000000 ) ) ;
#78 =( CONVERSION_BASED_UNIT ( 'INCH', #285 ) LENGTH_UNIT ( ) NAMED_UNIT ( #113 ) );
#79 = EDGE_CURVE ( 'NONE', #218, #193, #221, .T. ) ;
#80 = FACE_OUTER_BOUND ( 'NONE', #98, .T. ) ;
#81 = EDGE_CURVE ( 'NONE', #231, #286, #87, .T. ) ;
#82 = ORIENTED_EDGE ( 'NONE', *, *, #81, .F. ) ;
#83 =( NAMED_UNIT ( * ) PLANE_ANGLE_UNIT ( ) SI_UNIT ( $, .RADIAN. ) );
#84 = DIRECTION ( 'NONE',  ( 0.000000000000000000, 0.000000000000000000, 1.000000000000000000 ) ) ;
#85 = AXIS2_PLACEMENT_3D ( 'NONE', #158, #159, #34 ) ;
#86 = CYLINDRICAL_SURFACE ( 'NONE', #114, 0.2359842795000000049 ) ;
#87 = LINE ( 'NONE', #271, #248 ) ;
#88 = EDGE_CURVE ( 'NONE', #195, #231, #234, .T. ) ;
#89 = DIRECTION ( 'NONE',  ( -1.000000000000000000, 0.000000000000000000, 1.224646799147353454E-16 ) ) ;
#90 = CIRCLE ( 'NONE', #48, 0.2362204999999999999 ) ;
#91 = CIRCLE ( 'NONE', #252, 0.2359842795000000049 ) ;
#92 = DIRECTION ( 'NONE',  ( -0.1736481776669311916, 2.126576849575783316E-17, 0.9848077530122080203 ) ) ;
#93 = EDGE_LOOP ( 'NONE', ( #108, #149, #186, #82 ) ) ;
#94 = VECTOR ( 'NONE', #272, 39.37007874015748854 ) ;
#95 = MECHANICAL_DESIGN_GEOMETRIC_PRESENTATION_REPRESENTATION (  '', ( #293 ), #226 ) ;
#96 = ORIENTED_EDGE ( 'NONE', *, *, #81, .T. ) ;
#97 = ADVANCED_FACE ( 'NONE', ( #135 ), #200, .T. ) ;
#98 = EDGE_LOOP ( 'NONE', ( #111, #239, #96, #125 ) ) ;
#99 = FACE_OUTER_BOUND ( 'NONE', #280, .T. ) ;
#100 = AXIS2_PLACEMENT_3D ( 'NONE', #72, #187, #69 ) ;
#101 = DIRECTION ( 'NONE',  ( -1.224646799147353454E-16, -0.000000000000000000, -1.000000000000000000 ) ) ;
#102 = CARTESIAN_POINT ( 'NONE',  ( 1.448073410051043844E-16, 0.000000000000000000, 1.182441673027071039 ) ) ;
#103 = DIRECTION ( 'NONE',  ( 0.1736481776669313859, 0.000000000000000000, 0.9848077530122077983 ) ) ;
#104 = AXIS2_PLACEMENT_3D ( 'NONE', #183, #289, #39 ) ;
#105 = CARTESIAN_POINT ( 'NONE',  ( 0.2362205000000001665, 2.892866792179874496E-17, 1.182441673027071039 ) ) ;
#106 = ADVANCED_FACE ( 'NONE', ( #295 ), #86, .T. ) ;
#107 = PRESENTATION_STYLE_ASSIGNMENT (( #110 ) ) ;
#108 = ORIENTED_EDGE ( 'NONE', *, *, #268, .T. ) ;
#109 = APPLICATION_CONTEXT ( 'automotive_design' ) ;
#110 = SURFACE_STYLE_USAGE ( .BOTH. , #52 ) ;
#111 = ORIENTED_EDGE ( 'NONE', *, *, #283, .F. ) ;
#112 = CARTESIAN_POINT ( 'NONE',  ( 3.539197317345352573E-33, 0.000000000000000000, 2.889973925387694330E-17 ) ) ;
#113 = DIMENSIONAL_EXPONENTS ( 1.000000000000000000, 0.000000000000000000, 0.000000000000000000, 0.000000000000000000, 0.000000000000000000, 0.000000000000000000, 0.000000000000000000 ) ;
#114 = AXIS2_PLACEMENT_3D ( 'NONE', #220, #273, #89 ) ;
#115 = CARTESIAN_POINT ( 'NONE',  ( -0.2359842794999998661, 2.889973925387693713E-17, 1.181102000000000096 ) ) ;
#116 = EDGE_CURVE ( 'NONE', #153, #195, #138, .T. ) ;
#117 = DIRECTION ( 'NONE',  ( -1.000000000000000000, 0.000000000000000000, 0.000000000000000000 ) ) ;
#118 = DIRECTION ( 'NONE',  ( 1.000000000000000000, 0.000000000000000000, 0.000000000000000000 ) ) ;
#119 = AXIS2_PLACEMENT_3D ( 'NONE', #148, #40, #127 ) ;
#120 = ORIENTED_EDGE ( 'NONE', *, *, #264, .F. ) ;
#121 = CIRCLE ( 'NONE', #41, 0.2359842795000000049 ) ;
#122 = PLANE ( 'NONE',  #85 ) ;
#123 = PRESENTATION_LAYER_ASSIGNMENT (  '', '', ( #293 ) ) ;
#124 = CARTESIAN_POINT ( 'NONE',  ( 0.2359842795000000049, 2.889973925387693713E-17, 0.000000000000000000 ) ) ;
#125 = ORIENTED_EDGE ( 'NONE', *, *, #259, .F. ) ;
#126 = ORIENTED_EDGE ( 'NONE', *, *, #32, .F. ) ;
#127 = DIRECTION ( 'NONE',  ( 1.000000000000000000, 0.000000000000000000, 0.000000000000000000 ) ) ;
#128 = ORIENTED_EDGE ( 'NONE', *, *, #164, .T. ) ;
#129 = DIRECTION ( 'NONE',  ( -1.224646799147353454E-16, -0.000000000000000000, -1.000000000000000000 ) ) ;
#130 = ORIENTED_EDGE ( 'NONE', *, *, #264, .T. ) ;
#131 = DIMENSIONAL_EXPONENTS ( 1.000000000000000000, 0.000000000000000000, 0.000000000000000000, 0.000000000000000000, 0.000000000000000000, 0.000000000000000000, 0.000000000000000000 ) ;
#132 = EDGE_LOOP ( 'NONE', ( #22, #253, #154, #172 ) ) ;
#133 = ORIENTED_EDGE ( 'NONE', *, *, #79, .T. ) ;
#134 = CARTESIAN_POINT ( 'NONE',  ( 0.2359842795000001436, 0.000000000000000000, 1.181102000000000096 ) ) ;
#135 = FACE_OUTER_BOUND ( 'NONE', #274, .T. ) ;
#136 = CARTESIAN_POINT ( 'NONE',  ( 0.2212205000000019295, 2.801018282243833685E-17, 3.267717000000000649 ) ) ;
#137 = AXIS2_PLACEMENT_3D ( 'NONE', #24, #214, #237 ) ;
#138 = LINE ( 'NONE', #16, #94 ) ;
#139 = ADVANCED_FACE ( 'NONE', ( #203 ), #161, .T. ) ;
#140 = DIRECTION ( 'NONE',  ( 0.000000000000000000, 0.000000000000000000, -1.000000000000000000 ) ) ;
#141 = ADVANCED_FACE ( 'NONE', ( #13 ), #269, .T. ) ;
#142 = FACE_OUTER_BOUND ( 'NONE', #255, .T. ) ;
#143 = AXIS2_PLACEMENT_3D ( 'NONE', #152, #276, #71 ) ;
#144 = ORIENTED_EDGE ( 'NONE', *, *, #32, .T. ) ;
#145 = CIRCLE ( 'NONE', #189, 0.2359842795000000049 ) ;
#146 = FACE_OUTER_BOUND ( 'NONE', #219, .T. ) ;
#147 = ADVANCED_FACE ( 'NONE', ( #142 ), #122, .F. ) ;
#148 = CARTESIAN_POINT ( 'NONE',  ( 0.000000000000000000, 0.000000000000000000, 3.252717000000002301 ) ) ;
#149 = ORIENTED_EDGE ( 'NONE', *, *, #283, .T. ) ;
#150 = AXIS2_PLACEMENT_3D ( 'NONE', #181, #247, #118 ) ;
#151 = ORIENTED_EDGE ( 'NONE', *, *, #268, .F. ) ;
#152 = CARTESIAN_POINT ( 'NONE',  ( 0.000000000000000000, 0.000000000000000000, 0.000000000000000000 ) ) ;
#153 = VERTEX_POINT ( 'NONE', #136 ) ;
#154 = ORIENTED_EDGE ( 'NONE', *, *, #270, .T. ) ;
#155 = CARTESIAN_POINT ( 'NONE',  ( 0.000000000000000000, 0.000000000000000000, 0.000000000000000000 ) ) ;
#156 = VECTOR ( 'NONE', #21, 39.37007874015748143 ) ;
#157 = ORIENTED_EDGE ( 'NONE', *, *, #88, .F. ) ;
#158 = CARTESIAN_POINT ( 'NONE',  ( 0.000000000000000000, 0.000000000000000000, 0.000000000000000000 ) ) ;
#159 = DIRECTION ( 'NONE',  ( 0.000000000000000000, 0.000000000000000000, 1.000000000000000000 ) ) ;
#160 = DIRECTION ( 'NONE',  ( 1.224646799147353454E-16, 0.000000000000000000, 1.000000000000000000 ) ) ;
#161 = CONICAL_SURFACE ( 'NONE', #150, 0.2359842795000000049, 0.1745329251994338915 ) ;
#162 = MANIFOLD_SOLID_BREP ( 'Cut-Revolve1', #254 ) ;
#163 = DIRECTION ( 'NONE',  ( -0.000000000000000000, -0.000000000000000000, -1.000000000000000000 ) ) ;
#164 = EDGE_CURVE ( 'NONE', #176, #170, #91, .T. ) ;
#165 = FILL_AREA_STYLE_COLOUR ( '', #277 ) ;
#166 = CIRCLE ( 'NONE', #205, 0.2212205000000019295 ) ;
#167 = CARTESIAN_POINT ( 'NONE',  ( 0.000000000000000000, 0.000000000000000000, 3.267717000000000649 ) ) ;
#168 = CYLINDRICAL_SURFACE ( 'NONE', #143, 0.2359842795000000049 ) ;
#169 = ORIENTED_EDGE ( 'NONE', *, *, #270, .F. ) ;
#170 = VERTEX_POINT ( 'NONE', #232 ) ;
#171 = PRESENTATION_LAYER_ASSIGNMENT (  '', '', ( #298 ) ) ;
#172 = ORIENTED_EDGE ( 'NONE', *, *, #27, .F. ) ;
#173 = SURFACE_STYLE_FILL_AREA ( #216 ) ;
#174 = ORIENTED_EDGE ( 'NONE', *, *, #59, .T. ) ;
#175 = DIRECTION ( 'NONE',  ( 0.000000000000000000, 0.000000000000000000, 1.000000000000000000 ) ) ;
#176 = VERTEX_POINT ( 'NONE', #45 ) ;
#177 = ADVANCED_BREP_SHAPE_REPRESENTATION ( 'Micro_AEMM-120-2', ( #162, #1 ), #179 ) ;
#178 =( GEOMETRIC_REPRESENTATION_CONTEXT ( 3 ) GLOBAL_UNCERTAINTY_ASSIGNED_CONTEXT ( ( #296 ) ) GLOBAL_UNIT_ASSIGNED_CONTEXT ( ( #224, #245, #192 ) ) REPRESENTATION_CONTEXT ( 'NONE', 'WORKASPACE' ) );
#179 =( GEOMETRIC_REPRESENTATION_CONTEXT ( 3 ) GLOBAL_UNCERTAINTY_ASSIGNED_CONTEXT ( ( #209 ) ) GLOBAL_UNIT_ASSIGNED_CONTEXT ( ( #281, #230, #73 ) ) REPRESENTATION_CONTEXT ( 'NONE', 'WORKASPACE' ) );
#180 = DIRECTION ( 'NONE',  ( 1.000000000000000000, 0.000000000000000000, 0.000000000000000000 ) ) ;
#181 = CARTESIAN_POINT ( 'NONE',  ( 1.446432783766537492E-16, 0.000000000000000000, 1.181102000000000096 ) ) ;
#182 = LINE ( 'NONE', #17, #288 ) ;
#183 = CARTESIAN_POINT ( 'NONE',  ( 0.000000000000000000, 0.000000000000000000, 3.252717000000002301 ) ) ;
#184 = CIRCLE ( 'NONE', #256, 0.2362204999999999999 ) ;
#185 = UNCERTAINTY_MEASURE_WITH_UNIT (LENGTH_MEASURE( 1.000000000000000082E-05 ), #78, 'distance_accuracy_value', 'NONE');
#186 = ORIENTED_EDGE ( 'NONE', *, *, #240, .F. ) ;
#187 = DIRECTION ( 'NONE',  ( 0.000000000000000000, 0.000000000000000000, -1.000000000000000000 ) ) ;
#188 = PRODUCT_DEFINITION ( 'UNKNOWN', '', #228, #67 ) ;
#189 = AXIS2_PLACEMENT_3D ( 'NONE', #74, #11, #260 ) ;
#190 = DIRECTION ( 'NONE',  ( 0.000000000000000000, 0.000000000000000000, 1.000000000000000000 ) ) ;
#191 = DIMENSIONAL_EXPONENTS ( 1.000000000000000000, 0.000000000000000000, 0.000000000000000000, 0.000000000000000000, 0.000000000000000000, 0.000000000000000000, 0.000000000000000000 ) ;
#192 =( NAMED_UNIT ( * ) SI_UNIT ( $, .STERADIAN. ) SOLID_ANGLE_UNIT ( ) );
#193 = VERTEX_POINT ( 'NONE', #124 ) ;
#194 = CARTESIAN_POINT ( 'NONE',  ( -0.2362204999999998611, 0.000000000000000000, 1.182441673027071039 ) ) ;
#195 = VERTEX_POINT ( 'NONE', #275 ) ;
#196 = APPLICATION_PROTOCOL_DEFINITION ( 'draft international standard', 'automotive_design', 1998, #109 ) ;
#197 = ORIENTED_EDGE ( 'NONE', *, *, #12, .T. ) ;
#198 = ORIENTED_EDGE ( 'NONE', *, *, #116, .T. ) ;
#199 = PLANE ( 'NONE',  #137 ) ;
#200 = CONICAL_SURFACE ( 'NONE', #35, 0.2212205000000019295, 0.7853981633974482790 ) ;
#201 = DIRECTION ( 'NONE',  ( -1.000000000000000000, 0.000000000000000000, 1.224646799147353454E-16 ) ) ;
#202 = DIRECTION ( 'NONE',  ( 1.000000000000000000, 0.000000000000000000, 0.000000000000000000 ) ) ;
#203 = FACE_OUTER_BOUND ( 'NONE', #43, .T. ) ;
#204 = PRESENTATION_STYLE_ASSIGNMENT (( #223 ) ) ;
#205 = AXIS2_PLACEMENT_3D ( 'NONE', #167, #190, #257 ) ;
#206 = ORIENTED_EDGE ( 'NONE', *, *, #116, .F. ) ;
#207 = AXIS2_PLACEMENT_3D ( 'NONE', #112, #251, #201 ) ;
#208 = FILL_AREA_STYLE_COLOUR ( '', #261 ) ;
#209 = UNCERTAINTY_MEASURE_WITH_UNIT (LENGTH_MEASURE( 1.000000000000000082E-05 ), #281, 'distance_accuracy_value', 'NONE');
#210 = LENGTH_MEASURE_WITH_UNIT ( LENGTH_MEASURE( 0.02539999999999999897 ), #235 );
#211 = DIRECTION ( 'NONE',  ( -1.224646799147353454E-16, -0.000000000000000000, -1.000000000000000000 ) ) ;
#212 = LINE ( 'NONE', #26, #156 ) ;
#213 = EDGE_LOOP ( 'NONE', ( #197, #130 ) ) ;
#214 = DIRECTION ( 'NONE',  ( 0.000000000000000000, 0.000000000000000000, 1.000000000000000000 ) ) ;
#215 = DIRECTION ( 'NONE',  ( -0.000000000000000000, -0.000000000000000000, -1.000000000000000000 ) ) ;
#216 = FILL_AREA_STYLE ('',( #165 ) ) ;
#217 = AXIS2_PLACEMENT_3D ( 'NONE', #51, #215, #5 ) ;
#218 = VERTEX_POINT ( 'NONE', #229 ) ;
#219 = EDGE_LOOP ( 'NONE', ( #128, #2, #265, #169 ) ) ;
#220 = CARTESIAN_POINT ( 'NONE',  ( 0.000000000000000000, 0.000000000000000000, 0.000000000000000000 ) ) ;
#221 = CIRCLE ( 'NONE', #207, 0.2359842795000000049 ) ;
#222 = DIRECTION ( 'NONE',  ( -0.000000000000000000, -0.000000000000000000, -1.000000000000000000 ) ) ;
#223 = SURFACE_STYLE_USAGE ( .BOTH. , #250 ) ;
#224 =( CONVERSION_BASED_UNIT ( 'INCH', #15 ) LENGTH_UNIT ( ) NAMED_UNIT ( #131 ) );
#225 = AXIS2_PLACEMENT_3D ( 'NONE', #291, #160, #202 ) ;
#226 =( GEOMETRIC_REPRESENTATION_CONTEXT ( 3 ) GLOBAL_UNCERTAINTY_ASSIGNED_CONTEXT ( ( #185 ) ) GLOBAL_UNIT_ASSIGNED_CONTEXT ( ( #78, #83, #10 ) ) REPRESENTATION_CONTEXT ( 'NONE', 'WORKASPACE' ) );
#227 = CIRCLE ( 'NONE', #30, 0.2212205000000019295 ) ;
#228 = PRODUCT_DEFINITION_FORMATION_WITH_SPECIFIED_SOURCE ( 'ANY', '', #246, .NOT_KNOWN. ) ;
#229 = CARTESIAN_POINT ( 'NONE',  ( -0.2359842795000000049, 0.000000000000000000, 5.779947850775388659E-17 ) ) ;
#230 =( NAMED_UNIT ( * ) PLANE_ANGLE_UNIT ( ) SI_UNIT ( $, .RADIAN. ) );
#231 = VERTEX_POINT ( 'NONE', #262 ) ;
#232 = CARTESIAN_POINT ( 'NONE',  ( 0.2359842795000001436, 0.000000000000000000, 1.181102000000000096 ) ) ;
#233 = ORIENTED_EDGE ( 'NONE', *, *, #27, .T. ) ;
#234 = CIRCLE ( 'NONE', #104, 0.2362204999999999999 ) ;
#235 =( LENGTH_UNIT ( ) NAMED_UNIT ( * ) SI_UNIT ( $, .METRE. ) );
#236 = ADVANCED_FACE ( 'NONE', ( #99 ), #7, .T. ) ;
#237 = DIRECTION ( 'NONE',  ( 1.000000000000000000, 0.000000000000000000, -0.000000000000000000 ) ) ;
#238 = DIRECTION ( 'NONE',  ( -1.000000000000000000, 0.000000000000000000, 0.000000000000000000 ) ) ;
#239 = ORIENTED_EDGE ( 'NONE', *, *, #88, .T. ) ;
#240 = EDGE_CURVE ( 'NONE', #286, #53, #184, .T. ) ;
#241 = ORIENTED_EDGE ( 'NONE', *, *, #19, .F. ) ;
#242 = CIRCLE ( 'NONE', #119, 0.2362204999999999999 ) ;
#243 = SHAPE_DEFINITION_REPRESENTATION ( #65, #177 ) ;
#244 = ORIENTED_EDGE ( 'NONE', *, *, #240, .T. ) ;
#245 =( NAMED_UNIT ( * ) PLANE_ANGLE_UNIT ( ) SI_UNIT ( $, .RADIAN. ) );
#246 = PRODUCT ( 'Micro_AEMM-120-2', 'Micro_AEMM-120-2', '', ( #54 ) ) ;
#247 = DIRECTION ( 'NONE',  ( 1.224646799147353454E-16, 0.000000000000000000, 1.000000000000000000 ) ) ;
#248 = VECTOR ( 'NONE', #163, 39.37007874015748143 ) ;
#249 = CARTESIAN_POINT ( 'NONE',  ( 0.000000000000000000, 0.000000000000000000, 3.267717000000000649 ) ) ;
#250 = SURFACE_SIDE_STYLE ('',( #63 ) ) ;
#251 = DIRECTION ( 'NONE',  ( -1.224646799147353454E-16, -0.000000000000000000, -1.000000000000000000 ) ) ;
#252 = AXIS2_PLACEMENT_3D ( 'NONE', #299, #129, #238 ) ;
#253 = ORIENTED_EDGE ( 'NONE', *, *, #37, .T. ) ;
#254 = CLOSED_SHELL ( 'NONE', ( #279, #139, #236, #141, #42, #6, #97, #62, #106, #147 ) ) ;
#255 = EDGE_LOOP ( 'NONE', ( #133, #233 ) ) ;
#256 = AXIS2_PLACEMENT_3D ( 'NONE', #50, #23, #258 ) ;
#257 = DIRECTION ( 'NONE',  ( 1.000000000000000000, 0.000000000000000000, 0.000000000000000000 ) ) ;
#258 = DIRECTION ( 'NONE',  ( 1.000000000000000000, 0.000000000000000000, 0.000000000000000000 ) ) ;
#259 = EDGE_CURVE ( 'NONE', #53, #286, #90, .T. ) ;
#260 = DIRECTION ( 'NONE',  ( -1.000000000000000000, 0.000000000000000000, 1.224646799147353454E-16 ) ) ;
#261 = COLOUR_RGB ( '',0.7921568627450980005, 0.8196078431372548767, 0.9333333333333333481 ) ;
#262 = CARTESIAN_POINT ( 'NONE',  ( -0.2362204999999999999, 0.000000000000000000, 3.252717000000002301 ) ) ;
#263 = CYLINDRICAL_SURFACE ( 'NONE', #217, 0.2362204999999999999 ) ;
#264 = EDGE_CURVE ( 'NONE', #153, #68, #166, .T. ) ;
#265 = ORIENTED_EDGE ( 'NONE', *, *, #79, .F. ) ;
#266 = ORIENTED_EDGE ( 'NONE', *, *, #164, .F. ) ;
#267 = VECTOR ( 'NONE', #44, 39.37007874015748143 ) ;
#268 = EDGE_CURVE ( 'NONE', #231, #195, #242, .T. ) ;
#269 = CYLINDRICAL_SURFACE ( 'NONE', #14, 0.2362204999999999999 ) ;
#270 = EDGE_CURVE ( 'NONE', #176, #218, #47, .T. ) ;
#271 = CARTESIAN_POINT ( 'NONE',  ( -0.2362204999999999999, 0.000000000000000000, 3.267717000000000649 ) ) ;
#272 = DIRECTION ( 'NONE',  ( 0.7071067811865474617, 8.659560562354932858E-17, -0.7071067811865474617 ) ) ;
#273 = DIRECTION ( 'NONE',  ( -1.224646799147353454E-16, -0.000000000000000000, -1.000000000000000000 ) ) ;
#274 = EDGE_LOOP ( 'NONE', ( #206, #55, #144, #157 ) ) ;
#275 = CARTESIAN_POINT ( 'NONE',  ( 0.2362204999999999999, 2.892866792179872647E-17, 3.252717000000002301 ) ) ;
#276 = DIRECTION ( 'NONE',  ( -1.224646799147353454E-16, -0.000000000000000000, -1.000000000000000000 ) ) ;
#277 = COLOUR_RGB ( '',0.7921568627450980005, 0.8196078431372548767, 0.9333333333333333481 ) ;
#278 = DIRECTION ( 'NONE',  ( 1.000000000000000000, 0.000000000000000000, 0.000000000000000000 ) ) ;
#279 = ADVANCED_FACE ( 'NONE', ( #146 ), #168, .T. ) ;
#280 = EDGE_LOOP ( 'NONE', ( #120, #198, #151, #126 ) ) ;
#281 =( CONVERSION_BASED_UNIT ( 'INCH', #210 ) LENGTH_UNIT ( ) NAMED_UNIT ( #191 ) );
#282 = LINE ( 'NONE', #29, #66 ) ;
#283 = EDGE_CURVE ( 'NONE', #195, #53, #212, .T. ) ;
#284 = ORIENTED_EDGE ( 'NONE', *, *, #59, .F. ) ;
#285 = LENGTH_MEASURE_WITH_UNIT ( LENGTH_MEASURE( 0.02539999999999999897 ), #8 );
#286 = VERTEX_POINT ( 'NONE', #194 ) ;
#287 = ORIENTED_EDGE ( 'NONE', *, *, #37, .F. ) ;
#288 = VECTOR ( 'NONE', #18, 39.37007874015748143 ) ;
#289 = DIRECTION ( 'NONE',  ( 0.000000000000000000, 0.000000000000000000, -1.000000000000000000 ) ) ;
#290 = PRODUCT_RELATED_PRODUCT_CATEGORY ( 'part', '', ( #246 ) ) ;
#291 = CARTESIAN_POINT ( 'NONE',  ( 1.446432783766537492E-16, 0.000000000000000000, 1.181102000000000096 ) ) ;
#292 = FILL_AREA_STYLE ('',( #208 ) ) ;
#293 = STYLED_ITEM ( 'NONE', ( #107 ), #177 ) ;
#294 = APPLICATION_CONTEXT ( 'automotive_design' ) ;
#295 = FACE_OUTER_BOUND ( 'NONE', #132, .T. ) ;
#296 = UNCERTAINTY_MEASURE_WITH_UNIT (LENGTH_MEASURE( 1.000000000000000082E-05 ), #224, 'distance_accuracy_value', 'NONE');
#297 = ORIENTED_EDGE ( 'NONE', *, *, #19, .T. ) ;
#298 = STYLED_ITEM ( 'NONE', ( #204 ), #162 ) ;
#299 = CARTESIAN_POINT ( 'NONE',  ( 1.446432783766537492E-16, 0.000000000000000000, 1.181102000000000096 ) ) ;
ENDSEC;
END-ISO-10303-21;
