ISO-10303-21;
HEADER;
FILE_DESCRIPTION (( 'STEP AP214' ),
    '1' );
FILE_NAME ('Micro_MRF-250-078.STEP',
    '2021-09-02T21:11:28',
    ( '' ),
    ( '' ),
    'SwSTEP 2.0',
    'SolidWorks 2020',
    '' );
FILE_SCHEMA (( 'AUTOMOTIVE_DESIGN' ));
ENDSEC;

DATA;
#1 = CARTESIAN_POINT ( 'NONE',  ( 0.1100000000000001948, 1.438959988998141146E-17, 2.500000000000000000 ) ) ;
#2 =( NAMED_UNIT ( * ) PLANE_ANGLE_UNIT ( ) SI_UNIT ( $, .RADIAN. ) );
#3 = ORIENTED_EDGE ( 'NONE', *, *, #154, .T. ) ;
#4 = CARTESIAN_POINT ( 'NONE',  ( 0.0000000000000000000, 0.0000000000000000000, 0.07810000000000000275 ) ) ;
#5 = ORIENTED_EDGE ( 'NONE', *, *, #209, .F. ) ;
#6 = CARTESIAN_POINT ( 'NONE',  ( 0.1100000000000001948, 1.347111479062090784E-17, 2.500000000000000000 ) ) ;
#7 = CIRCLE ( 'NONE', #15, 0.1100000000000001948 ) ;
#8 = EDGE_LOOP ( 'NONE', ( #136, #29, #116, #33 ) ) ;
#9 = APPLICATION_CONTEXT ( 'automotive_design' ) ;
#10 = DIRECTION ( 'NONE',  ( 0.2588190451025143002, 0.0000000000000000000, 0.9659258262890699775 ) ) ;
#11 = VERTEX_POINT ( 'NONE', #210 ) ;
#12 = CARTESIAN_POINT ( 'NONE',  ( 0.0000000000000000000, 0.0000000000000000000, 0.07810000000000000275 ) ) ;
#13 = CARTESIAN_POINT ( 'NONE',  ( 0.0000000000000000000, 0.0000000000000000000, 0.05788623257749362511 ) ) ;
#14 = VECTOR ( 'NONE', #130, 39.37007874015748143 ) ;
#15 = AXIS2_PLACEMENT_3D ( 'NONE', #51, #240, #208 ) ;
#16 = SURFACE_SIDE_STYLE ('',( #229 ) ) ;
#17 = EDGE_CURVE ( 'NONE', #249, #88, #83, .T. ) ;
#18 =( LENGTH_UNIT ( ) NAMED_UNIT ( * ) SI_UNIT ( $, .METRE. ) );
#19 = DIRECTION ( 'NONE',  ( 1.000000000000000000, 0.0000000000000000000, -0.0000000000000000000 ) ) ;
#20 = UNCERTAINTY_MEASURE_WITH_UNIT (LENGTH_MEASURE( 1.000000000000000082E-05 ), #34, 'distance_accuracy_value', 'NONE');
#21 = COLOUR_RGB ( '',0.7921568627450980005, 0.8196078431372548767, 0.9333333333333333481 ) ;
#22 = CARTESIAN_POINT ( 'NONE',  ( -0.1374999999999999278, 1.683889348827610013E-17, 0.2895017579080216286 ) ) ;
#23 = LINE ( 'NONE', #191, #269 ) ;
#24 = ORIENTED_EDGE ( 'NONE', *, *, #134, .T. ) ;
#25 = DIRECTION ( 'NONE',  ( 0.0000000000000000000, 0.0000000000000000000, -1.000000000000000000 ) ) ;
#26 = CIRCLE ( 'NONE', #171, 0.1250000000000000000 ) ;
#27 = EDGE_LOOP ( 'NONE', ( #50, #131, #5, #179 ) ) ;
#28 = FACE_OUTER_BOUND ( 'NONE', #54, .T. ) ;
#29 = ORIENTED_EDGE ( 'NONE', *, *, #184, .T. ) ;
#30 = CARTESIAN_POINT ( 'NONE',  ( -4.782245750670414162E-18, 0.0000000000000000000, 0.0000000000000000000 ) ) ;
#31 = ORIENTED_EDGE ( 'NONE', *, *, #141, .F. ) ;
#32 = DIRECTION ( 'NONE',  ( -1.000000000000000000, 0.0000000000000000000, 0.0000000000000000000 ) ) ;
#33 = ORIENTED_EDGE ( 'NONE', *, *, #150, .F. ) ;
#34 =( CONVERSION_BASED_UNIT ( 'INCH', #226 ) LENGTH_UNIT ( ) NAMED_UNIT ( #157 ) );
#35 = CARTESIAN_POINT ( 'NONE',  ( -0.1100000000000001948, 0.0000000000000000000, 2.500000000000000000 ) ) ;
#36 = EDGE_CURVE ( 'NONE', #162, #246, #140, .T. ) ;
#37 = AXIS2_PLACEMENT_3D ( 'NONE', #125, #84, #257 ) ;
#38 = APPLICATION_PROTOCOL_DEFINITION ( 'draft international standard', 'automotive_design', 1998, #91 ) ;
#39 = AXIS2_PLACEMENT_3D ( 'NONE', #170, #172, #45 ) ;
#40 = DIRECTION ( 'NONE',  ( -1.000000000000000000, 0.0000000000000000000, 0.0000000000000000000 ) ) ;
#41 = PRODUCT_DEFINITION_CONTEXT ( 'detailed design', #91, 'design' ) ;
#42 = SURFACE_STYLE_USAGE ( .BOTH. , #79 ) ;
#43 = LENGTH_MEASURE_WITH_UNIT ( LENGTH_MEASURE( 0.02539999999999999897 ), #254 );
#44 = AXIS2_PLACEMENT_3D ( 'NONE', #168, #216, #19 ) ;
#45 = DIRECTION ( 'NONE',  ( 1.000000000000000000, 0.0000000000000000000, 0.0000000000000000000 ) ) ;
#46 = FACE_OUTER_BOUND ( 'NONE', #57, .T. ) ;
#47 = ORIENTED_EDGE ( 'NONE', *, *, #92, .F. ) ;
#48 = DIRECTION ( 'NONE',  ( 1.000000000000000000, 0.0000000000000000000, 0.0000000000000000000 ) ) ;
#49 = ADVANCED_FACE ( 'NONE', ( #123 ), #272, .T. ) ;
#50 = ORIENTED_EDGE ( 'NONE', *, *, #134, .F. ) ;
#51 = CARTESIAN_POINT ( 'NONE',  ( 0.0000000000000000000, 0.0000000000000000000, 2.500000000000000000 ) ) ;
#52 = ORIENTED_EDGE ( 'NONE', *, *, #150, .T. ) ;
#53 = DIRECTION ( 'NONE',  ( -0.0000000000000000000, -0.0000000000000000000, 1.000000000000000000 ) ) ;
#54 = EDGE_LOOP ( 'NONE', ( #66, #239, #129 ) ) ;
#55 = DIRECTION ( 'NONE',  ( 1.000000000000000000, 0.0000000000000000000, 0.0000000000000000000 ) ) ;
#56 = AXIS2_PLACEMENT_3D ( 'NONE', #12, #202, #176 ) ;
#57 = EDGE_LOOP ( 'NONE', ( #160, #183, #244 ) ) ;
#58 = FILL_AREA_STYLE ('',( #118 ) ) ;
#59 = CIRCLE ( 'NONE', #219, 0.1250000000000000000 ) ;
#60 = CARTESIAN_POINT ( 'NONE',  ( 0.07543880703317636105, 0.0000000000000000000, 0.05788623257749362511 ) ) ;
#61 = PLANE ( 'NONE',  #44 ) ;
#62 = CIRCLE ( 'NONE', #128, 0.07810000000000000275 ) ;
#63 = SURFACE_STYLE_FILL_AREA ( #214 ) ;
#64 = EDGE_LOOP ( 'NONE', ( #93, #24 ) ) ;
#65 = DIRECTION ( 'NONE',  ( -0.0000000000000000000, -0.0000000000000000000, -1.000000000000000000 ) ) ;
#66 = ORIENTED_EDGE ( 'NONE', *, *, #194, .F. ) ;
#67 = DIRECTION ( 'NONE',  ( 1.000000000000000000, -1.224646799147353207E-16, 0.0000000000000000000 ) ) ;
#68 = CIRCLE ( 'NONE', #37, 0.1250000000000000000 ) ;
#69 = CARTESIAN_POINT ( 'NONE',  ( 0.0000000000000000000, 0.0000000000000000000, 0.2895017579080216286 ) ) ;
#70 = ORIENTED_EDGE ( 'NONE', *, *, #36, .T. ) ;
#71 = LINE ( 'NONE', #6, #14 ) ;
#72 = DIRECTION ( 'NONE',  ( 0.0000000000000000000, 0.0000000000000000000, 1.000000000000000000 ) ) ;
#73 = PRODUCT_DEFINITION_SHAPE ( 'NONE', 'NONE',  #177 ) ;
#74 = LENGTH_MEASURE_WITH_UNIT ( LENGTH_MEASURE( 0.02539999999999999897 ), #18 );
#75 = CLOSED_SHELL ( 'NONE', ( #186, #49, #189, #97, #119, #81, #251, #261, #146 ) ) ;
#76 = PRESENTATION_LAYER_ASSIGNMENT (  '', '', ( #180 ) ) ;
#77 = DIRECTION ( 'NONE',  ( -0.0000000000000000000, -1.000000000000000000, 0.0000000000000000000 ) ) ;
#78 = UNCERTAINTY_MEASURE_WITH_UNIT (LENGTH_MEASURE( 1.000000000000000082E-05 ), #96, 'distance_accuracy_value', 'NONE');
#79 = SURFACE_SIDE_STYLE ('',( #63 ) ) ;
#80 = EDGE_CURVE ( 'NONE', #225, #264, #68, .T. ) ;
#81 = ADVANCED_FACE ( 'NONE', ( #151 ), #61, .T. ) ;
#82 = DIRECTION ( 'NONE',  ( -0.0000000000000000000, -0.0000000000000000000, -1.000000000000000000 ) ) ;
#83 = CIRCLE ( 'NONE', #165, 0.07543880703317636105 ) ;
#84 = DIRECTION ( 'NONE',  ( 0.0000000000000000000, 0.0000000000000000000, -1.000000000000000000 ) ) ;
#85 = SPHERICAL_SURFACE ( 'NONE', #56, 0.07810000000000000275 ) ;
#86 = PRODUCT_RELATED_PRODUCT_CATEGORY ( 'part', '', ( #127 ) ) ;
#87 = DIRECTION ( 'NONE',  ( 0.0000000000000000000, 0.0000000000000000000, -1.000000000000000000 ) ) ;
#88 = VERTEX_POINT ( 'NONE', #60 ) ;
#89 = DIRECTION ( 'NONE',  ( -1.000000000000000000, 0.0000000000000000000, 0.0000000000000000000 ) ) ;
#90 =( LENGTH_UNIT ( ) NAMED_UNIT ( * ) SI_UNIT ( $, .METRE. ) );
#91 = APPLICATION_CONTEXT ( 'automotive_design' ) ;
#92 = EDGE_CURVE ( 'NONE', #11, #246, #167, .T. ) ;
#93 = ORIENTED_EDGE ( 'NONE', *, *, #247, .T. ) ;
#94 = CIRCLE ( 'NONE', #270, 0.07810000000000000275 ) ;
#95 = PRODUCT_DEFINITION_FORMATION_WITH_SPECIFIED_SOURCE ( 'ANY', '', #127, .NOT_KNOWN. ) ;
#96 =( CONVERSION_BASED_UNIT ( 'INCH', #74 ) LENGTH_UNIT ( ) NAMED_UNIT ( #241 ) );
#97 = ADVANCED_FACE ( 'NONE', ( #235 ), #153, .T. ) ;
#98 = SURFACE_STYLE_USAGE ( .BOTH. , #16 ) ;
#99 =( GEOMETRIC_REPRESENTATION_CONTEXT ( 3 ) GLOBAL_UNCERTAINTY_ASSIGNED_CONTEXT ( ( #78 ) ) GLOBAL_UNIT_ASSIGNED_CONTEXT ( ( #96, #144, #145 ) ) REPRESENTATION_CONTEXT ( 'NONE', 'WORKASPACE' ) );
#100 = SHAPE_DEFINITION_REPRESENTATION ( #73, #196 ) ;
#101 = CYLINDRICAL_SURFACE ( 'NONE', #220, 0.1250000000000000000 ) ;
#102 = STYLED_ITEM ( 'NONE', ( #169 ), #139 ) ;
#103 = CONICAL_SURFACE ( 'NONE', #193, 0.1374999999999999278, 0.2617993877991427465 ) ;
#104 = CARTESIAN_POINT ( 'NONE',  ( 0.0000000000000000000, 0.0000000000000000000, 2.485000000000000320 ) ) ;
#105 = CARTESIAN_POINT ( 'NONE',  ( 0.0000000000000000000, 0.0000000000000000000, 2.500000000000000000 ) ) ;
#106 = SPHERICAL_SURFACE ( 'NONE', #142, 0.07810000000000000275 ) ;
#107 = EDGE_LOOP ( 'NONE', ( #110, #173, #52, #262 ) ) ;
#108 = ORIENTED_EDGE ( 'NONE', *, *, #247, .F. ) ;
#109 = CARTESIAN_POINT ( 'NONE',  ( 0.0000000000000000000, 0.0000000000000000000, 0.07810000000000000275 ) ) ;
#110 = ORIENTED_EDGE ( 'NONE', *, *, #184, .F. ) ;
#111 = CARTESIAN_POINT ( 'NONE',  ( -0.07543880703317636105, 1.227333717290467143E-17, 0.05788623257749362511 ) ) ;
#112 = VERTEX_POINT ( 'NONE', #1 ) ;
#113 = CARTESIAN_POINT ( 'NONE',  ( 0.1374999999999999278, 0.0000000000000000000, 0.2895017579080216286 ) ) ;
#114 =( GEOMETRIC_REPRESENTATION_CONTEXT ( 3 ) GLOBAL_UNCERTAINTY_ASSIGNED_CONTEXT ( ( #122 ) ) GLOBAL_UNIT_ASSIGNED_CONTEXT ( ( #215, #124, #121 ) ) REPRESENTATION_CONTEXT ( 'NONE', 'WORKASPACE' ) );
#115 = CARTESIAN_POINT ( 'NONE',  ( 0.0000000000000000000, 0.0000000000000000000, 0.05788623257749362511 ) ) ;
#116 = ORIENTED_EDGE ( 'NONE', *, *, #154, .F. ) ;
#117 = AXIS2_PLACEMENT_3D ( 'NONE', #236, #274, #40 ) ;
#118 = FILL_AREA_STYLE_COLOUR ( '', #21 ) ;
#119 = ADVANCED_FACE ( 'NONE', ( #149 ), #101, .T. ) ;
#120 = CIRCLE ( 'NONE', #185, 0.07543880703317636105 ) ;
#121 =( NAMED_UNIT ( * ) SI_UNIT ( $, .STERADIAN. ) SOLID_ANGLE_UNIT ( ) );
#122 = UNCERTAINTY_MEASURE_WITH_UNIT (LENGTH_MEASURE( 1.000000000000000082E-05 ), #215, 'distance_accuracy_value', 'NONE');
#123 = FACE_OUTER_BOUND ( 'NONE', #155, .T. ) ;
#124 =( NAMED_UNIT ( * ) PLANE_ANGLE_UNIT ( ) SI_UNIT ( $, .RADIAN. ) );
#125 = CARTESIAN_POINT ( 'NONE',  ( 0.0000000000000000000, 0.0000000000000000000, 0.2428511228134096755 ) ) ;
#126 = CARTESIAN_POINT ( 'NONE',  ( 0.0000000000000000000, 0.0000000000000000000, 2.500000000000000000 ) ) ;
#127 = PRODUCT ( 'Micro_MRF-250-078', 'Micro_MRF-250-078', '', ( #268 ) ) ;
#128 = AXIS2_PLACEMENT_3D ( 'NONE', #4, #263, #223 ) ;
#129 = ORIENTED_EDGE ( 'NONE', *, *, #17, .F. ) ;
#130 = DIRECTION ( 'NONE',  ( 0.7071067811865499042, 8.659560562354961208E-17, -0.7071067811865451302 ) ) ;
#131 = ORIENTED_EDGE ( 'NONE', *, *, #212, .T. ) ;
#132 = CARTESIAN_POINT ( 'NONE',  ( -0.1250000000000000000, 0.0000000000000000000, 2.485000000000000320 ) ) ;
#133 = ORIENTED_EDGE ( 'NONE', *, *, #141, .T. ) ;
#134 = EDGE_CURVE ( 'NONE', #112, #162, #192, .T. ) ;
#135 = CARTESIAN_POINT ( 'NONE',  ( -0.1250000000000000000, 0.0000000000000000000, 0.2428511228134096755 ) ) ;
#136 = ORIENTED_EDGE ( 'NONE', *, *, #209, .T. ) ;
#137 = FACE_OUTER_BOUND ( 'NONE', #27, .T. ) ;
#138 = VECTOR ( 'NONE', #238, 39.37007874015748143 ) ;
#139 = MANIFOLD_SOLID_BREP ( 'Cut-Revolve1', #75 ) ;
#140 = LINE ( 'NONE', #35, #178 ) ;
#141 = EDGE_CURVE ( 'NONE', #249, #264, #166, .T. ) ;
#142 = AXIS2_PLACEMENT_3D ( 'NONE', #147, #77, #253 ) ;
#143 = AXIS2_PLACEMENT_3D ( 'NONE', #126, #25, #89 ) ;
#144 =( NAMED_UNIT ( * ) PLANE_ANGLE_UNIT ( ) SI_UNIT ( $, .RADIAN. ) );
#145 =( NAMED_UNIT ( * ) SI_UNIT ( $, .STERADIAN. ) SOLID_ANGLE_UNIT ( ) );
#146 = ADVANCED_FACE ( 'NONE', ( #46 ), #106, .T. ) ;
#147 = CARTESIAN_POINT ( 'NONE',  ( 0.0000000000000000000, 0.0000000000000000000, 0.07810000000000000275 ) ) ;
#148 =( GEOMETRIC_REPRESENTATION_CONTEXT ( 3 ) GLOBAL_UNCERTAINTY_ASSIGNED_CONTEXT ( ( #20 ) ) GLOBAL_UNIT_ASSIGNED_CONTEXT ( ( #34, #2, #164 ) ) REPRESENTATION_CONTEXT ( 'NONE', 'WORKASPACE' ) );
#149 = FACE_OUTER_BOUND ( 'NONE', #107, .T. ) ;
#150 = EDGE_CURVE ( 'NONE', #246, #264, #23, .T. ) ;
#151 = FACE_OUTER_BOUND ( 'NONE', #64, .T. ) ;
#152 = VECTOR ( 'NONE', #156, 39.37007874015748143 ) ;
#153 = CYLINDRICAL_SURFACE ( 'NONE', #117, 0.1250000000000000000 ) ;
#154 = EDGE_CURVE ( 'NONE', #264, #225, #26, .T. ) ;
#155 = EDGE_LOOP ( 'NONE', ( #206, #133, #3, #198 ) ) ;
#156 = DIRECTION ( 'NONE',  ( -0.0000000000000000000, -0.0000000000000000000, -1.000000000000000000 ) ) ;
#157 = DIMENSIONAL_EXPONENTS ( 1.000000000000000000, 0.0000000000000000000, 0.0000000000000000000, 0.0000000000000000000, 0.0000000000000000000, 0.0000000000000000000, 0.0000000000000000000 ) ;
#158 = MECHANICAL_DESIGN_GEOMETRIC_PRESENTATION_REPRESENTATION (  '', ( #180 ), #99 ) ;
#159 = CARTESIAN_POINT ( 'NONE',  ( -0.1100000000000001948, 0.0000000000000000000, 2.500000000000000000 ) ) ;
#160 = ORIENTED_EDGE ( 'NONE', *, *, #227, .F. ) ;
#161 = LINE ( 'NONE', #243, #152 ) ;
#162 = VERTEX_POINT ( 'NONE', #159 ) ;
#163 = DIRECTION ( 'NONE',  ( 1.000000000000000000, 0.0000000000000000000, 0.0000000000000000000 ) ) ;
#164 =( NAMED_UNIT ( * ) SI_UNIT ( $, .STERADIAN. ) SOLID_ANGLE_UNIT ( ) );
#165 = AXIS2_PLACEMENT_3D ( 'NONE', #13, #266, #163 ) ;
#166 = LINE ( 'NONE', #22, #138 ) ;
#167 = CIRCLE ( 'NONE', #205, 0.1250000000000000000 ) ;
#168 = CARTESIAN_POINT ( 'NONE',  ( 0.0000000000000000000, 0.0000000000000000000, 2.500000000000000000 ) ) ;
#169 = PRESENTATION_STYLE_ASSIGNMENT (( #42 ) ) ;
#170 = CARTESIAN_POINT ( 'NONE',  ( 0.0000000000000000000, 0.0000000000000000000, 0.2895017579080216286 ) ) ;
#171 = AXIS2_PLACEMENT_3D ( 'NONE', #260, #87, #55 ) ;
#172 = DIRECTION ( 'NONE',  ( -0.0000000000000000000, -0.0000000000000000000, 1.000000000000000000 ) ) ;
#173 = ORIENTED_EDGE ( 'NONE', *, *, #92, .T. ) ;
#174 = LINE ( 'NONE', #113, #273 ) ;
#175 = ORIENTED_EDGE ( 'NONE', *, *, #212, .F. ) ;
#176 = DIRECTION ( 'NONE',  ( -1.000000000000000000, 0.0000000000000000000, 0.0000000000000000000 ) ) ;
#177 = PRODUCT_DEFINITION ( 'UNKNOWN', '', #95, #41 ) ;
#178 = VECTOR ( 'NONE', #228, 39.37007874015748143 ) ;
#179 = ORIENTED_EDGE ( 'NONE', *, *, #36, .F. ) ;
#180 = STYLED_ITEM ( 'NONE', ( #211 ), #196 ) ;
#181 = FACE_OUTER_BOUND ( 'NONE', #182, .T. ) ;
#182 = EDGE_LOOP ( 'NONE', ( #31, #242, #200, #203 ) ) ;
#183 = ORIENTED_EDGE ( 'NONE', *, *, #194, .T. ) ;
#184 = EDGE_CURVE ( 'NONE', #11, #225, #161, .T. ) ;
#185 = AXIS2_PLACEMENT_3D ( 'NONE', #115, #224, #48 ) ;
#186 = ADVANCED_FACE ( 'NONE', ( #28 ), #85, .T. ) ;
#187 = AXIS2_PLACEMENT_3D ( 'NONE', #222, #207, #32 ) ;
#188 = DIMENSIONAL_EXPONENTS ( 1.000000000000000000, 0.0000000000000000000, 0.0000000000000000000, 0.0000000000000000000, 0.0000000000000000000, 0.0000000000000000000, 0.0000000000000000000 ) ;
#189 = ADVANCED_FACE ( 'NONE', ( #137 ), #265, .T. ) ;
#190 = FILL_AREA_STYLE_COLOUR ( '', #232 ) ;
#191 = CARTESIAN_POINT ( 'NONE',  ( -0.1250000000000000000, 0.0000000000000000000, 2.500000000000000000 ) ) ;
#192 = CIRCLE ( 'NONE', #237, 0.1100000000000001948 ) ;
#193 = AXIS2_PLACEMENT_3D ( 'NONE', #69, #53, #199 ) ;
#194 = EDGE_CURVE ( 'NONE', #221, #249, #62, .T. ) ;
#195 = DIRECTION ( 'NONE',  ( -1.000000000000000000, 0.0000000000000000000, 0.0000000000000000000 ) ) ;
#196 = ADVANCED_BREP_SHAPE_REPRESENTATION ( 'Micro_MRF-250-078', ( #139, #250 ), #148 ) ;
#197 = MECHANICAL_DESIGN_GEOMETRIC_PRESENTATION_REPRESENTATION (  '', ( #102 ), #114 ) ;
#198 = ORIENTED_EDGE ( 'NONE', *, *, #271, .F. ) ;
#199 = DIRECTION ( 'NONE',  ( 1.000000000000000000, 0.0000000000000000000, 0.0000000000000000000 ) ) ;
#200 = ORIENTED_EDGE ( 'NONE', *, *, #271, .T. ) ;
#201 = EDGE_CURVE ( 'NONE', #88, #249, #120, .T. ) ;
#202 = DIRECTION ( 'NONE',  ( -0.0000000000000000000, -1.000000000000000000, 0.0000000000000000000 ) ) ;
#203 = ORIENTED_EDGE ( 'NONE', *, *, #80, .T. ) ;
#204 = FACE_OUTER_BOUND ( 'NONE', #217, .T. ) ;
#205 = AXIS2_PLACEMENT_3D ( 'NONE', #104, #255, #233 ) ;
#206 = ORIENTED_EDGE ( 'NONE', *, *, #201, .T. ) ;
#207 = DIRECTION ( 'NONE',  ( 0.0000000000000000000, 0.0000000000000000000, -1.000000000000000000 ) ) ;
#208 = DIRECTION ( 'NONE',  ( 1.000000000000000000, 0.0000000000000000000, 0.0000000000000000000 ) ) ;
#209 = EDGE_CURVE ( 'NONE', #246, #11, #59, .T. ) ;
#210 = CARTESIAN_POINT ( 'NONE',  ( 0.1250000000000000000, 1.530808498934191509E-17, 2.485000000000000320 ) ) ;
#211 = PRESENTATION_STYLE_ASSIGNMENT (( #98 ) ) ;
#212 = EDGE_CURVE ( 'NONE', #112, #11, #71, .T. ) ;
#213 = APPLICATION_PROTOCOL_DEFINITION ( 'draft international standard', 'automotive_design', 1998, #9 ) ;
#214 = FILL_AREA_STYLE ('',( #190 ) ) ;
#215 =( CONVERSION_BASED_UNIT ( 'INCH', #43 ) LENGTH_UNIT ( ) NAMED_UNIT ( #188 ) );
#216 = DIRECTION ( 'NONE',  ( 0.0000000000000000000, 0.0000000000000000000, 1.000000000000000000 ) ) ;
#217 = EDGE_LOOP ( 'NONE', ( #175, #108, #70, #47 ) ) ;
#218 = DIRECTION ( 'NONE',  ( -1.224646799147353207E-16, -1.000000000000000000, -0.0000000000000000000 ) ) ;
#219 = AXIS2_PLACEMENT_3D ( 'NONE', #258, #245, #248 ) ;
#220 = AXIS2_PLACEMENT_3D ( 'NONE', #105, #82, #195 ) ;
#221 = VERTEX_POINT ( 'NONE', #30 ) ;
#222 = CARTESIAN_POINT ( 'NONE',  ( 0.0000000000000000000, 0.0000000000000000000, 2.500000000000000000 ) ) ;
#223 = DIRECTION ( 'NONE',  ( 0.0000000000000000000, 0.0000000000000000000, 1.000000000000000000 ) ) ;
#224 = DIRECTION ( 'NONE',  ( -0.0000000000000000000, -0.0000000000000000000, 1.000000000000000000 ) ) ;
#225 = VERTEX_POINT ( 'NONE', #259 ) ;
#226 = LENGTH_MEASURE_WITH_UNIT ( LENGTH_MEASURE( 0.02539999999999999897 ), #90 );
#227 = EDGE_CURVE ( 'NONE', #221, #88, #94, .T. ) ;
#228 = DIRECTION ( 'NONE',  ( -0.7071067811865499042, 0.0000000000000000000, -0.7071067811865451302 ) ) ;
#229 = SURFACE_STYLE_FILL_AREA ( #58 ) ;
#230 = DIRECTION ( 'NONE',  ( 1.000000000000000000, 0.0000000000000000000, 0.0000000000000000000 ) ) ;
#231 = CARTESIAN_POINT ( 'NONE',  ( 0.0000000000000000000, 0.0000000000000000000, 0.0000000000000000000 ) ) ;
#232 = COLOUR_RGB ( '',0.7921568627450980005, 0.8196078431372548767, 0.9333333333333333481 ) ;
#233 = DIRECTION ( 'NONE',  ( 1.000000000000000000, 0.0000000000000000000, 0.0000000000000000000 ) ) ;
#234 = CARTESIAN_POINT ( 'NONE',  ( 0.0000000000000000000, 0.0000000000000000000, 2.500000000000000000 ) ) ;
#235 = FACE_OUTER_BOUND ( 'NONE', #8, .T. ) ;
#236 = CARTESIAN_POINT ( 'NONE',  ( 0.0000000000000000000, 0.0000000000000000000, 2.500000000000000000 ) ) ;
#237 = AXIS2_PLACEMENT_3D ( 'NONE', #234, #275, #256 ) ;
#238 = DIRECTION ( 'NONE',  ( -0.2588190451025143002, 3.169619151431686055E-17, 0.9659258262890699775 ) ) ;
#239 = ORIENTED_EDGE ( 'NONE', *, *, #227, .T. ) ;
#240 = DIRECTION ( 'NONE',  ( 0.0000000000000000000, 0.0000000000000000000, 1.000000000000000000 ) ) ;
#241 = DIMENSIONAL_EXPONENTS ( 1.000000000000000000, 0.0000000000000000000, 0.0000000000000000000, 0.0000000000000000000, 0.0000000000000000000, 0.0000000000000000000, 0.0000000000000000000 ) ;
#242 = ORIENTED_EDGE ( 'NONE', *, *, #17, .T. ) ;
#243 = CARTESIAN_POINT ( 'NONE',  ( 0.1250000000000000000, 1.530808498934191509E-17, 2.500000000000000000 ) ) ;
#244 = ORIENTED_EDGE ( 'NONE', *, *, #201, .F. ) ;
#245 = DIRECTION ( 'NONE',  ( 0.0000000000000000000, 0.0000000000000000000, -1.000000000000000000 ) ) ;
#246 = VERTEX_POINT ( 'NONE', #132 ) ;
#247 = EDGE_CURVE ( 'NONE', #162, #112, #7, .T. ) ;
#248 = DIRECTION ( 'NONE',  ( 1.000000000000000000, 0.0000000000000000000, 0.0000000000000000000 ) ) ;
#249 = VERTEX_POINT ( 'NONE', #111 ) ;
#250 = AXIS2_PLACEMENT_3D ( 'NONE', #231, #72, #230 ) ;
#251 = ADVANCED_FACE ( 'NONE', ( #204 ), #267, .T. ) ;
#252 = PRESENTATION_LAYER_ASSIGNMENT (  '', '', ( #102 ) ) ;
#253 = DIRECTION ( 'NONE',  ( -1.000000000000000000, 0.0000000000000000000, 0.0000000000000000000 ) ) ;
#254 =( LENGTH_UNIT ( ) NAMED_UNIT ( * ) SI_UNIT ( $, .METRE. ) );
#255 = DIRECTION ( 'NONE',  ( 0.0000000000000000000, 0.0000000000000000000, -1.000000000000000000 ) ) ;
#256 = DIRECTION ( 'NONE',  ( 1.000000000000000000, 0.0000000000000000000, 0.0000000000000000000 ) ) ;
#257 = DIRECTION ( 'NONE',  ( 1.000000000000000000, 0.0000000000000000000, 0.0000000000000000000 ) ) ;
#258 = CARTESIAN_POINT ( 'NONE',  ( 0.0000000000000000000, 0.0000000000000000000, 2.485000000000000320 ) ) ;
#259 = CARTESIAN_POINT ( 'NONE',  ( 0.1250000000000000000, 1.530808498934191509E-17, 0.2428511228134096755 ) ) ;
#260 = CARTESIAN_POINT ( 'NONE',  ( 0.0000000000000000000, 0.0000000000000000000, 0.2428511228134096755 ) ) ;
#261 = ADVANCED_FACE ( 'NONE', ( #181 ), #103, .T. ) ;
#262 = ORIENTED_EDGE ( 'NONE', *, *, #80, .F. ) ;
#263 = DIRECTION ( 'NONE',  ( 0.0000000000000000000, 1.000000000000000000, 0.0000000000000000000 ) ) ;
#264 = VERTEX_POINT ( 'NONE', #135 ) ;
#265 = CONICAL_SURFACE ( 'NONE', #187, 0.1100000000000001948, 0.7853981633974517207 ) ;
#266 = DIRECTION ( 'NONE',  ( -0.0000000000000000000, -0.0000000000000000000, 1.000000000000000000 ) ) ;
#267 = CONICAL_SURFACE ( 'NONE', #143, 0.1100000000000001948, 0.7853981633974517207 ) ;
#268 = PRODUCT_CONTEXT ( 'NONE', #9, 'mechanical' ) ;
#269 = VECTOR ( 'NONE', #65, 39.37007874015748143 ) ;
#270 = AXIS2_PLACEMENT_3D ( 'NONE', #109, #218, #67 ) ;
#271 = EDGE_CURVE ( 'NONE', #88, #225, #174, .T. ) ;
#272 = CONICAL_SURFACE ( 'NONE', #39, 0.1374999999999999278, 0.2617993877991427465 ) ;
#273 = VECTOR ( 'NONE', #10, 39.37007874015748143 ) ;
#274 = DIRECTION ( 'NONE',  ( -0.0000000000000000000, -0.0000000000000000000, -1.000000000000000000 ) ) ;
#275 = DIRECTION ( 'NONE',  ( 0.0000000000000000000, 0.0000000000000000000, 1.000000000000000000 ) ) ;
ENDSEC;
END-ISO-10303-21;
