ISO-10303-21;
HEADER;
FILE_DESCRIPTION (( 'STEP AP214' ),
    '1' );
FILE_NAME ('83285.STEP',
    '2023-06-30T22:55:21',
    ( '' ),
    ( '' ),
    'SwSTEP 2.0',
    'SolidWorks 2023',
    '' );
FILE_SCHEMA (( 'AUTOMOTIVE_DESIGN' ));
ENDSEC;

DATA;
#1 = DIRECTION ( 'NONE',  ( 0.000000000000000000, 0.000000000000000000, -1.000000000000000000 ) ) ;
#2 = MECHANICAL_DESIGN_GEOMETRIC_PRESENTATION_REPRESENTATION (  '', ( #358 ), #222 ) ;
#3 = PRESENTATION_LAYER_ASSIGNMENT (  '', '', ( #231 ) ) ;
#4 = AXIS2_PLACEMENT_3D ( 'NONE', #188, #133, #326 ) ;
#5 = FILL_AREA_STYLE_COLOUR ( '', #151 ) ;
#6 = SURFACE_STYLE_USAGE ( .BOTH. , #332 ) ;
#7 =( NAMED_UNIT ( * ) PLANE_ANGLE_UNIT ( ) SI_UNIT ( $, .RADIAN. ) );
#8 =( LENGTH_UNIT ( ) NAMED_UNIT ( * ) SI_UNIT ( $, .METRE. ) );
#9 = EDGE_LOOP ( 'NONE', ( #99, #206 ) ) ;
#10 = DIRECTION ( 'NONE',  ( -0.000000000000000000, -1.000000000000000000, -0.000000000000000000 ) ) ;
#11 =( NAMED_UNIT ( * ) PLANE_ANGLE_UNIT ( ) SI_UNIT ( $, .RADIAN. ) );
#12 = FILL_AREA_STYLE ('',( #157 ) ) ;
#13 = AXIS2_PLACEMENT_3D ( 'NONE', #265, #91, #228 ) ;
#14 = AXIS2_PLACEMENT_3D ( 'NONE', #40, #154, #352 ) ;
#15 = UNCERTAINTY_MEASURE_WITH_UNIT (LENGTH_MEASURE( 1.000000000000000082E-05 ), #104, 'distance_accuracy_value', 'NONE');
#16 = EDGE_CURVE ( 'NONE', #74, #176, #124, .T. ) ;
#17 =( NAMED_UNIT ( * ) PLANE_ANGLE_UNIT ( ) SI_UNIT ( $, .RADIAN. ) );
#18 = AXIS2_PLACEMENT_3D ( 'NONE', #73, #243, #356 ) ;
#19 = DIRECTION ( 'NONE',  ( -1.000000000000000000, 0.000000000000000000, 0.000000000000000000 ) ) ;
#20 = ORIENTED_EDGE ( 'NONE', *, *, #16, .T. ) ;
#21 =( NAMED_UNIT ( * ) PLANE_ANGLE_UNIT ( ) SI_UNIT ( $, .RADIAN. ) );
#22 = DIRECTION ( 'NONE',  ( 0.000000000000000000, 0.000000000000000000, -1.000000000000000000 ) ) ;
#23 = ADVANCED_FACE ( 'NONE', ( #212 ), #275, .T. ) ;
#24 = SURFACE_STYLE_USAGE ( .BOTH. , #161 ) ;
#25 = UNCERTAINTY_MEASURE_WITH_UNIT (LENGTH_MEASURE( 1.000000000000000082E-05 ), #331, 'distance_accuracy_value', 'NONE');
#26 = DIRECTION ( 'NONE',  ( 0.000000000000000000, 1.000000000000000000, 0.000000000000000000 ) ) ;
#27 = CARTESIAN_POINT ( 'NONE',  ( -0.1250000000000000000, 0.1250000000000000278, 1.530808498934191201E-17 ) ) ;
#28 = DIMENSIONAL_EXPONENTS ( 1.000000000000000000, 0.000000000000000000, 0.000000000000000000, 0.000000000000000000, 0.000000000000000000, 0.000000000000000000, 0.000000000000000000 ) ;
#29 = AXIS2_PLACEMENT_3D ( 'NONE', #139, #112, #77 ) ;
#30 = DIMENSIONAL_EXPONENTS ( 1.000000000000000000, 0.000000000000000000, 0.000000000000000000, 0.000000000000000000, 0.000000000000000000, 0.000000000000000000, 0.000000000000000000 ) ;
#31 = ADVANCED_FACE ( 'NONE', ( #143 ), #165, .T. ) ;
#32 = AXIS2_PLACEMENT_3D ( 'NONE', #218, #140, #76 ) ;
#33 = ORIENTED_EDGE ( 'NONE', *, *, #97, .F. ) ;
#34 = DIRECTION ( 'NONE',  ( 0.000000000000000000, 0.000000000000000000, -1.000000000000000000 ) ) ;
#35 = PRESENTATION_STYLE_ASSIGNMENT (( #299 ) ) ;
#36 = SURFACE_STYLE_FILL_AREA ( #12 ) ;
#37 = AXIS2_PLACEMENT_3D ( 'NONE', #197, #315, #289 ) ;
#38 =( GEOMETRIC_REPRESENTATION_CONTEXT ( 3 ) GLOBAL_UNCERTAINTY_ASSIGNED_CONTEXT ( ( #351 ) ) GLOBAL_UNIT_ASSIGNED_CONTEXT ( ( #232, #87, #233 ) ) REPRESENTATION_CONTEXT ( 'NONE', 'WORKASPACE' ) );
#39 = SURFACE_STYLE_FILL_AREA ( #70 ) ;
#40 = CARTESIAN_POINT ( 'NONE',  ( 0.000000000000000000, 1.000000000000000000, 0.000000000000000000 ) ) ;
#41 = PRODUCT_DEFINITION_SHAPE ( 'NONE', 'NONE',  #210 ) ;
#42 = PRESENTATION_STYLE_ASSIGNMENT (( #64 ) ) ;
#43 =( NAMED_UNIT ( * ) SI_UNIT ( $, .STERADIAN. ) SOLID_ANGLE_UNIT ( ) );
#44 = EDGE_CURVE ( 'NONE', #81, #122, #61, .T. ) ;
#45 = LENGTH_MEASURE_WITH_UNIT ( LENGTH_MEASURE( 0.02539999999999999897 ), #239 );
#46 =( GEOMETRIC_REPRESENTATION_CONTEXT ( 3 ) GLOBAL_UNCERTAINTY_ASSIGNED_CONTEXT ( ( #15 ) ) GLOBAL_UNIT_ASSIGNED_CONTEXT ( ( #104, #11, #43 ) ) REPRESENTATION_CONTEXT ( 'NONE', 'WORKASPACE' ) );
#47 = LENGTH_MEASURE_WITH_UNIT ( LENGTH_MEASURE( 0.02539999999999999897 ), #283 );
#48 = CARTESIAN_POINT ( 'NONE',  ( 1.836970198721030427E-16, 1.000000000000000000, 0.000000000000000000 ) ) ;
#49 = ORIENTED_EDGE ( 'NONE', *, *, #44, .F. ) ;
#50 = DIRECTION ( 'NONE',  ( 0.000000000000000000, -0.000000000000000000, 1.000000000000000000 ) ) ;
#51 = DIRECTION ( 'NONE',  ( -1.224646799147353700E-16, 1.000000000000000000, -0.000000000000000000 ) ) ;
#52 = CIRCLE ( 'NONE', #13, 0.1249999999999998751 ) ;
#53 = FILL_AREA_STYLE_COLOUR ( '', #223 ) ;
#54 = DIRECTION ( 'NONE',  ( -1.224646799147353700E-16, 1.000000000000000000, -0.000000000000000000 ) ) ;
#55 = ORIENTED_EDGE ( 'NONE', *, *, #269, .F. ) ;
#56 = DIRECTION ( 'NONE',  ( 1.224646799147353700E-16, -1.000000000000000000, 0.000000000000000000 ) ) ;
#57 = ORIENTED_EDGE ( 'NONE', *, *, #16, .F. ) ;
#58 = DIMENSIONAL_EXPONENTS ( 1.000000000000000000, 0.000000000000000000, 0.000000000000000000, 0.000000000000000000, 0.000000000000000000, 0.000000000000000000, 0.000000000000000000 ) ;
#59 = ORIENTED_EDGE ( 'NONE', *, *, #324, .F. ) ;
#60 = DIRECTION ( 'NONE',  ( 1.000000000000000000, 1.224646799147353700E-16, 0.000000000000000000 ) ) ;
#61 = CIRCLE ( 'NONE', #82, 0.1250000000000000000 ) ;
#62 = CIRCLE ( 'NONE', #333, 0.1249999999999999861 ) ;
#63 = CARTESIAN_POINT ( 'NONE',  ( 1.836970198721030427E-16, 1.000000000000000000, 0.000000000000000000 ) ) ;
#64 = SURFACE_STYLE_USAGE ( .BOTH. , #214 ) ;
#65 = FACE_OUTER_BOUND ( 'NONE', #172, .T. ) ;
#66 = FILL_AREA_STYLE_COLOUR ( '', #171 ) ;
#67 = STYLED_ITEM ( 'NONE', ( #287 ), #236 ) ;
#68 = LENGTH_MEASURE_WITH_UNIT ( LENGTH_MEASURE( 0.02539999999999999897 ), #300 );
#69 = VERTEX_POINT ( 'NONE', #85 ) ;
#70 = FILL_AREA_STYLE ('',( #5 ) ) ;
#71 = EDGE_CURVE ( 'NONE', #111, #69, #280, .T. ) ;
#72 = ORIENTED_EDGE ( 'NONE', *, *, #162, .T. ) ;
#73 = CARTESIAN_POINT ( 'NONE',  ( -6.123233995736772199E-17, 3.000000000000000444, 0.000000000000000000 ) ) ;
#74 = VERTEX_POINT ( 'NONE', #362 ) ;
#75 = DIRECTION ( 'NONE',  ( -0.000000000000000000, -1.000000000000000000, -0.000000000000000000 ) ) ;
#76 = DIRECTION ( 'NONE',  ( 1.000000000000000000, 0.000000000000000000, 0.000000000000000000 ) ) ;
#77 = DIRECTION ( 'NONE',  ( -1.000000000000000000, 0.000000000000000000, 0.000000000000000000 ) ) ;
#78 = ORIENTED_EDGE ( 'NONE', *, *, #342, .T. ) ;
#79 = SHAPE_DEFINITION_REPRESENTATION ( #41, #191 ) ;
#80 = DIRECTION ( 'NONE',  ( -0.000000000000000000, -1.000000000000000000, -0.000000000000000000 ) ) ;
#81 = VERTEX_POINT ( 'NONE', #27 ) ;
#82 = AXIS2_PLACEMENT_3D ( 'NONE', #109, #255, #115 ) ;
#83 = AXIS2_PLACEMENT_3D ( 'NONE', #339, #192, #22 ) ;
#84 = COLOUR_RGB ( '',1.000000000000000000, 0.000000000000000000, 0.000000000000000000 ) ;
#85 = CARTESIAN_POINT ( 'NONE',  ( 0.1249999999999998751, 3.000000000000000444, 1.530808498934190276E-17 ) ) ;
#86 = ORIENTED_EDGE ( 'NONE', *, *, #162, .F. ) ;
#87 =( NAMED_UNIT ( * ) PLANE_ANGLE_UNIT ( ) SI_UNIT ( $, .RADIAN. ) );
#88 = AXIS2_PLACEMENT_3D ( 'NONE', #135, #179, #189 ) ;
#89 = DIRECTION ( 'NONE',  ( -1.000000000000000000, 0.000000000000000000, 0.000000000000000000 ) ) ;
#90 = FILL_AREA_STYLE_COLOUR ( '', #368 ) ;
#91 = DIRECTION ( 'NONE',  ( -0.000000000000000000, -1.000000000000000000, -0.000000000000000000 ) ) ;
#92 = DIMENSIONAL_EXPONENTS ( 1.000000000000000000, 0.000000000000000000, 0.000000000000000000, 0.000000000000000000, 0.000000000000000000, 0.000000000000000000, 0.000000000000000000 ) ;
#93 = CARTESIAN_POINT ( 'NONE',  ( -7.654042494670957545E-18, 0.000000000000000000, 0.000000000000000000 ) ) ;
#94 = CLOSED_SHELL ( 'NONE', ( #334, #148, #23, #227, #208 ) ) ;
#95 = PRODUCT_DEFINITION_FORMATION_WITH_SPECIFIED_SOURCE ( 'ANY', '', #230, .NOT_KNOWN. ) ;
#96 =( LENGTH_UNIT ( ) NAMED_UNIT ( * ) SI_UNIT ( $, .METRE. ) );
#97 = EDGE_CURVE ( 'NONE', #282, #237, #113, .T. ) ;
#98 = VERTEX_POINT ( 'NONE', #290 ) ;
#99 = ORIENTED_EDGE ( 'NONE', *, *, #71, .T. ) ;
#100 = SURFACE_SIDE_STYLE ('',( #36 ) ) ;
#101 = CARTESIAN_POINT ( 'NONE',  ( 1.836970198721030181E-16, 1.000000000000000000, 0.000000000000000000 ) ) ;
#102 = FILL_AREA_STYLE ('',( #152 ) ) ;
#103 = ADVANCED_FACE ( 'NONE', ( #177 ), #117, .F. ) ;
#104 =( CONVERSION_BASED_UNIT ( 'INCH', #241 ) LENGTH_UNIT ( ) NAMED_UNIT ( #28 ) );
#105 =( NAMED_UNIT ( * ) SI_UNIT ( $, .STERADIAN. ) SOLID_ANGLE_UNIT ( ) );
#106 = COLOUR_RGB ( '',1.000000000000000000, 0.000000000000000000, 0.000000000000000000 ) ;
#107 = EDGE_CURVE ( 'NONE', #176, #74, #198, .T. ) ;
#108 = CYLINDRICAL_SURFACE ( 'NONE', #29, 0.1249999999999998335 ) ;
#109 = CARTESIAN_POINT ( 'NONE',  ( -1.530808498934191509E-17, 0.1250000000000000000, 0.000000000000000000 ) ) ;
#110 = SURFACE_STYLE_FILL_AREA ( #253 ) ;
#111 = VERTEX_POINT ( 'NONE', #294 ) ;
#112 = DIRECTION ( 'NONE',  ( -1.224646799147353700E-16, 1.000000000000000000, -0.000000000000000000 ) ) ;
#113 = CIRCLE ( 'NONE', #144, 0.1249999999999999861 ) ;
#114 = AXIS2_PLACEMENT_3D ( 'NONE', #174, #56, #60 ) ;
#115 = DIRECTION ( 'NONE',  ( 1.000000000000000000, 0.000000000000000000, -1.224646799147353207E-16 ) ) ;
#116 = LINE ( 'NONE', #310, #295 ) ;
#117 = PLANE ( 'NONE',  #114 ) ;
#118 = AXIS2_PLACEMENT_3D ( 'NONE', #48, #131, #160 ) ;
#119 = PRESENTATION_LAYER_ASSIGNMENT (  '', '', ( #205 ) ) ;
#120 = LENGTH_MEASURE_WITH_UNIT ( LENGTH_MEASURE( 0.02539999999999999897 ), #347 );
#121 = MANIFOLD_SOLID_BREP ( 'Revolve - Tool Body (Straight Shanked)', #204 ) ;
#122 = VERTEX_POINT ( 'NONE', #93 ) ;
#123 = CARTESIAN_POINT ( 'NONE',  ( 1.530808498934190893E-17, 0.000000000000000000, 0.1249999999999999306 ) ) ;
#124 = CIRCLE ( 'NONE', #118, 0.1249999999999997086 ) ;
#125 = AXIS2_PLACEMENT_3D ( 'NONE', #101, #181, #211 ) ;
#126 = ORIENTED_EDGE ( 'NONE', *, *, #344, .T. ) ;
#127 = CARTESIAN_POINT ( 'NONE',  ( -1.530808498934191509E-17, 0.1250000000000000000, 0.000000000000000000 ) ) ;
#128 = PRESENTATION_STYLE_ASSIGNMENT (( #156 ) ) ;
#129 =( CONVERSION_BASED_UNIT ( 'INCH', #68 ) LENGTH_UNIT ( ) NAMED_UNIT ( #92 ) );
#130 = CYLINDRICAL_SURFACE ( 'NONE', #190, 0.1249999999999999306 ) ;
#131 = DIRECTION ( 'NONE',  ( -1.224646799147353700E-16, 1.000000000000000000, -0.000000000000000000 ) ) ;
#132 = PRESENTATION_LAYER_ASSIGNMENT (  '', '', ( #251 ) ) ;
#133 = DIRECTION ( 'NONE',  ( 0.000000000000000000, 0.000000000000000000, 1.000000000000000000 ) ) ;
#134 =( GEOMETRIC_REPRESENTATION_CONTEXT ( 3 ) GLOBAL_UNCERTAINTY_ASSIGNED_CONTEXT ( ( #249 ) ) GLOBAL_UNIT_ASSIGNED_CONTEXT ( ( #129, #186, #304 ) ) REPRESENTATION_CONTEXT ( 'NONE', 'WORKASPACE' ) );
#135 = CARTESIAN_POINT ( 'NONE',  ( -1.530808498934191509E-17, 0.1250000000000000000, 0.000000000000000000 ) ) ;
#136 =( CONVERSION_BASED_UNIT ( 'INCH', #220 ) LENGTH_UNIT ( ) NAMED_UNIT ( #58 ) );
#137 = DIRECTION ( 'NONE',  ( -0.000000000000000000, -1.000000000000000000, -0.000000000000000000 ) ) ;
#138 = VERTEX_POINT ( 'NONE', #317 ) ;
#139 = CARTESIAN_POINT ( 'NONE',  ( -6.123233995736772199E-17, 3.000000000000000444, 0.000000000000000000 ) ) ;
#140 = DIRECTION ( 'NONE',  ( 0.000000000000000000, 0.000000000000000000, 1.000000000000000000 ) ) ;
#141 =( CONVERSION_BASED_UNIT ( 'INCH', #245 ) LENGTH_UNIT ( ) NAMED_UNIT ( #349 ) );
#142 = ORIENTED_EDGE ( 'NONE', *, *, #342, .F. ) ;
#143 = FACE_OUTER_BOUND ( 'NONE', #146, .T. ) ;
#144 = AXIS2_PLACEMENT_3D ( 'NONE', #370, #225, #1 ) ;
#145 = APPLICATION_CONTEXT ( 'automotive_design' ) ;
#146 = EDGE_LOOP ( 'NONE', ( #338, #268, #153, #311 ) ) ;
#147 = ORIENTED_EDGE ( 'NONE', *, *, #330, .F. ) ;
#148 = ADVANCED_FACE ( 'NONE', ( #319 ), #178, .T. ) ;
#149 = DIRECTION ( 'NONE',  ( 0.000000000000000000, 0.000000000000000000, 1.000000000000000000 ) ) ;
#150 = PRESENTATION_LAYER_ASSIGNMENT (  '', '', ( #358 ) ) ;
#151 = COLOUR_RGB ( '',1.000000000000000000, 0.000000000000000000, 0.000000000000000000 ) ;
#152 = FILL_AREA_STYLE_COLOUR ( '', #106 ) ;
#153 = ORIENTED_EDGE ( 'NONE', *, *, #269, .T. ) ;
#154 = DIRECTION ( 'NONE',  ( -0.000000000000000000, -1.000000000000000000, -0.000000000000000000 ) ) ;
#155 =( LENGTH_UNIT ( ) NAMED_UNIT ( * ) SI_UNIT ( $, .METRE. ) );
#156 = SURFACE_STYLE_USAGE ( .BOTH. , #305 ) ;
#157 = FILL_AREA_STYLE_COLOUR ( '', #84 ) ;
#158 = DIRECTION ( 'NONE',  ( 0.000000000000000000, 0.000000000000000000, -1.000000000000000000 ) ) ;
#159 = UNCERTAINTY_MEASURE_WITH_UNIT (LENGTH_MEASURE( 1.000000000000000082E-05 ), #141, 'distance_accuracy_value', 'NONE');
#160 = DIRECTION ( 'NONE',  ( -1.000000000000000000, 0.000000000000000000, 0.000000000000000000 ) ) ;
#161 = SURFACE_SIDE_STYLE ('',( #110 ) ) ;
#162 = EDGE_CURVE ( 'NONE', #237, #122, #259, .T. ) ;
#163 = FILL_AREA_STYLE ('',( #66 ) ) ;
#164 = CARTESIAN_POINT ( 'NONE',  ( 0.000000000000000000, 0.000000000000000000, -0.1249999999999999306 ) ) ;
#165 = CYLINDRICAL_SURFACE ( 'NONE', #244, 0.1249999999999998335 ) ;
#166 = APPLICATION_PROTOCOL_DEFINITION ( 'draft international standard', 'automotive_design', 1998, #145 ) ;
#167 =( CONVERSION_BASED_UNIT ( 'INCH', #47 ) LENGTH_UNIT ( ) NAMED_UNIT ( #175 ) );
#168 = ORIENTED_EDGE ( 'NONE', *, *, #252, .T. ) ;
#169 = CARTESIAN_POINT ( 'NONE',  ( 0.000000000000000000, 0.1250000000000000278, -0.1249999999999999861 ) ) ;
#170 = EDGE_LOOP ( 'NONE', ( #126, #78, #371, #33, #367 ) ) ;
#171 = COLOUR_RGB ( '',1.000000000000000000, 0.000000000000000000, 0.000000000000000000 ) ;
#172 = EDGE_LOOP ( 'NONE', ( #57, #320 ) ) ;
#173 =( CONVERSION_BASED_UNIT ( 'INCH', #262 ) LENGTH_UNIT ( ) NAMED_UNIT ( #346 ) );
#174 = CARTESIAN_POINT ( 'NONE',  ( 0.1249999999999998751, 3.000000000000000444, 0.000000000000000000 ) ) ;
#175 = DIMENSIONAL_EXPONENTS ( 1.000000000000000000, 0.000000000000000000, 0.000000000000000000, 0.000000000000000000, 0.000000000000000000, 0.000000000000000000, 0.000000000000000000 ) ;
#176 = VERTEX_POINT ( 'NONE', #271 ) ;
#177 = FACE_OUTER_BOUND ( 'NONE', #9, .T. ) ;
#178 = CYLINDRICAL_SURFACE ( 'NONE', #184, 0.1249999999999999306 ) ;
#179 = DIRECTION ( 'NONE',  ( 0.000000000000000000, 0.000000000000000000, -1.000000000000000000 ) ) ;
#180 = SURFACE_STYLE_USAGE ( .BOTH. , #100 ) ;
#181 = DIRECTION ( 'NONE',  ( -1.224646799147353700E-16, 1.000000000000000000, 0.000000000000000000 ) ) ;
#182 = EDGE_CURVE ( 'NONE', #69, #111, #302, .T. ) ;
#183 = PRESENTATION_STYLE_ASSIGNMENT (( #6 ) ) ;
#184 = AXIS2_PLACEMENT_3D ( 'NONE', #248, #137, #158 ) ;
#185 = SPHERICAL_SURFACE ( 'NONE', #4, 0.1250000000000000000 ) ;
#186 =( NAMED_UNIT ( * ) PLANE_ANGLE_UNIT ( ) SI_UNIT ( $, .RADIAN. ) );
#187 = PLANE ( 'NONE',  #125 ) ;
#188 = CARTESIAN_POINT ( 'NONE',  ( -1.530808498934191509E-17, 0.1250000000000000000, 0.000000000000000000 ) ) ;
#189 = DIRECTION ( 'NONE',  ( -1.000000000000000000, 0.000000000000000000, 0.000000000000000000 ) ) ;
#190 = AXIS2_PLACEMENT_3D ( 'NONE', #256, #75, #364 ) ;
#191 = ADVANCED_BREP_SHAPE_REPRESENTATION ( '83285', ( #236, #121, #32 ), #274 ) ;
#192 = DIRECTION ( 'NONE',  ( -0.000000000000000000, -1.000000000000000000, -0.000000000000000000 ) ) ;
#193 =( NAMED_UNIT ( * ) SI_UNIT ( $, .STERADIAN. ) SOLID_ANGLE_UNIT ( ) );
#194 = ADVANCED_FACE ( 'NONE', ( #65 ), #187, .F. ) ;
#195 = CIRCLE ( 'NONE', #341, 0.1249999999999999861 ) ;
#196 = ORIENTED_EDGE ( 'NONE', *, *, #324, .T. ) ;
#197 = CARTESIAN_POINT ( 'NONE',  ( -6.123233995736772199E-17, 3.000000000000000444, 0.000000000000000000 ) ) ;
#198 = CIRCLE ( 'NONE', #312, 0.1249999999999997086 ) ;
#199 = VECTOR ( 'NONE', #80, 39.37007874015748143 ) ;
#200 = DIRECTION ( 'NONE',  ( -1.224646799147353700E-16, 1.000000000000000000, -0.000000000000000000 ) ) ;
#201 = CIRCLE ( 'NONE', #14, 0.1249999999999998751 ) ;
#202 =( NAMED_UNIT ( * ) PLANE_ANGLE_UNIT ( ) SI_UNIT ( $, .RADIAN. ) );
#203 = SURFACE_STYLE_USAGE ( .BOTH. , #229 ) ;
#204 = CLOSED_SHELL ( 'NONE', ( #250, #194, #31, #103 ) ) ;
#205 = STYLED_ITEM ( 'NONE', ( #354 ), #121 ) ;
#206 = ORIENTED_EDGE ( 'NONE', *, *, #182, .T. ) ;
#207 = DIRECTION ( 'NONE',  ( 0.000000000000000000, 0.000000000000000000, -1.000000000000000000 ) ) ;
#208 = ADVANCED_FACE ( 'NONE', ( #303 ), #278, .T. ) ;
#209 = ORIENTED_EDGE ( 'NONE', *, *, #44, .T. ) ;
#210 = PRODUCT_DEFINITION ( 'UNKNOWN', '', #95, #313 ) ;
#211 = DIRECTION ( 'NONE',  ( -1.000000000000000000, -1.224646799147353700E-16, 0.000000000000000000 ) ) ;
#212 = FACE_OUTER_BOUND ( 'NONE', #285, .T. ) ;
#213 = CIRCLE ( 'NONE', #83, 0.1249999999999999861 ) ;
#214 = SURFACE_SIDE_STYLE ('',( #329 ) ) ;
#215 = UNCERTAINTY_MEASURE_WITH_UNIT (LENGTH_MEASURE( 1.000000000000000082E-05 ), #136, 'distance_accuracy_value', 'NONE');
#216 = AXIS2_PLACEMENT_3D ( 'NONE', #219, #26, #50 ) ;
#217 = ORIENTED_EDGE ( 'NONE', *, *, #261, .T. ) ;
#218 = CARTESIAN_POINT ( 'NONE',  ( 0.000000000000000000, 0.000000000000000000, 0.000000000000000000 ) ) ;
#219 = CARTESIAN_POINT ( 'NONE',  ( 0.000000000000000000, 1.000000000000000000, 0.000000000000000000 ) ) ;
#220 = LENGTH_MEASURE_WITH_UNIT ( LENGTH_MEASURE( 0.02539999999999999897 ), #327 );
#221 = EDGE_LOOP ( 'NONE', ( #20, #276, #270, #55 ) ) ;
#222 =( GEOMETRIC_REPRESENTATION_CONTEXT ( 3 ) GLOBAL_UNCERTAINTY_ASSIGNED_CONTEXT ( ( #159 ) ) GLOBAL_UNIT_ASSIGNED_CONTEXT ( ( #141, #343, #288 ) ) REPRESENTATION_CONTEXT ( 'NONE', 'WORKASPACE' ) );
#223 = COLOUR_RGB ( '',0.7921568627450980005, 0.8196078431372548767, 0.9333333333333333481 ) ;
#224 = LINE ( 'NONE', #164, #199 ) ;
#225 = DIRECTION ( 'NONE',  ( -0.000000000000000000, -1.000000000000000000, -0.000000000000000000 ) ) ;
#226 = EDGE_LOOP ( 'NONE', ( #297, #209, #86, #168 ) ) ;
#227 = ADVANCED_FACE ( 'NONE', ( #279 ), #130, .T. ) ;
#228 = DIRECTION ( 'NONE',  ( 0.000000000000000000, 0.000000000000000000, -1.000000000000000000 ) ) ;
#229 = SURFACE_SIDE_STYLE ('',( #296 ) ) ;
#230 = PRODUCT ( '83285', '83285', '', ( #336 ) ) ;
#231 = STYLED_ITEM ( 'NONE', ( #128 ), #227 ) ;
#232 =( CONVERSION_BASED_UNIT ( 'INCH', #120 ) LENGTH_UNIT ( ) NAMED_UNIT ( #30 ) );
#233 =( NAMED_UNIT ( * ) SI_UNIT ( $, .STERADIAN. ) SOLID_ANGLE_UNIT ( ) );
#234 = FILL_AREA_STYLE_COLOUR ( '', #360 ) ;
#235 = VECTOR ( 'NONE', #54, 39.37007874015748143 ) ;
#236 = MANIFOLD_SOLID_BREP ( 'Revolve - Cutting Edge', #94 ) ;
#237 = VERTEX_POINT ( 'NONE', #337 ) ;
#238 = PRESENTATION_STYLE_ASSIGNMENT (( #180 ) ) ;
#239 =( LENGTH_UNIT ( ) NAMED_UNIT ( * ) SI_UNIT ( $, .METRE. ) );
#240 = ORIENTED_EDGE ( 'NONE', *, *, #344, .F. ) ;
#241 = LENGTH_MEASURE_WITH_UNIT ( LENGTH_MEASURE( 0.02539999999999999897 ), #155 );
#242 = ORIENTED_EDGE ( 'NONE', *, *, #97, .T. ) ;
#243 = DIRECTION ( 'NONE',  ( -1.224646799147353700E-16, 1.000000000000000000, -0.000000000000000000 ) ) ;
#244 = AXIS2_PLACEMENT_3D ( 'NONE', #257, #366, #19 ) ;
#245 = LENGTH_MEASURE_WITH_UNIT ( LENGTH_MEASURE( 0.02539999999999999897 ), #8 );
#246 =( GEOMETRIC_REPRESENTATION_CONTEXT ( 3 ) GLOBAL_UNCERTAINTY_ASSIGNED_CONTEXT ( ( #293 ) ) GLOBAL_UNIT_ASSIGNED_CONTEXT ( ( #167, #17, #105 ) ) REPRESENTATION_CONTEXT ( 'NONE', 'WORKASPACE' ) );
#247 = LINE ( 'NONE', #123, #322 ) ;
#248 = CARTESIAN_POINT ( 'NONE',  ( 0.000000000000000000, 0.000000000000000000, 0.000000000000000000 ) ) ;
#249 = UNCERTAINTY_MEASURE_WITH_UNIT (LENGTH_MEASURE( 1.000000000000000082E-05 ), #129, 'distance_accuracy_value', 'NONE');
#250 = ADVANCED_FACE ( 'NONE', ( #335 ), #108, .T. ) ;
#251 = STYLED_ITEM ( 'NONE', ( #35 ), #148 ) ;
#252 = EDGE_CURVE ( 'NONE', #237, #138, #213, .T. ) ;
#253 = FILL_AREA_STYLE ('',( #53 ) ) ;
#254 = UNCERTAINTY_MEASURE_WITH_UNIT (LENGTH_MEASURE( 1.000000000000000082E-05 ), #173, 'distance_accuracy_value', 'NONE');
#255 = DIRECTION ( 'NONE',  ( 1.224646799147353207E-16, -0.000000000000000000, 1.000000000000000000 ) ) ;
#256 = CARTESIAN_POINT ( 'NONE',  ( 0.000000000000000000, 0.000000000000000000, 0.000000000000000000 ) ) ;
#257 = CARTESIAN_POINT ( 'NONE',  ( -6.123233995736772199E-17, 3.000000000000000444, 0.000000000000000000 ) ) ;
#258 = APPLICATION_CONTEXT ( 'automotive_design' ) ;
#259 = CIRCLE ( 'NONE', #88, 0.1250000000000000000 ) ;
#260 =( NAMED_UNIT ( * ) SI_UNIT ( $, .STERADIAN. ) SOLID_ANGLE_UNIT ( ) );
#261 = EDGE_CURVE ( 'NONE', #263, #282, #224, .T. ) ;
#262 = LENGTH_MEASURE_WITH_UNIT ( LENGTH_MEASURE( 0.02539999999999999897 ), #96 );
#263 = VERTEX_POINT ( 'NONE', #369 ) ;
#264 = SURFACE_STYLE_FILL_AREA ( #292 ) ;
#265 = CARTESIAN_POINT ( 'NONE',  ( 0.000000000000000000, 1.000000000000000000, 0.000000000000000000 ) ) ;
#266 = MECHANICAL_DESIGN_GEOMETRIC_PRESENTATION_REPRESENTATION (  '', ( #340 ), #46 ) ;
#267 = FILL_AREA_STYLE ('',( #90 ) ) ;
#268 = ORIENTED_EDGE ( 'NONE', *, *, #107, .T. ) ;
#269 = EDGE_CURVE ( 'NONE', #74, #111, #314, .T. ) ;
#270 = ORIENTED_EDGE ( 'NONE', *, *, #71, .F. ) ;
#271 = CARTESIAN_POINT ( 'NONE',  ( 0.1249999999999998751, 1.000000000000000000, 1.530808498934190276E-17 ) ) ;
#272 =( GEOMETRIC_REPRESENTATION_CONTEXT ( 3 ) GLOBAL_UNCERTAINTY_ASSIGNED_CONTEXT ( ( #254 ) ) GLOBAL_UNIT_ASSIGNED_CONTEXT ( ( #173, #202, #373 ) ) REPRESENTATION_CONTEXT ( 'NONE', 'WORKASPACE' ) );
#273 = PRODUCT_RELATED_PRODUCT_CATEGORY ( 'part', '', ( #230 ) ) ;
#274 =( GEOMETRIC_REPRESENTATION_CONTEXT ( 3 ) GLOBAL_UNCERTAINTY_ASSIGNED_CONTEXT ( ( #215 ) ) GLOBAL_UNIT_ASSIGNED_CONTEXT ( ( #136, #21, #193 ) ) REPRESENTATION_CONTEXT ( 'NONE', 'WORKASPACE' ) );
#275 = PLANE ( 'NONE',  #216 ) ;
#276 = ORIENTED_EDGE ( 'NONE', *, *, #306, .T. ) ;
#277 = CARTESIAN_POINT ( 'NONE',  ( 0.000000000000000000, 0.1250000000000000278, 0.000000000000000000 ) ) ;
#278 = SPHERICAL_SURFACE ( 'NONE', #307, 0.1250000000000000000 ) ;
#279 = FACE_OUTER_BOUND ( 'NONE', #325, .T. ) ;
#280 = CIRCLE ( 'NONE', #37, 0.1249999999999999445 ) ;
#281 = SURFACE_STYLE_FILL_AREA ( #163 ) ;
#282 = VERTEX_POINT ( 'NONE', #169 ) ;
#283 =( LENGTH_UNIT ( ) NAMED_UNIT ( * ) SI_UNIT ( $, .METRE. ) );
#284 = CARTESIAN_POINT ( 'NONE',  ( -0.1249999999999999029, 3.000000000000000444, 0.000000000000000000 ) ) ;
#285 = EDGE_LOOP ( 'NONE', ( #240, #59 ) ) ;
#286 =( GEOMETRIC_REPRESENTATION_CONTEXT ( 3 ) GLOBAL_UNCERTAINTY_ASSIGNED_CONTEXT ( ( #25 ) ) GLOBAL_UNIT_ASSIGNED_CONTEXT ( ( #331, #7, #260 ) ) REPRESENTATION_CONTEXT ( 'NONE', 'WORKASPACE' ) );
#287 = PRESENTATION_STYLE_ASSIGNMENT (( #24 ) ) ;
#288 =( NAMED_UNIT ( * ) SI_UNIT ( $, .STERADIAN. ) SOLID_ANGLE_UNIT ( ) );
#289 = DIRECTION ( 'NONE',  ( -1.000000000000000000, 0.000000000000000000, 0.000000000000000000 ) ) ;
#290 = CARTESIAN_POINT ( 'NONE',  ( 1.530808498934190585E-17, 1.000000000000000000, 0.1249999999999998751 ) ) ;
#291 = ORIENTED_EDGE ( 'NONE', *, *, #363, .F. ) ;
#292 = FILL_AREA_STYLE ('',( #234 ) ) ;
#293 = UNCERTAINTY_MEASURE_WITH_UNIT (LENGTH_MEASURE( 1.000000000000000082E-05 ), #167, 'distance_accuracy_value', 'NONE');
#294 = CARTESIAN_POINT ( 'NONE',  ( -0.1250000000000000278, 3.000000000000000444, 0.000000000000000000 ) ) ;
#295 = VECTOR ( 'NONE', #51, 39.37007874015748143 ) ;
#296 = SURFACE_STYLE_FILL_AREA ( #267 ) ;
#297 = ORIENTED_EDGE ( 'NONE', *, *, #330, .T. ) ;
#298 = CARTESIAN_POINT ( 'NONE',  ( 0.000000000000000000, 0.1250000000000000278, 0.000000000000000000 ) ) ;
#299 = SURFACE_STYLE_USAGE ( .BOTH. , #323 ) ;
#300 =( LENGTH_UNIT ( ) NAMED_UNIT ( * ) SI_UNIT ( $, .METRE. ) );
#301 = DIRECTION ( 'NONE',  ( 1.000000000000000000, 0.000000000000000000, 0.000000000000000000 ) ) ;
#302 = CIRCLE ( 'NONE', #18, 0.1249999999999999445 ) ;
#303 = FACE_OUTER_BOUND ( 'NONE', #357, .T. ) ;
#304 =( NAMED_UNIT ( * ) SI_UNIT ( $, .STERADIAN. ) SOLID_ANGLE_UNIT ( ) );
#305 = SURFACE_SIDE_STYLE ('',( #39 ) ) ;
#306 = EDGE_CURVE ( 'NONE', #176, #69, #116, .T. ) ;
#307 = AXIS2_PLACEMENT_3D ( 'NONE', #127, #149, #301 ) ;
#308 = PRESENTATION_LAYER_ASSIGNMENT (  '', '', ( #359 ) ) ;
#309 = APPLICATION_PROTOCOL_DEFINITION ( 'draft international standard', 'automotive_design', 1998, #258 ) ;
#310 = CARTESIAN_POINT ( 'NONE',  ( 0.1249999999999997641, 3.000000000000000444, 1.530808498934189352E-17 ) ) ;
#311 = ORIENTED_EDGE ( 'NONE', *, *, #182, .F. ) ;
#312 = AXIS2_PLACEMENT_3D ( 'NONE', #63, #200, #89 ) ;
#313 = PRODUCT_DEFINITION_CONTEXT ( 'detailed design', #145, 'design' ) ;
#314 = LINE ( 'NONE', #284, #235 ) ;
#315 = DIRECTION ( 'NONE',  ( -1.224646799147353700E-16, 1.000000000000000000, -0.000000000000000000 ) ) ;
#316 = MECHANICAL_DESIGN_GEOMETRIC_PRESENTATION_REPRESENTATION (  '', ( #231 ), #286 ) ;
#317 = CARTESIAN_POINT ( 'NONE',  ( 1.530808498934191509E-17, 0.1250000000000000278, 0.1249999999999999861 ) ) ;
#318 = DIRECTION ( 'NONE',  ( -0.000000000000000000, -1.000000000000000000, -0.000000000000000000 ) ) ;
#319 = FACE_OUTER_BOUND ( 'NONE', #170, .T. ) ;
#320 = ORIENTED_EDGE ( 'NONE', *, *, #107, .F. ) ;
#321 = MECHANICAL_DESIGN_GEOMETRIC_PRESENTATION_REPRESENTATION (  '', ( #251 ), #272 ) ;
#322 = VECTOR ( 'NONE', #355, 39.37007874015748143 ) ;
#323 = SURFACE_SIDE_STYLE ('',( #264 ) ) ;
#324 = EDGE_CURVE ( 'NONE', #98, #263, #52, .T. ) ;
#325 = EDGE_LOOP ( 'NONE', ( #142, #196, #217, #291, #147 ) ) ;
#326 = DIRECTION ( 'NONE',  ( 1.000000000000000000, 0.000000000000000000, 0.000000000000000000 ) ) ;
#327 =( LENGTH_UNIT ( ) NAMED_UNIT ( * ) SI_UNIT ( $, .METRE. ) );
#328 = PRESENTATION_LAYER_ASSIGNMENT (  '', '', ( #67 ) ) ;
#329 = SURFACE_STYLE_FILL_AREA ( #102 ) ;
#330 = EDGE_CURVE ( 'NONE', #138, #81, #62, .T. ) ;
#331 =( CONVERSION_BASED_UNIT ( 'INCH', #45 ) LENGTH_UNIT ( ) NAMED_UNIT ( #350 ) );
#332 = SURFACE_SIDE_STYLE ('',( #281 ) ) ;
#333 = AXIS2_PLACEMENT_3D ( 'NONE', #298, #318, #34 ) ;
#334 = ADVANCED_FACE ( 'NONE', ( #345 ), #185, .T. ) ;
#335 = FACE_OUTER_BOUND ( 'NONE', #221, .T. ) ;
#336 = PRODUCT_CONTEXT ( 'NONE', #258, 'mechanical' ) ;
#337 = CARTESIAN_POINT ( 'NONE',  ( 0.1249999999999999861, 0.1250000000000000278, 0.000000000000000000 ) ) ;
#338 = ORIENTED_EDGE ( 'NONE', *, *, #306, .F. ) ;
#339 = CARTESIAN_POINT ( 'NONE',  ( 0.000000000000000000, 0.1250000000000000278, 0.000000000000000000 ) ) ;
#340 = STYLED_ITEM ( 'NONE', ( #42 ), #208 ) ;
#341 = AXIS2_PLACEMENT_3D ( 'NONE', #277, #10, #207 ) ;
#342 = EDGE_CURVE ( 'NONE', #98, #138, #247, .T. ) ;
#343 =( NAMED_UNIT ( * ) PLANE_ANGLE_UNIT ( ) SI_UNIT ( $, .RADIAN. ) );
#344 = EDGE_CURVE ( 'NONE', #263, #98, #201, .T. ) ;
#345 = FACE_OUTER_BOUND ( 'NONE', #226, .T. ) ;
#346 = DIMENSIONAL_EXPONENTS ( 1.000000000000000000, 0.000000000000000000, 0.000000000000000000, 0.000000000000000000, 0.000000000000000000, 0.000000000000000000, 0.000000000000000000 ) ;
#347 =( LENGTH_UNIT ( ) NAMED_UNIT ( * ) SI_UNIT ( $, .METRE. ) );
#348 = MECHANICAL_DESIGN_GEOMETRIC_PRESENTATION_REPRESENTATION (  '', ( #205 ), #38 ) ;
#349 = DIMENSIONAL_EXPONENTS ( 1.000000000000000000, 0.000000000000000000, 0.000000000000000000, 0.000000000000000000, 0.000000000000000000, 0.000000000000000000, 0.000000000000000000 ) ;
#350 = DIMENSIONAL_EXPONENTS ( 1.000000000000000000, 0.000000000000000000, 0.000000000000000000, 0.000000000000000000, 0.000000000000000000, 0.000000000000000000, 0.000000000000000000 ) ;
#351 = UNCERTAINTY_MEASURE_WITH_UNIT (LENGTH_MEASURE( 1.000000000000000082E-05 ), #232, 'distance_accuracy_value', 'NONE');
#352 = DIRECTION ( 'NONE',  ( 0.000000000000000000, 0.000000000000000000, -1.000000000000000000 ) ) ;
#353 = PRESENTATION_LAYER_ASSIGNMENT (  '', '', ( #340 ) ) ;
#354 = PRESENTATION_STYLE_ASSIGNMENT (( #203 ) ) ;
#355 = DIRECTION ( 'NONE',  ( -0.000000000000000000, -1.000000000000000000, -0.000000000000000000 ) ) ;
#356 = DIRECTION ( 'NONE',  ( -1.000000000000000000, 0.000000000000000000, 0.000000000000000000 ) ) ;
#357 = EDGE_LOOP ( 'NONE', ( #49, #365, #242, #72 ) ) ;
#358 = STYLED_ITEM ( 'NONE', ( #183 ), #23 ) ;
#359 = STYLED_ITEM ( 'NONE', ( #238 ), #334 ) ;
#360 = COLOUR_RGB ( '',1.000000000000000000, 0.000000000000000000, 0.000000000000000000 ) ;
#361 = MECHANICAL_DESIGN_GEOMETRIC_PRESENTATION_REPRESENTATION (  '', ( #359 ), #134 ) ;
#362 = CARTESIAN_POINT ( 'NONE',  ( -0.1249999999999995143, 1.000000000000000000, 0.000000000000000000 ) ) ;
#363 = EDGE_CURVE ( 'NONE', #81, #282, #195, .T. ) ;
#364 = DIRECTION ( 'NONE',  ( 0.000000000000000000, 0.000000000000000000, -1.000000000000000000 ) ) ;
#365 = ORIENTED_EDGE ( 'NONE', *, *, #363, .T. ) ;
#366 = DIRECTION ( 'NONE',  ( -1.224646799147353700E-16, 1.000000000000000000, -0.000000000000000000 ) ) ;
#367 = ORIENTED_EDGE ( 'NONE', *, *, #261, .F. ) ;
#368 = COLOUR_RGB ( '',0.7921568627450980005, 0.8196078431372548767, 0.9333333333333333481 ) ;
#369 = CARTESIAN_POINT ( 'NONE',  ( 0.000000000000000000, 1.000000000000000000, -0.1249999999999998751 ) ) ;
#370 = CARTESIAN_POINT ( 'NONE',  ( 0.000000000000000000, 0.1250000000000000278, 0.000000000000000000 ) ) ;
#371 = ORIENTED_EDGE ( 'NONE', *, *, #252, .F. ) ;
#372 = MECHANICAL_DESIGN_GEOMETRIC_PRESENTATION_REPRESENTATION (  '', ( #67 ), #246 ) ;
#373 =( NAMED_UNIT ( * ) SI_UNIT ( $, .STERADIAN. ) SOLID_ANGLE_UNIT ( ) );
ENDSEC;
END-ISO-10303-21;
