ISO-10303-21;
HEADER;
FILE_DESCRIPTION (( 'STEP AP214' ),
    '1' );
FILE_NAME ('Micro_SME-050-2X.STEP',
    '2021-09-02T12:07:41',
    ( '' ),
    ( '' ),
    'SwSTEP 2.0',
    'SolidWorks 2020',
    '' );
FILE_SCHEMA (( 'AUTOMOTIVE_DESIGN' ));
ENDSEC;

DATA;
#1 = CIRCLE ( 'NONE', #42, 0.02497500000000000414 ) ;
#2 = AXIS2_PLACEMENT_3D ( 'NONE', #15, #221, #287 ) ;
#3 = ORIENTED_EDGE ( 'NONE', *, *, #258, .F. ) ;
#4 = ORIENTED_EDGE ( 'NONE', *, *, #125, .T. ) ;
#5 = DIRECTION ( 'NONE',  ( -1.000000000000000000, 0.0000000000000000000, 1.224646799147353700E-16 ) ) ;
#6 = VERTEX_POINT ( 'NONE', #103 ) ;
#7 = FACE_OUTER_BOUND ( 'NONE', #36, .T. ) ;
#8 = LINE ( 'NONE', #256, #295 ) ;
#9 = CARTESIAN_POINT ( 'NONE',  ( -0.02497499999999999720, 5.356298937770737018E-18, 0.07499999999999999722 ) ) ;
#10 = ORIENTED_EDGE ( 'NONE', *, *, #162, .F. ) ;
#11 = CARTESIAN_POINT ( 'NONE',  ( 0.02497500000000001455, 0.0000000000000000000, 0.07499999999999999722 ) ) ;
#12 = EDGE_CURVE ( 'NONE', #72, #277, #197, .T. ) ;
#13 = ORIENTED_EDGE ( 'NONE', *, *, #254, .F. ) ;
#14 = APPLICATION_CONTEXT ( 'automotive_design' ) ;
#15 = CARTESIAN_POINT ( 'NONE',  ( 0.0000000000000000000, 0.0000000000000000000, 1.500000000000000222 ) ) ;
#16 = VERTEX_POINT ( 'NONE', #220 ) ;
#17 = EDGE_CURVE ( 'NONE', #49, #100, #291, .T. ) ;
#18 = EDGE_CURVE ( 'NONE', #238, #6, #275, .T. ) ;
#19 = AXIS2_PLACEMENT_3D ( 'NONE', #104, #54, #128 ) ;
#20 = CONICAL_SURFACE ( 'NONE', #212, 0.02497500000000000414, 0.1745329251994339192 ) ;
#21 = ORIENTED_EDGE ( 'NONE', *, *, #18, .T. ) ;
#22 = PRODUCT_CONTEXT ( 'NONE', #14, 'mechanical' ) ;
#23 = ORIENTED_EDGE ( 'NONE', *, *, #150, .T. ) ;
#24 = DIRECTION ( 'NONE',  ( -0.0000000000000000000, -0.0000000000000000000, -1.000000000000000000 ) ) ;
#25 = DIRECTION ( 'NONE',  ( -1.000000000000000000, 0.0000000000000000000, 1.224646799147353700E-16 ) ) ;
#26 = EDGE_LOOP ( 'NONE', ( #53, #21, #297, #172 ) ) ;
#27 = FACE_OUTER_BOUND ( 'NONE', #62, .T. ) ;
#28 = DIRECTION ( 'NONE',  ( -0.0000000000000000000, -0.0000000000000000000, -1.000000000000000000 ) ) ;
#29 =( CONVERSION_BASED_UNIT ( 'INCH', #151 ) LENGTH_UNIT ( ) NAMED_UNIT ( #44 ) );
#30 = ORIENTED_EDGE ( 'NONE', *, *, #110, .T. ) ;
#31 = DIRECTION ( 'NONE',  ( 0.0000000000000000000, 0.0000000000000000000, 1.000000000000000000 ) ) ;
#32 = ORIENTED_EDGE ( 'NONE', *, *, #160, .T. ) ;
#33 = DIRECTION ( 'NONE',  ( -1.224646799147353700E-16, -0.0000000000000000000, -1.000000000000000000 ) ) ;
#34 = CARTESIAN_POINT ( 'NONE',  ( -0.06250000000000002776, 0.0000000000000000000, 1.500000000000000222 ) ) ;
#35 =( GEOMETRIC_REPRESENTATION_CONTEXT ( 3 ) GLOBAL_UNCERTAINTY_ASSIGNED_CONTEXT ( ( #161 ) ) GLOBAL_UNIT_ASSIGNED_CONTEXT ( ( #29, #203, #37 ) ) REPRESENTATION_CONTEXT ( 'NONE', 'WORKASPACE' ) );
#36 = EDGE_LOOP ( 'NONE', ( #3, #23, #99, #13 ) ) ;
#37 =( NAMED_UNIT ( * ) SI_UNIT ( $, .STERADIAN. ) SOLID_ANGLE_UNIT ( ) );
#38 = ADVANCED_FACE ( 'NONE', ( #66 ), #45, .T. ) ;
#39 = PRESENTATION_LAYER_ASSIGNMENT (  '', '', ( #174 ) ) ;
#40 = DIMENSIONAL_EXPONENTS ( 1.000000000000000000, 0.0000000000000000000, 0.0000000000000000000, 0.0000000000000000000, 0.0000000000000000000, 0.0000000000000000000, 0.0000000000000000000 ) ;
#41 = DIRECTION ( 'NONE',  ( 0.0000000000000000000, 0.0000000000000000000, -1.000000000000000000 ) ) ;
#42 = AXIS2_PLACEMENT_3D ( 'NONE', #206, #182, #272 ) ;
#43 = VECTOR ( 'NONE', #208, 39.37007874015748143 ) ;
#44 = DIMENSIONAL_EXPONENTS ( 1.000000000000000000, 0.0000000000000000000, 0.0000000000000000000, 0.0000000000000000000, 0.0000000000000000000, 0.0000000000000000000, 0.0000000000000000000 ) ;
#45 = CYLINDRICAL_SURFACE ( 'NONE', #106, 0.06250000000000002776 ) ;
#46 = CARTESIAN_POINT ( 'NONE',  ( 9.184850993605151827E-18, 0.0000000000000000000, 0.07499999999999999722 ) ) ;
#47 = EDGE_CURVE ( 'NONE', #77, #70, #111, .T. ) ;
#48 = SURFACE_STYLE_FILL_AREA ( #118 ) ;
#49 = VERTEX_POINT ( 'NONE', #81 ) ;
#50 = CONICAL_SURFACE ( 'NONE', #97, 0.04750000000000064587, 0.7853981633974466137 ) ;
#51 = SHAPE_DEFINITION_REPRESENTATION ( #276, #288 ) ;
#52 = SURFACE_SIDE_STYLE ('',( #155 ) ) ;
#53 = ORIENTED_EDGE ( 'NONE', *, *, #239, .F. ) ;
#54 = DIRECTION ( 'NONE',  ( -0.0000000000000000000, -0.0000000000000000000, -1.000000000000000000 ) ) ;
#55 = ORIENTED_EDGE ( 'NONE', *, *, #254, .T. ) ;
#56 = CIRCLE ( 'NONE', #76, 0.06250000000000002776 ) ;
#57 = CARTESIAN_POINT ( 'NONE',  ( 0.0000000000000000000, 0.0000000000000000000, 0.0000000000000000000 ) ) ;
#59 = EDGE_LOOP ( 'NONE', ( #10, #4, #123, #86 ) ) ;
#58 = CARTESIAN_POINT ( 'NONE',  ( 0.0000000000000000000, 0.0000000000000000000, 0.0000000000000000000 ) ) ;
#60 = ADVANCED_FACE ( 'NONE', ( #91 ), #50, .T. ) ;
#61 = DIRECTION ( 'NONE',  ( 0.0000000000000000000, 0.0000000000000000000, 1.000000000000000000 ) ) ;
#62 = EDGE_LOOP ( 'NONE', ( #216, #55 ) ) ;
#63 = CONICAL_SURFACE ( 'NONE', #193, 0.04750000000000064587, 0.7853981633974466137 ) ;
#64 = LENGTH_MEASURE_WITH_UNIT ( LENGTH_MEASURE( 0.02539999999999999897 ), #67 );
#65 = ADVANCED_FACE ( 'NONE', ( #191 ), #200, .T. ) ;
#66 = FACE_OUTER_BOUND ( 'NONE', #282, .T. ) ;
#67 =( LENGTH_UNIT ( ) NAMED_UNIT ( * ) SI_UNIT ( $, .METRE. ) );
#68 = CARTESIAN_POINT ( 'NONE',  ( -0.06250000000000002776, 0.0000000000000000000, 1.485000000000000764 ) ) ;
#69 = CIRCLE ( 'NONE', #278, 0.06250000000000002776 ) ;
#70 = VERTEX_POINT ( 'NONE', #195 ) ;
#71 = DIRECTION ( 'NONE',  ( 1.000000000000000000, 0.0000000000000000000, 0.0000000000000000000 ) ) ;
#72 = VERTEX_POINT ( 'NONE', #199 ) ;
#73 = DIRECTION ( 'NONE',  ( 0.7071067811865462405, 8.659560562354916834E-17, -0.7071067811865486830 ) ) ;
#74 = ADVANCED_FACE ( 'NONE', ( #148 ), #63, .T. ) ;
#75 = PLANE ( 'NONE',  #88 ) ;
#76 = AXIS2_PLACEMENT_3D ( 'NONE', #296, #253, #95 ) ;
#77 = VERTEX_POINT ( 'NONE', #11 ) ;
#78 = PRODUCT ( 'Micro_SME-050-2X', 'Micro_SME-050-2X', '', ( #22 ) ) ;
#79 = DIRECTION ( 'NONE',  ( -1.224646799147353700E-16, -0.0000000000000000000, -1.000000000000000000 ) ) ;
#80 = CARTESIAN_POINT ( 'NONE',  ( 9.184850993605151827E-18, 0.0000000000000000000, 0.07499999999999999722 ) ) ;
#81 = CARTESIAN_POINT ( 'NONE',  ( -0.02497500000000000067, 0.0000000000000000000, 6.117110761741031440E-18 ) ) ;
#82 = DIRECTION ( 'NONE',  ( 1.224646799147353700E-16, 0.0000000000000000000, 1.000000000000000000 ) ) ;
#83 = CARTESIAN_POINT ( 'NONE',  ( 0.0000000000000000000, 0.0000000000000000000, 1.500000000000000222 ) ) ;
#84 = FACE_OUTER_BOUND ( 'NONE', #281, .T. ) ;
#85 = MECHANICAL_DESIGN_GEOMETRIC_PRESENTATION_REPRESENTATION (  '', ( #174 ), #122 ) ;
#86 = ORIENTED_EDGE ( 'NONE', *, *, #47, .F. ) ;
#87 = DIRECTION ( 'NONE',  ( 1.224646799147353700E-16, 0.0000000000000000000, 1.000000000000000000 ) ) ;
#88 = AXIS2_PLACEMENT_3D ( 'NONE', #176, #31, #181 ) ;
#89 = LINE ( 'NONE', #227, #43 ) ;
#90 = CARTESIAN_POINT ( 'NONE',  ( 3.745650057197992530E-34, 0.0000000000000000000, 3.058555380870515720E-18 ) ) ;
#91 = FACE_OUTER_BOUND ( 'NONE', #26, .T. ) ;
#92 = DIRECTION ( 'NONE',  ( 0.0000000000000000000, 0.0000000000000000000, 1.000000000000000000 ) ) ;
#93 = CIRCLE ( 'NONE', #159, 0.04750000000000064587 ) ;
#94 = VECTOR ( 'NONE', #242, 39.37007874015748143 ) ;
#95 = DIRECTION ( 'NONE',  ( 1.000000000000000000, 0.0000000000000000000, 0.0000000000000000000 ) ) ;
#96 = ORIENTED_EDGE ( 'NONE', *, *, #150, .F. ) ;
#97 = AXIS2_PLACEMENT_3D ( 'NONE', #168, #188, #140 ) ;
#98 =( GEOMETRIC_REPRESENTATION_CONTEXT ( 3 ) GLOBAL_UNCERTAINTY_ASSIGNED_CONTEXT ( ( #204 ) ) GLOBAL_UNIT_ASSIGNED_CONTEXT ( ( #274, #186, #230 ) ) REPRESENTATION_CONTEXT ( 'NONE', 'WORKASPACE' ) );
#99 = ORIENTED_EDGE ( 'NONE', *, *, #196, .T. ) ;
#100 = VERTEX_POINT ( 'NONE', #154 ) ;
#101 = EDGE_LOOP ( 'NONE', ( #171, #126 ) ) ;
#102 = LINE ( 'NONE', #298, #260 ) ;
#103 = CARTESIAN_POINT ( 'NONE',  ( 0.06250000000000002776, 7.654042494670959086E-18, 1.485000000000000764 ) ) ;
#104 = CARTESIAN_POINT ( 'NONE',  ( 0.0000000000000000000, 0.0000000000000000000, 1.500000000000000222 ) ) ;
#105 = APPLICATION_CONTEXT ( 'automotive_design' ) ;
#106 = AXIS2_PLACEMENT_3D ( 'NONE', #139, #190, #229 ) ;
#107 = ADVANCED_FACE ( 'NONE', ( #234 ), #75, .T. ) ;
#108 = ORIENTED_EDGE ( 'NONE', *, *, #243, .T. ) ;
#109 = APPLICATION_PROTOCOL_DEFINITION ( 'draft international standard', 'automotive_design', 1998, #14 ) ;
#110 = EDGE_CURVE ( 'NONE', #277, #16, #219, .T. ) ;
#111 = LINE ( 'NONE', #166, #94 ) ;
#112 = ADVANCED_FACE ( 'NONE', ( #267 ), #231, .T. ) ;
#113 = FACE_OUTER_BOUND ( 'NONE', #59, .T. ) ;
#114 = APPLICATION_PROTOCOL_DEFINITION ( 'draft international standard', 'automotive_design', 1998, #105 ) ;
#115 = AXIS2_PLACEMENT_3D ( 'NONE', #121, #214, #5 ) ;
#116 = PRODUCT_DEFINITION_FORMATION_WITH_SPECIFIED_SOURCE ( 'ANY', '', #78, .NOT_KNOWN. ) ;
#117 = SURFACE_SIDE_STYLE ('',( #48 ) ) ;
#118 = FILL_AREA_STYLE ('',( #163 ) ) ;
#119 = PRESENTATION_STYLE_ASSIGNMENT (( #146 ) ) ;
#120 = COLOUR_RGB ( '',0.7921568627450980005, 0.8196078431372548767, 0.9333333333333333481 ) ;
#121 = CARTESIAN_POINT ( 'NONE',  ( 3.745650057197992530E-34, 0.0000000000000000000, 3.058555380870515720E-18 ) ) ;
#122 =( GEOMETRIC_REPRESENTATION_CONTEXT ( 3 ) GLOBAL_UNCERTAINTY_ASSIGNED_CONTEXT ( ( #134 ) ) GLOBAL_UNIT_ASSIGNED_CONTEXT ( ( #226, #145, #164 ) ) REPRESENTATION_CONTEXT ( 'NONE', 'WORKASPACE' ) );
#123 = ORIENTED_EDGE ( 'NONE', *, *, #290, .T. ) ;
#124 = ORIENTED_EDGE ( 'NONE', *, *, #292, .T. ) ;
#125 = EDGE_CURVE ( 'NONE', #217, #16, #215, .T. ) ;
#126 = ORIENTED_EDGE ( 'NONE', *, *, #239, .T. ) ;
#127 = DIRECTION ( 'NONE',  ( -1.000000000000000000, 0.0000000000000000000, 1.224646799147353700E-16 ) ) ;
#128 = DIRECTION ( 'NONE',  ( -1.000000000000000000, 0.0000000000000000000, 0.0000000000000000000 ) ) ;
#129 = MANIFOLD_SOLID_BREP ( 'Cut-Revolve1', #198 ) ;
#130 = DIRECTION ( 'NONE',  ( -1.000000000000000000, 0.0000000000000000000, 1.224646799147353700E-16 ) ) ;
#131 = DIRECTION ( 'NONE',  ( -0.1736481776669312194, 2.126576849575783625E-17, 0.9848077530122080203 ) ) ;
#132 = CIRCLE ( 'NONE', #169, 0.02497500000000000414 ) ;
#133 = DIRECTION ( 'NONE',  ( -1.224646799147353700E-16, -0.0000000000000000000, -1.000000000000000000 ) ) ;
#134 = UNCERTAINTY_MEASURE_WITH_UNIT (LENGTH_MEASURE( 1.000000000000000082E-05 ), #226, 'distance_accuracy_value', 'NONE');
#135 = CARTESIAN_POINT ( 'NONE',  ( 0.04750000000000064587, 6.735557395310483192E-18, 1.500000000000000222 ) ) ;
#136 = COLOUR_RGB ( '',0.7921568627450980005, 0.8196078431372548767, 0.9333333333333333481 ) ;
#137 = PRESENTATION_LAYER_ASSIGNMENT (  '', '', ( #269 ) ) ;
#138 = AXIS2_PLACEMENT_3D ( 'NONE', #187, #41, #252 ) ;
#139 = CARTESIAN_POINT ( 'NONE',  ( 0.0000000000000000000, 0.0000000000000000000, 1.500000000000000222 ) ) ;
#140 = DIRECTION ( 'NONE',  ( -1.000000000000000000, 0.0000000000000000000, 0.0000000000000000000 ) ) ;
#141 = DIMENSIONAL_EXPONENTS ( 1.000000000000000000, 0.0000000000000000000, 0.0000000000000000000, 0.0000000000000000000, 0.0000000000000000000, 0.0000000000000000000, 0.0000000000000000000 ) ;
#142 = PRODUCT_RELATED_PRODUCT_CATEGORY ( 'part', '', ( #78 ) ) ;
#143 = DIRECTION ( 'NONE',  ( 1.000000000000000000, 0.0000000000000000000, 0.0000000000000000000 ) ) ;
#144 = CIRCLE ( 'NONE', #115, 0.02497500000000000067 ) ;
#145 =( NAMED_UNIT ( * ) PLANE_ANGLE_UNIT ( ) SI_UNIT ( $, .RADIAN. ) );
#146 = SURFACE_STYLE_USAGE ( .BOTH. , #52 ) ;
#147 = ORIENTED_EDGE ( 'NONE', *, *, #243, .F. ) ;
#148 = FACE_OUTER_BOUND ( 'NONE', #236, .T. ) ;
#149 = ORIENTED_EDGE ( 'NONE', *, *, #196, .F. ) ;
#150 = EDGE_CURVE ( 'NONE', #77, #217, #132, .T. ) ;
#151 = LENGTH_MEASURE_WITH_UNIT ( LENGTH_MEASURE( 0.02539999999999999897 ), #280 );
#152 = ORIENTED_EDGE ( 'NONE', *, *, #110, .F. ) ;
#153 = VECTOR ( 'NONE', #28, 39.37007874015748143 ) ;
#154 = CARTESIAN_POINT ( 'NONE',  ( 0.02497500000000000067, 3.058555380870514950E-18, 0.0000000000000000000 ) ) ;
#155 = SURFACE_STYLE_FILL_AREA ( #173 ) ;
#156 = ORIENTED_EDGE ( 'NONE', *, *, #17, .F. ) ;
#157 = VECTOR ( 'NONE', #73, 39.37007874015748854 ) ;
#158 = CIRCLE ( 'NONE', #138, 0.06250000000000002776 ) ;
#159 = AXIS2_PLACEMENT_3D ( 'NONE', #184, #61, #71 ) ;
#160 = EDGE_CURVE ( 'NONE', #70, #16, #69, .T. ) ;
#161 = UNCERTAINTY_MEASURE_WITH_UNIT (LENGTH_MEASURE( 1.000000000000000082E-05 ), #29, 'distance_accuracy_value', 'NONE');
#162 = EDGE_CURVE ( 'NONE', #217, #77, #1, .T. ) ;
#163 = FILL_AREA_STYLE_COLOUR ( '', #136 ) ;
#164 =( NAMED_UNIT ( * ) SI_UNIT ( $, .STERADIAN. ) SOLID_ANGLE_UNIT ( ) );
#165 = DIRECTION ( 'NONE',  ( 1.000000000000000000, 0.0000000000000000000, -0.0000000000000000000 ) ) ;
#166 = CARTESIAN_POINT ( 'NONE',  ( 0.02497500000000001455, 0.0000000000000000000, 0.07499999999999999722 ) ) ;
#167 = SURFACE_STYLE_USAGE ( .BOTH. , #117 ) ;
#168 = CARTESIAN_POINT ( 'NONE',  ( 0.0000000000000000000, 0.0000000000000000000, 1.500000000000000222 ) ) ;
#169 = AXIS2_PLACEMENT_3D ( 'NONE', #80, #289, #240 ) ;
#170 = ORIENTED_EDGE ( 'NONE', *, *, #160, .F. ) ;
#171 = ORIENTED_EDGE ( 'NONE', *, *, #223, .T. ) ;
#172 = ORIENTED_EDGE ( 'NONE', *, *, #12, .F. ) ;
#173 = FILL_AREA_STYLE ('',( #257 ) ) ;
#174 = STYLED_ITEM ( 'NONE', ( #246 ), #288 ) ;
#175 = CONICAL_SURFACE ( 'NONE', #270, 0.02497500000000000414, 0.1745329251994339192 ) ;
#176 = CARTESIAN_POINT ( 'NONE',  ( 0.0000000000000000000, 0.0000000000000000000, 1.500000000000000222 ) ) ;
#177 = PRODUCT_DEFINITION ( 'UNKNOWN', '', #116, #222 ) ;
#178 = ORIENTED_EDGE ( 'NONE', *, *, #258, .T. ) ;
#179 = CYLINDRICAL_SURFACE ( 'NONE', #249, 0.02497500000000000067 ) ;
#180 = PLANE ( 'NONE',  #224 ) ;
#181 = DIRECTION ( 'NONE',  ( 1.000000000000000000, 0.0000000000000000000, -0.0000000000000000000 ) ) ;
#182 = DIRECTION ( 'NONE',  ( -1.224646799147353700E-16, -0.0000000000000000000, -1.000000000000000000 ) ) ;
#183 = ORIENTED_EDGE ( 'NONE', *, *, #47, .T. ) ;
#184 = CARTESIAN_POINT ( 'NONE',  ( 0.0000000000000000000, 0.0000000000000000000, 1.500000000000000222 ) ) ;
#185 = DIRECTION ( 'NONE',  ( 0.0000000000000000000, 0.0000000000000000000, 1.000000000000000000 ) ) ;
#186 =( NAMED_UNIT ( * ) PLANE_ANGLE_UNIT ( ) SI_UNIT ( $, .RADIAN. ) );
#187 = CARTESIAN_POINT ( 'NONE',  ( 0.0000000000000000000, 0.0000000000000000000, 1.485000000000000764 ) ) ;
#188 = DIRECTION ( 'NONE',  ( 0.0000000000000000000, 0.0000000000000000000, -1.000000000000000000 ) ) ;
#189 = DIRECTION ( 'NONE',  ( 1.000000000000000000, 0.0000000000000000000, 0.0000000000000000000 ) ) ;
#190 = DIRECTION ( 'NONE',  ( -0.0000000000000000000, -0.0000000000000000000, -1.000000000000000000 ) ) ;
#191 = FACE_OUTER_BOUND ( 'NONE', #285, .T. ) ;
#192 = CARTESIAN_POINT ( 'NONE',  ( 0.0000000000000000000, 0.0000000000000000000, 1.485000000000000764 ) ) ;
#193 = AXIS2_PLACEMENT_3D ( 'NONE', #83, #265, #218 ) ;
#194 = ORIENTED_EDGE ( 'NONE', *, *, #223, .F. ) ;
#195 = CARTESIAN_POINT ( 'NONE',  ( 0.06250000000000005551, 7.654042494670963708E-18, 0.2878148502811534448 ) ) ;
#196 = EDGE_CURVE ( 'NONE', #217, #49, #89, .T. ) ;
#197 = LINE ( 'NONE', #263, #225 ) ;
#198 = CLOSED_SHELL ( 'NONE', ( #112, #268, #60, #65, #38, #107, #74, #201, #202, #264 ) ) ;
#199 = CARTESIAN_POINT ( 'NONE',  ( -0.04750000000000064587, 0.0000000000000000000, 1.500000000000000222 ) ) ;
#200 = CYLINDRICAL_SURFACE ( 'NONE', #19, 0.06250000000000002776 ) ;
#201 = ADVANCED_FACE ( 'NONE', ( #84 ), #175, .T. ) ;
#202 = ADVANCED_FACE ( 'NONE', ( #7 ), #179, .T. ) ;
#203 =( NAMED_UNIT ( * ) PLANE_ANGLE_UNIT ( ) SI_UNIT ( $, .RADIAN. ) );
#204 = UNCERTAINTY_MEASURE_WITH_UNIT (LENGTH_MEASURE( 1.000000000000000082E-05 ), #274, 'distance_accuracy_value', 'NONE');
#205 = VECTOR ( 'NONE', #131, 39.37007874015747433 ) ;
#206 = CARTESIAN_POINT ( 'NONE',  ( 9.184850993605151827E-18, 0.0000000000000000000, 0.07499999999999999722 ) ) ;
#207 = LENGTH_MEASURE_WITH_UNIT ( LENGTH_MEASURE( 0.02539999999999999897 ), #228 );
#208 = DIRECTION ( 'NONE',  ( -1.224646799147353700E-16, -0.0000000000000000000, -1.000000000000000000 ) ) ;
#209 = AXIS2_PLACEMENT_3D ( 'NONE', #293, #92, #255 ) ;
#210 = CARTESIAN_POINT ( 'NONE',  ( 9.184850993605151827E-18, 0.0000000000000000000, 0.07499999999999999722 ) ) ;
#211 = ORIENTED_EDGE ( 'NONE', *, *, #162, .T. ) ;
#212 = AXIS2_PLACEMENT_3D ( 'NONE', #46, #87, #143 ) ;
#213 = ORIENTED_EDGE ( 'NONE', *, *, #125, .F. ) ;
#214 = DIRECTION ( 'NONE',  ( -1.224646799147353700E-16, -0.0000000000000000000, -1.000000000000000000 ) ) ;
#215 = LINE ( 'NONE', #283, #205 ) ;
#216 = ORIENTED_EDGE ( 'NONE', *, *, #17, .T. ) ;
#217 = VERTEX_POINT ( 'NONE', #9 ) ;
#218 = DIRECTION ( 'NONE',  ( -1.000000000000000000, 0.0000000000000000000, 0.0000000000000000000 ) ) ;
#219 = LINE ( 'NONE', #34, #153 ) ;
#220 = CARTESIAN_POINT ( 'NONE',  ( -0.06249999999999999306, 0.0000000000000000000, 0.2878148502811534448 ) ) ;
#221 = DIRECTION ( 'NONE',  ( 0.0000000000000000000, 0.0000000000000000000, 1.000000000000000000 ) ) ;
#222 = PRODUCT_DEFINITION_CONTEXT ( 'detailed design', #105, 'design' ) ;
#223 = EDGE_CURVE ( 'NONE', #72, #238, #241, .T. ) ;
#224 = AXIS2_PLACEMENT_3D ( 'NONE', #266, #185, #165 ) ;
#225 = VECTOR ( 'NONE', #237, 39.37007874015748854 ) ;
#226 =( CONVERSION_BASED_UNIT ( 'INCH', #207 ) LENGTH_UNIT ( ) NAMED_UNIT ( #141 ) );
#227 = CARTESIAN_POINT ( 'NONE',  ( -0.02497500000000000067, 0.0000000000000000000, 3.058555380870515720E-18 ) ) ;
#228 =( LENGTH_UNIT ( ) NAMED_UNIT ( * ) SI_UNIT ( $, .METRE. ) );
#229 = DIRECTION ( 'NONE',  ( -1.000000000000000000, 0.0000000000000000000, 0.0000000000000000000 ) ) ;
#230 =( NAMED_UNIT ( * ) SI_UNIT ( $, .STERADIAN. ) SOLID_ANGLE_UNIT ( ) );
#231 = CYLINDRICAL_SURFACE ( 'NONE', #244, 0.02497500000000000067 ) ;
#232 = AXIS2_PLACEMENT_3D ( 'NONE', #90, #33, #130 ) ;
#233 = ORIENTED_EDGE ( 'NONE', *, *, #290, .F. ) ;
#234 = FACE_OUTER_BOUND ( 'NONE', #101, .T. ) ;
#235 = ORIENTED_EDGE ( 'NONE', *, *, #12, .T. ) ;
#236 = EDGE_LOOP ( 'NONE', ( #286, #194, #235, #279 ) ) ;
#237 = DIRECTION ( 'NONE',  ( -0.7071067811865462405, 0.0000000000000000000, -0.7071067811865486830 ) ) ;
#238 = VERTEX_POINT ( 'NONE', #135 ) ;
#239 = EDGE_CURVE ( 'NONE', #238, #72, #93, .T. ) ;
#240 = DIRECTION ( 'NONE',  ( -1.000000000000000000, 0.0000000000000000000, 0.0000000000000000000 ) ) ;
#241 = CIRCLE ( 'NONE', #2, 0.04750000000000064587 ) ;
#242 = DIRECTION ( 'NONE',  ( 0.1736481776669314137, 0.0000000000000000000, 0.9848077530122077983 ) ) ;
#243 = EDGE_CURVE ( 'NONE', #6, #70, #8, .T. ) ;
#244 = AXIS2_PLACEMENT_3D ( 'NONE', #58, #79, #25 ) ;
#245 = DIRECTION ( 'NONE',  ( -1.224646799147353700E-16, -0.0000000000000000000, -1.000000000000000000 ) ) ;
#246 = PRESENTATION_STYLE_ASSIGNMENT (( #167 ) ) ;
#247 = DIRECTION ( 'NONE',  ( -1.224646799147353700E-16, -0.0000000000000000000, -1.000000000000000000 ) ) ;
#248 = DIRECTION ( 'NONE',  ( 1.000000000000000000, 0.0000000000000000000, 0.0000000000000000000 ) ) ;
#249 = AXIS2_PLACEMENT_3D ( 'NONE', #57, #133, #127 ) ;
#250 = DIRECTION ( 'NONE',  ( 1.000000000000000000, 0.0000000000000000000, 0.0000000000000000000 ) ) ;
#251 = CARTESIAN_POINT ( 'NONE',  ( 0.04750000000000064587, 5.817072295950006528E-18, 1.500000000000000222 ) ) ;
#252 = DIRECTION ( 'NONE',  ( 1.000000000000000000, 0.0000000000000000000, 0.0000000000000000000 ) ) ;
#253 = DIRECTION ( 'NONE',  ( -1.224646799147353700E-16, -0.0000000000000000000, -1.000000000000000000 ) ) ;
#254 = EDGE_CURVE ( 'NONE', #100, #49, #144, .T. ) ;
#255 = DIRECTION ( 'NONE',  ( 1.000000000000000000, 0.0000000000000000000, 0.0000000000000000000 ) ) ;
#256 = CARTESIAN_POINT ( 'NONE',  ( 0.06250000000000002776, 7.654042494670959086E-18, 1.500000000000000222 ) ) ;
#257 = FILL_AREA_STYLE_COLOUR ( '', #120 ) ;
#258 = EDGE_CURVE ( 'NONE', #77, #100, #102, .T. ) ;
#259 = ORIENTED_EDGE ( 'NONE', *, *, #284, .T. ) ;
#260 = VECTOR ( 'NONE', #247, 39.37007874015748143 ) ;
#261 = MECHANICAL_DESIGN_GEOMETRIC_PRESENTATION_REPRESENTATION (  '', ( #269 ), #35 ) ;
#262 = AXIS2_PLACEMENT_3D ( 'NONE', #192, #273, #250 ) ;
#263 = CARTESIAN_POINT ( 'NONE',  ( -0.04750000000000064587, 0.0000000000000000000, 1.500000000000000222 ) ) ;
#264 = ADVANCED_FACE ( 'NONE', ( #27 ), #180, .F. ) ;
#265 = DIRECTION ( 'NONE',  ( 0.0000000000000000000, 0.0000000000000000000, -1.000000000000000000 ) ) ;
#266 = CARTESIAN_POINT ( 'NONE',  ( 0.0000000000000000000, 0.0000000000000000000, 0.0000000000000000000 ) ) ;
#267 = FACE_OUTER_BOUND ( 'NONE', #299, .T. ) ;
#268 = ADVANCED_FACE ( 'NONE', ( #113 ), #20, .T. ) ;
#269 = STYLED_ITEM ( 'NONE', ( #119 ), #129 ) ;
#270 = AXIS2_PLACEMENT_3D ( 'NONE', #210, #82, #248 ) ;
#271 = CARTESIAN_POINT ( 'NONE',  ( 3.524715351438894183E-17, 0.0000000000000000000, 0.2878148502811534448 ) ) ;
#272 = DIRECTION ( 'NONE',  ( -1.000000000000000000, 0.0000000000000000000, 0.0000000000000000000 ) ) ;
#273 = DIRECTION ( 'NONE',  ( 0.0000000000000000000, 0.0000000000000000000, -1.000000000000000000 ) ) ;
#274 =( CONVERSION_BASED_UNIT ( 'INCH', #64 ) LENGTH_UNIT ( ) NAMED_UNIT ( #40 ) );
#275 = LINE ( 'NONE', #251, #157 ) ;
#276 = PRODUCT_DEFINITION_SHAPE ( 'NONE', 'NONE',  #177 ) ;
#277 = VERTEX_POINT ( 'NONE', #68 ) ;
#278 = AXIS2_PLACEMENT_3D ( 'NONE', #271, #245, #189 ) ;
#279 = ORIENTED_EDGE ( 'NONE', *, *, #292, .F. ) ;
#280 =( LENGTH_UNIT ( ) NAMED_UNIT ( * ) SI_UNIT ( $, .METRE. ) );
#281 = EDGE_LOOP ( 'NONE', ( #213, #96, #183, #32 ) ) ;
#282 = EDGE_LOOP ( 'NONE', ( #147, #124, #30, #170 ) ) ;
#283 = CARTESIAN_POINT ( 'NONE',  ( -0.02497499999999999720, 3.058555380870515335E-18, 0.07499999999999999722 ) ) ;
#284 = EDGE_CURVE ( 'NONE', #277, #6, #294, .T. ) ;
#285 = EDGE_LOOP ( 'NONE', ( #259, #108, #233, #152 ) ) ;
#286 = ORIENTED_EDGE ( 'NONE', *, *, #18, .F. ) ;
#287 = DIRECTION ( 'NONE',  ( 1.000000000000000000, 0.0000000000000000000, 0.0000000000000000000 ) ) ;
#288 = ADVANCED_BREP_SHAPE_REPRESENTATION ( 'Micro_SME-050-2X', ( #129, #209 ), #98 ) ;
#289 = DIRECTION ( 'NONE',  ( -1.224646799147353700E-16, -0.0000000000000000000, -1.000000000000000000 ) ) ;
#290 = EDGE_CURVE ( 'NONE', #16, #70, #56, .T. ) ;
#291 = CIRCLE ( 'NONE', #232, 0.02497500000000000067 ) ;
#292 = EDGE_CURVE ( 'NONE', #6, #277, #158, .T. ) ;
#293 = CARTESIAN_POINT ( 'NONE',  ( 0.0000000000000000000, 0.0000000000000000000, 0.0000000000000000000 ) ) ;
#294 = CIRCLE ( 'NONE', #262, 0.06250000000000002776 ) ;
#295 = VECTOR ( 'NONE', #24, 39.37007874015748143 ) ;
#296 = CARTESIAN_POINT ( 'NONE',  ( 3.524715351438894183E-17, 0.0000000000000000000, 0.2878148502811534448 ) ) ;
#297 = ORIENTED_EDGE ( 'NONE', *, *, #284, .F. ) ;
#298 = CARTESIAN_POINT ( 'NONE',  ( 0.02497500000000000067, 3.058555380870514950E-18, -3.058555380870515720E-18 ) ) ;
#299 = EDGE_LOOP ( 'NONE', ( #211, #178, #156, #149 ) ) ;
ENDSEC;
END-ISO-10303-21;
