ISO-10303-21;
HEADER;
FILE_DESCRIPTION (( 'STEP AP214' ),
    '1' );
FILE_NAME ('84096.STEP',
    '2023-06-23T12:03:32',
    ( '' ),
    ( '' ),
    'SwSTEP 2.0',
    'SolidWorks 2023',
    '' );
FILE_SCHEMA (( 'AUTOMOTIVE_DESIGN' ));
ENDSEC;

DATA;
#1 =( NAMED_UNIT ( * ) PLANE_ANGLE_UNIT ( ) SI_UNIT ( $, .RADIAN. ) );
#2 =( LENGTH_UNIT ( ) NAMED_UNIT ( * ) SI_UNIT ( $, .METRE. ) );
#3 = VECTOR ( 'NONE', #201, 39.37007874015748143 ) ;
#4 = CARTESIAN_POINT ( 'NONE',  ( -6.123233995736766036E-17, 2.500000000000000000, 0.000000000000000000 ) ) ;
#5 = CARTESIAN_POINT ( 'NONE',  ( 0.1250000000000000000, 0.6786265877365270649, 1.530808498934191509E-17 ) ) ;
#6 = ORIENTED_EDGE ( 'NONE', *, *, #312, .T. ) ;
#7 = FILL_AREA_STYLE ('',( #62 ) ) ;
#8 = MECHANICAL_DESIGN_GEOMETRIC_PRESENTATION_REPRESENTATION (  '', ( #66 ), #179 ) ;
#9 = FILL_AREA_STYLE ('',( #132 ) ) ;
#10 = DIRECTION ( 'NONE',  ( 0.000000000000000000, -1.000000000000000000, -0.000000000000000000 ) ) ;
#11 = PRESENTATION_STYLE_ASSIGNMENT (( #253 ) ) ;
#12 = DIRECTION ( 'NONE',  ( 0.000000000000000000, 0.000000000000000000, -1.000000000000000000 ) ) ;
#13 = PRESENTATION_STYLE_ASSIGNMENT (( #44 ) ) ;
#14 = EDGE_CURVE ( 'NONE', #210, #47, #342, .T. ) ;
#15 = CIRCLE ( 'NONE', #206, 0.09375000000000001388 ) ;
#16 = CARTESIAN_POINT ( 'NONE',  ( 0.000000000000000000, 0.000000000000000000, 0.000000000000000000 ) ) ;
#17 = PRESENTATION_LAYER_ASSIGNMENT (  '', '', ( #215 ) ) ;
#18 = ORIENTED_EDGE ( 'NONE', *, *, #26, .T. ) ;
#19 =( NAMED_UNIT ( * ) PLANE_ANGLE_UNIT ( ) SI_UNIT ( $, .RADIAN. ) );
#20 = LENGTH_MEASURE_WITH_UNIT ( LENGTH_MEASURE( 0.02539999999999999897 ), #136 );
#21 =( NAMED_UNIT ( * ) SI_UNIT ( $, .STERADIAN. ) SOLID_ANGLE_UNIT ( ) );
#22 = MECHANICAL_DESIGN_GEOMETRIC_PRESENTATION_REPRESENTATION (  '', ( #63 ), #214 ) ;
#23 = SURFACE_SIDE_STYLE ('',( #270 ) ) ;
#24 = CARTESIAN_POINT ( 'NONE',  ( 0.000000000000000000, 0.000000000000000000, 0.000000000000000000 ) ) ;
#25 = DIRECTION ( 'NONE',  ( 1.000000000000000000, 3.159563465292449303E-17, 0.000000000000000000 ) ) ;
#26 = EDGE_CURVE ( 'NONE', #47, #210, #213, .T. ) ;
#27 = MECHANICAL_DESIGN_GEOMETRIC_PRESENTATION_REPRESENTATION (  '', ( #215 ), #55 ) ;
#28 = SHAPE_DEFINITION_REPRESENTATION ( #254, #161 ) ;
#29 = ORIENTED_EDGE ( 'NONE', *, *, #316, .T. ) ;
#30 = VERTEX_POINT ( 'NONE', #5 ) ;
#31 = FACE_OUTER_BOUND ( 'NONE', #35, .T. ) ;
#32 = CARTESIAN_POINT ( 'NONE',  ( 7.582401355855259480E-33, 0.5620000000000001661, 0.000000000000000000 ) ) ;
#33 = UNCERTAINTY_MEASURE_WITH_UNIT (LENGTH_MEASURE( 1.000000000000000082E-05 ), #45, 'distance_accuracy_value', 'NONE');
#34 = CONICAL_SURFACE ( 'NONE', #101, 0.09375000000000001388, 0.2617993877991504625 ) ;
#35 = EDGE_LOOP ( 'NONE', ( #145, #334, #70, #49 ) ) ;
#36 = LINE ( 'NONE', #156, #116 ) ;
#37 = LINE ( 'NONE', #338, #199 ) ;
#38 = STYLED_ITEM ( 'NONE', ( #72 ), #208 ) ;
#39 = SURFACE_SIDE_STYLE ('',( #83 ) ) ;
#40 = CARTESIAN_POINT ( 'NONE',  ( 1.148106374200643863E-17, 0.5620000000000000551, 0.09375000000000001388 ) ) ;
#41 = CARTESIAN_POINT ( 'NONE',  ( -0.1250000000000000000, 0.6786265877365270649, 0.000000000000000000 ) ) ;
#42 = LINE ( 'NONE', #67, #133 ) ;
#43 =( GEOMETRIC_REPRESENTATION_CONTEXT ( 3 ) GLOBAL_UNCERTAINTY_ASSIGNED_CONTEXT ( ( #281 ) ) GLOBAL_UNIT_ASSIGNED_CONTEXT ( ( #268, #96, #269 ) ) REPRESENTATION_CONTEXT ( 'NONE', 'WORKASPACE' ) );
#44 = SURFACE_STYLE_USAGE ( .BOTH. , #94 ) ;
#45 =( CONVERSION_BASED_UNIT ( 'INCH', #20 ) LENGTH_UNIT ( ) NAMED_UNIT ( #158 ) );
#46 = PRODUCT_RELATED_PRODUCT_CATEGORY ( 'part', '', ( #310 ) ) ;
#47 = VERTEX_POINT ( 'NONE', #188 ) ;
#48 = PRESENTATION_LAYER_ASSIGNMENT (  '', '', ( #63 ) ) ;
#49 = ORIENTED_EDGE ( 'NONE', *, *, #332, .F. ) ;
#50 =( NAMED_UNIT ( * ) SI_UNIT ( $, .STERADIAN. ) SOLID_ANGLE_UNIT ( ) );
#51 = ADVANCED_FACE ( 'NONE', ( #341 ), #285, .T. ) ;
#52 = APPLICATION_PROTOCOL_DEFINITION ( 'draft international standard', 'automotive_design', 1998, #265 ) ;
#53 = FILL_AREA_STYLE ('',( #358 ) ) ;
#54 = CIRCLE ( 'NONE', #289, 0.09375000000000001388 ) ;
#55 =( GEOMETRIC_REPRESENTATION_CONTEXT ( 3 ) GLOBAL_UNCERTAINTY_ASSIGNED_CONTEXT ( ( #144 ) ) GLOBAL_UNIT_ASSIGNED_CONTEXT ( ( #88, #19, #21 ) ) REPRESENTATION_CONTEXT ( 'NONE', 'WORKASPACE' ) );
#56 = ORIENTED_EDGE ( 'NONE', *, *, #193, .F. ) ;
#57 = DIRECTION ( 'NONE',  ( 0.000000000000000000, 0.000000000000000000, -1.000000000000000000 ) ) ;
#58 = DIMENSIONAL_EXPONENTS ( 1.000000000000000000, 0.000000000000000000, 0.000000000000000000, 0.000000000000000000, 0.000000000000000000, 0.000000000000000000, 0.000000000000000000 ) ;
#59 = CARTESIAN_POINT ( 'NONE',  ( 0.1250000000000000278, 2.500000000000000000, 1.530808498934192125E-17 ) ) ;
#60 = EDGE_CURVE ( 'NONE', #256, #172, #226, .T. ) ;
#61 = CARTESIAN_POINT ( 'NONE',  ( 0.000000000000000000, 0.5620000000000000551, -0.09375000000000001388 ) ) ;
#62 = FILL_AREA_STYLE_COLOUR ( '', #329 ) ;
#63 = STYLED_ITEM ( 'NONE', ( #11 ), #84 ) ;
#64 = ORIENTED_EDGE ( 'NONE', *, *, #242, .T. ) ;
#65 =( CONVERSION_BASED_UNIT ( 'INCH', #313 ) LENGTH_UNIT ( ) NAMED_UNIT ( #104 ) );
#66 = STYLED_ITEM ( 'NONE', ( #209 ), #237 ) ;
#67 = CARTESIAN_POINT ( 'NONE',  ( 0.000000000000000000, 0.000000000000000000, -0.09375000000000001388 ) ) ;
#68 = EDGE_CURVE ( 'NONE', #77, #122, #37, .T. ) ;
#69 = UNCERTAINTY_MEASURE_WITH_UNIT (LENGTH_MEASURE( 1.000000000000000082E-05 ), #325, 'distance_accuracy_value', 'NONE');
#70 = ORIENTED_EDGE ( 'NONE', *, *, #262, .F. ) ;
#71 =( NAMED_UNIT ( * ) SI_UNIT ( $, .STERADIAN. ) SOLID_ANGLE_UNIT ( ) );
#72 = PRESENTATION_STYLE_ASSIGNMENT (( #239 ) ) ;
#73 = CARTESIAN_POINT ( 'NONE',  ( -0.09375000000000001388, 0.5620000000000001661, 0.000000000000000000 ) ) ;
#74 = ORIENTED_EDGE ( 'NONE', *, *, #130, .F. ) ;
#75 = VERTEX_POINT ( 'NONE', #61 ) ;
#76 = SURFACE_STYLE_FILL_AREA ( #204 ) ;
#77 = VERTEX_POINT ( 'NONE', #40 ) ;
#78 = DIRECTION ( 'NONE',  ( -1.000000000000000000, 0.000000000000000000, 0.000000000000000000 ) ) ;
#79 = CIRCLE ( 'NONE', #238, 0.09375000000000001388 ) ;
#80 = ADVANCED_FACE ( 'NONE', ( #340 ), #162, .T. ) ;
#81 = DIRECTION ( 'NONE',  ( -3.159563465292449303E-17, 1.000000000000000000, -0.000000000000000000 ) ) ;
#82 = LENGTH_MEASURE_WITH_UNIT ( LENGTH_MEASURE( 0.02539999999999999897 ), #331 );
#83 = SURFACE_STYLE_FILL_AREA ( #9 ) ;
#84 = MANIFOLD_SOLID_BREP ( 'Revolve - Cutting Edge', #335 ) ;
#85 = COLOUR_RGB ( '',0.7921568627450980005, 0.8196078431372548767, 0.9333333333333333481 ) ;
#86 = CARTESIAN_POINT ( 'NONE',  ( 0.000000000000000000, 0.5620000000000000551, 0.000000000000000000 ) ) ;
#87 = CARTESIAN_POINT ( 'NONE',  ( 0.000000000000000000, 0.000000000000000000, 0.000000000000000000 ) ) ;
#88 =( CONVERSION_BASED_UNIT ( 'INCH', #351 ) LENGTH_UNIT ( ) NAMED_UNIT ( #58 ) );
#89 = PLANE ( 'NONE',  #352 ) ;
#90 = UNCERTAINTY_MEASURE_WITH_UNIT (LENGTH_MEASURE( 1.000000000000000082E-05 ), #65, 'distance_accuracy_value', 'NONE');
#91 = ORIENTED_EDGE ( 'NONE', *, *, #140, .F. ) ;
#92 = VECTOR ( 'NONE', #230, 39.37007874015748143 ) ;
#93 = ORIENTED_EDGE ( 'NONE', *, *, #233, .F. ) ;
#94 = SURFACE_SIDE_STYLE ('',( #286 ) ) ;
#95 = CARTESIAN_POINT ( 'NONE',  ( 0.000000000000000000, 0.000000000000000000, 0.000000000000000000 ) ) ;
#96 =( NAMED_UNIT ( * ) PLANE_ANGLE_UNIT ( ) SI_UNIT ( $, .RADIAN. ) );
#97 =( GEOMETRIC_REPRESENTATION_CONTEXT ( 3 ) GLOBAL_UNCERTAINTY_ASSIGNED_CONTEXT ( ( #33 ) ) GLOBAL_UNIT_ASSIGNED_CONTEXT ( ( #45, #350, #175 ) ) REPRESENTATION_CONTEXT ( 'NONE', 'WORKASPACE' ) );
#98 = DIRECTION ( 'NONE',  ( -0.000000000000000000, -1.000000000000000000, -0.000000000000000000 ) ) ;
#99 = DIRECTION ( 'NONE',  ( 0.000000000000000000, 0.000000000000000000, -1.000000000000000000 ) ) ;
#100 = ORIENTED_EDGE ( 'NONE', *, *, #233, .T. ) ;
#101 = AXIS2_PLACEMENT_3D ( 'NONE', #280, #203, #192 ) ;
#102 =( NAMED_UNIT ( * ) SI_UNIT ( $, .STERADIAN. ) SOLID_ANGLE_UNIT ( ) );
#103 = EDGE_LOOP ( 'NONE', ( #212, #6, #359, #91 ) ) ;
#104 = DIMENSIONAL_EXPONENTS ( 1.000000000000000000, 0.000000000000000000, 0.000000000000000000, 0.000000000000000000, 0.000000000000000000, 0.000000000000000000, 0.000000000000000000 ) ;
#105 = ADVANCED_FACE ( 'NONE', ( #135 ), #34, .T. ) ;
#106 = CARTESIAN_POINT ( 'NONE',  ( -3.684891056940544915E-18, 0.6786265877365270649, 0.000000000000000000 ) ) ;
#107 = DIRECTION ( 'NONE',  ( 0.000000000000000000, -0.000000000000000000, 1.000000000000000000 ) ) ;
#108 = PRESENTATION_LAYER_ASSIGNMENT (  '', '', ( #66 ) ) ;
#109 = DIRECTION ( 'NONE',  ( -1.000000000000000000, 0.000000000000000000, 0.000000000000000000 ) ) ;
#110 = FACE_OUTER_BOUND ( 'NONE', #103, .T. ) ;
#111 = AXIS2_PLACEMENT_3D ( 'NONE', #255, #353, #142 ) ;
#112 = DIRECTION ( 'NONE',  ( -0.000000000000000000, -1.000000000000000000, -0.000000000000000000 ) ) ;
#113 = CARTESIAN_POINT ( 'NONE',  ( -0.09375000000000001388, 0.5620000000000001661, 0.000000000000000000 ) ) ;
#114 = ADVANCED_FACE ( 'NONE', ( #345 ), #292, .F. ) ;
#115 = CARTESIAN_POINT ( 'NONE',  ( -0.1250000000000001110, 2.500000000000000000, 0.000000000000000000 ) ) ;
#116 = VECTOR ( 'NONE', #249, 39.37007874015748143 ) ;
#117 = EDGE_LOOP ( 'NONE', ( #64, #302, #93, #187 ) ) ;
#118 = FACE_OUTER_BOUND ( 'NONE', #174, .T. ) ;
#119 = APPLICATION_PROTOCOL_DEFINITION ( 'draft international standard', 'automotive_design', 1998, #274 ) ;
#120 = AXIS2_PLACEMENT_3D ( 'NONE', #222, #217, #160 ) ;
#121 = CYLINDRICAL_SURFACE ( 'NONE', #337, 0.09375000000000001388 ) ;
#122 = VERTEX_POINT ( 'NONE', #260 ) ;
#123 = VERTEX_POINT ( 'NONE', #41 ) ;
#124 = SURFACE_STYLE_USAGE ( .BOTH. , #23 ) ;
#125 = ORIENTED_EDGE ( 'NONE', *, *, #60, .T. ) ;
#126 = DIRECTION ( 'NONE',  ( -3.159563465292449303E-17, 1.000000000000000000, -0.000000000000000000 ) ) ;
#127 = DIRECTION ( 'NONE',  ( 1.000000000000000000, 0.000000000000000000, 0.000000000000000000 ) ) ;
#128 = PRESENTATION_LAYER_ASSIGNMENT (  '', '', ( #294 ) ) ;
#129 = ORIENTED_EDGE ( 'NONE', *, *, #312, .F. ) ;
#130 = EDGE_CURVE ( 'NONE', #77, #75, #15, .T. ) ;
#131 = EDGE_LOOP ( 'NONE', ( #129, #29, #266, #220 ) ) ;
#132 = FILL_AREA_STYLE_COLOUR ( '', #317 ) ;
#133 = VECTOR ( 'NONE', #229, 39.37007874015748143 ) ;
#134 = DIRECTION ( 'NONE',  ( -1.000000000000000000, 0.000000000000000000, 0.000000000000000000 ) ) ;
#135 = FACE_OUTER_BOUND ( 'NONE', #231, .T. ) ;
#136 =( LENGTH_UNIT ( ) NAMED_UNIT ( * ) SI_UNIT ( $, .METRE. ) );
#137 = AXIS2_PLACEMENT_3D ( 'NONE', #309, #275, #134 ) ;
#138 = PRESENTATION_LAYER_ASSIGNMENT (  '', '', ( #38 ) ) ;
#139 = CARTESIAN_POINT ( 'NONE',  ( 0.000000000000000000, 0.000000000000000000, -0.09375000000000001388 ) ) ;
#140 = EDGE_CURVE ( 'NONE', #123, #172, #168, .T. ) ;
#141 = PRODUCT_DEFINITION_CONTEXT ( 'detailed design', #265, 'design' ) ;
#142 = DIRECTION ( 'NONE',  ( -1.000000000000000000, 0.000000000000000000, 0.000000000000000000 ) ) ;
#143 = SURFACE_STYLE_FILL_AREA ( #279 ) ;
#144 = UNCERTAINTY_MEASURE_WITH_UNIT (LENGTH_MEASURE( 1.000000000000000082E-05 ), #88, 'distance_accuracy_value', 'NONE');
#145 = ORIENTED_EDGE ( 'NONE', *, *, #14, .T. ) ;
#146 = DIRECTION ( 'NONE',  ( 0.000000000000000000, 0.000000000000000000, -1.000000000000000000 ) ) ;
#147 = AXIS2_PLACEMENT_3D ( 'NONE', #194, #293, #234 ) ;
#148 = AXIS2_PLACEMENT_3D ( 'NONE', #278, #154, #333 ) ;
#149 = DIRECTION ( 'NONE',  ( 3.159563465292449303E-17, -1.000000000000000000, 0.000000000000000000 ) ) ;
#150 = CARTESIAN_POINT ( 'NONE',  ( 0.000000000000000000, 0.000000000000000000, 0.000000000000000000 ) ) ;
#151 = ORIENTED_EDGE ( 'NONE', *, *, #130, .T. ) ;
#152 = LENGTH_MEASURE_WITH_UNIT ( LENGTH_MEASURE( 0.02539999999999999897 ), #267 );
#153 =( NAMED_UNIT ( * ) PLANE_ANGLE_UNIT ( ) SI_UNIT ( $, .RADIAN. ) );
#154 = DIRECTION ( 'NONE',  ( -0.000000000000000000, -1.000000000000000000, -0.000000000000000000 ) ) ;
#155 = DIRECTION ( 'NONE',  ( -3.159563465292449303E-17, 1.000000000000000000, -0.000000000000000000 ) ) ;
#156 = CARTESIAN_POINT ( 'NONE',  ( 0.1249999999999999584, 2.500000000000000000, 1.530808498934191817E-17 ) ) ;
#157 = CARTESIAN_POINT ( 'NONE',  ( 0.000000000000000000, 0.5620000000000000551, 0.000000000000000000 ) ) ;
#158 = DIMENSIONAL_EXPONENTS ( 1.000000000000000000, 0.000000000000000000, 0.000000000000000000, 0.000000000000000000, 0.000000000000000000, 0.000000000000000000, 0.000000000000000000 ) ;
#159 = DIRECTION ( 'NONE',  ( -1.000000000000000000, 0.000000000000000000, 0.000000000000000000 ) ) ;
#160 = DIRECTION ( 'NONE',  ( -1.000000000000000000, 0.000000000000000000, 0.000000000000000000 ) ) ;
#161 = ADVANCED_BREP_SHAPE_REPRESENTATION ( '84096', ( #84, #202, #276 ), #284 ) ;
#162 = CYLINDRICAL_SURFACE ( 'NONE', #137, 0.1250000000000000278 ) ;
#163 = ADVANCED_FACE ( 'NONE', ( #110 ), #287, .T. ) ;
#164 = CLOSED_SHELL ( 'NONE', ( #163, #248, #114, #105, #80, #347 ) ) ;
#165 = PRESENTATION_LAYER_ASSIGNMENT (  '', '', ( #311 ) ) ;
#166 = CIRCLE ( 'NONE', #148, 0.09375000000000001388 ) ;
#167 = DIRECTION ( 'NONE',  ( -1.000000000000000000, 0.000000000000000000, 0.000000000000000000 ) ) ;
#168 = LINE ( 'NONE', #115, #3 ) ;
#169 = DIRECTION ( 'NONE',  ( 0.2588190451025216832, 0.9659258262890679791, 3.169619151431776651E-17 ) ) ;
#170 = ORIENTED_EDGE ( 'NONE', *, *, #296, .T. ) ;
#171 = FILL_AREA_STYLE ('',( #290 ) ) ;
#172 = VERTEX_POINT ( 'NONE', #257 ) ;
#173 = EDGE_CURVE ( 'NONE', #75, #182, #42, .T. ) ;
#174 = EDGE_LOOP ( 'NONE', ( #100, #263 ) ) ;
#175 =( NAMED_UNIT ( * ) SI_UNIT ( $, .STERADIAN. ) SOLID_ANGLE_UNIT ( ) );
#176 = DIMENSIONAL_EXPONENTS ( 1.000000000000000000, 0.000000000000000000, 0.000000000000000000, 0.000000000000000000, 0.000000000000000000, 0.000000000000000000, 0.000000000000000000 ) ;
#177 = CARTESIAN_POINT ( 'NONE',  ( 0.000000000000000000, 0.000000000000000000, 0.000000000000000000 ) ) ;
#178 = ORIENTED_EDGE ( 'NONE', *, *, #242, .F. ) ;
#179 =( GEOMETRIC_REPRESENTATION_CONTEXT ( 3 ) GLOBAL_UNCERTAINTY_ASSIGNED_CONTEXT ( ( #69 ) ) GLOBAL_UNIT_ASSIGNED_CONTEXT ( ( #325, #1, #180 ) ) REPRESENTATION_CONTEXT ( 'NONE', 'WORKASPACE' ) );
#180 =( NAMED_UNIT ( * ) SI_UNIT ( $, .STERADIAN. ) SOLID_ANGLE_UNIT ( ) );
#181 = ORIENTED_EDGE ( 'NONE', *, *, #316, .F. ) ;
#182 = VERTEX_POINT ( 'NONE', #139 ) ;
#183 = DIMENSIONAL_EXPONENTS ( 1.000000000000000000, 0.000000000000000000, 0.000000000000000000, 0.000000000000000000, 0.000000000000000000, 0.000000000000000000, 0.000000000000000000 ) ;
#184 = PRESENTATION_STYLE_ASSIGNMENT (( #190 ) ) ;
#185 =( NAMED_UNIT ( * ) PLANE_ANGLE_UNIT ( ) SI_UNIT ( $, .RADIAN. ) );
#186 = CONICAL_SURFACE ( 'NONE', #344, 0.09375000000000001388, 0.2617993877991504625 ) ;
#187 = ORIENTED_EDGE ( 'NONE', *, *, #173, .F. ) ;
#188 = CARTESIAN_POINT ( 'NONE',  ( 0.09375000000000001388, 0.5620000000000001661, 1.339457436567417686E-17 ) ) ;
#189 = PRODUCT_DEFINITION ( 'UNKNOWN', '', #339, #141 ) ;
#190 = SURFACE_STYLE_USAGE ( .BOTH. , #224 ) ;
#191 = AXIS2_PLACEMENT_3D ( 'NONE', #32, #354, #167 ) ;
#192 = DIRECTION ( 'NONE',  ( -1.000000000000000000, 0.000000000000000000, 0.000000000000000000 ) ) ;
#193 = EDGE_CURVE ( 'NONE', #47, #30, #225, .T. ) ;
#194 = CARTESIAN_POINT ( 'NONE',  ( 4.679456855255077181E-35, 0.5620000000000000551, 0.000000000000000000 ) ) ;
#195 = DIRECTION ( 'NONE',  ( 0.000000000000000000, 0.000000000000000000, -1.000000000000000000 ) ) ;
#196 = DIRECTION ( 'NONE',  ( -0.000000000000000000, -1.000000000000000000, -0.000000000000000000 ) ) ;
#197 = CARTESIAN_POINT ( 'NONE',  ( 0.1250000000000000000, 2.500000000000000000, 0.000000000000000000 ) ) ;
#198 = ORIENTED_EDGE ( 'NONE', *, *, #14, .F. ) ;
#199 = VECTOR ( 'NONE', #308, 39.37007874015748143 ) ;
#200 = CIRCLE ( 'NONE', #207, 0.1250000000000000555 ) ;
#201 = DIRECTION ( 'NONE',  ( -3.159563465292449303E-17, 1.000000000000000000, -0.000000000000000000 ) ) ;
#202 = MANIFOLD_SOLID_BREP ( 'Revolve - Tool Body (Reduced Cut Diameter)', #164 ) ;
#203 = DIRECTION ( 'NONE',  ( -3.159563465292449303E-17, 1.000000000000000000, -0.000000000000000000 ) ) ;
#204 = FILL_AREA_STYLE ('',( #348 ) ) ;
#205 = SURFACE_SIDE_STYLE ('',( #76 ) ) ;
#206 = AXIS2_PLACEMENT_3D ( 'NONE', #86, #196, #12 ) ;
#207 = AXIS2_PLACEMENT_3D ( 'NONE', #4, #81, #159 ) ;
#208 = ADVANCED_FACE ( 'NONE', ( #327 ), #121, .T. ) ;
#209 = PRESENTATION_STYLE_ASSIGNMENT (( #124 ) ) ;
#210 = VERTEX_POINT ( 'NONE', #73 ) ;
#211 =( CONVERSION_BASED_UNIT ( 'INCH', #295 ) LENGTH_UNIT ( ) NAMED_UNIT ( #216 ) );
#212 = ORIENTED_EDGE ( 'NONE', *, *, #262, .T. ) ;
#213 = CIRCLE ( 'NONE', #191, 0.09375000000000001388 ) ;
#214 =( GEOMETRIC_REPRESENTATION_CONTEXT ( 3 ) GLOBAL_UNCERTAINTY_ASSIGNED_CONTEXT ( ( #90 ) ) GLOBAL_UNIT_ASSIGNED_CONTEXT ( ( #65, #314, #71 ) ) REPRESENTATION_CONTEXT ( 'NONE', 'WORKASPACE' ) );
#215 = STYLED_ITEM ( 'NONE', ( #258 ), #326 ) ;
#216 = DIMENSIONAL_EXPONENTS ( 1.000000000000000000, 0.000000000000000000, 0.000000000000000000, 0.000000000000000000, 0.000000000000000000, 0.000000000000000000, 0.000000000000000000 ) ;
#217 = DIRECTION ( 'NONE',  ( -3.159563465292449303E-17, 1.000000000000000000, -0.000000000000000000 ) ) ;
#218 = CARTESIAN_POINT ( 'NONE',  ( -3.684891056940544915E-18, 0.6786265877365270649, 0.000000000000000000 ) ) ;
#219 = SURFACE_STYLE_FILL_AREA ( #7 ) ;
#220 = ORIENTED_EDGE ( 'NONE', *, *, #60, .F. ) ;
#221 = DIRECTION ( 'NONE',  ( -3.159563465292449303E-17, 1.000000000000000000, -0.000000000000000000 ) ) ;
#222 = CARTESIAN_POINT ( 'NONE',  ( -6.123233995736766036E-17, 2.500000000000000000, 0.000000000000000000 ) ) ;
#223 = MECHANICAL_DESIGN_GEOMETRIC_PRESENTATION_REPRESENTATION (  '', ( #38 ), #43 ) ;
#224 = SURFACE_SIDE_STYLE ('',( #219 ) ) ;
#225 = LINE ( 'NONE', #320, #244 ) ;
#226 = CIRCLE ( 'NONE', #120, 0.1250000000000000555 ) ;
#227 = AXIS2_PLACEMENT_3D ( 'NONE', #95, #10, #57 ) ;
#228 = EDGE_CURVE ( 'NONE', #122, #182, #79, .T. ) ;
#229 = DIRECTION ( 'NONE',  ( -0.000000000000000000, -1.000000000000000000, -0.000000000000000000 ) ) ;
#230 = DIRECTION ( 'NONE',  ( -0.2588190451025217942, 0.9659258262890679791, 0.000000000000000000 ) ) ;
#231 = EDGE_LOOP ( 'NONE', ( #56, #18, #246, #181 ) ) ;
#232 = COLOUR_RGB ( '',1.000000000000000000, 0.000000000000000000, 0.000000000000000000 ) ;
#233 = EDGE_CURVE ( 'NONE', #182, #122, #54, .T. ) ;
#234 = DIRECTION ( 'NONE',  ( -1.000000000000000000, -3.159563465292449303E-17, 0.000000000000000000 ) ) ;
#235 = EDGE_LOOP ( 'NONE', ( #178, #74 ) ) ;
#236 = DIRECTION ( 'NONE',  ( -0.000000000000000000, -1.000000000000000000, -0.000000000000000000 ) ) ;
#237 = ADVANCED_FACE ( 'NONE', ( #118 ), #240, .T. ) ;
#238 = AXIS2_PLACEMENT_3D ( 'NONE', #150, #236, #324 ) ;
#239 = SURFACE_STYLE_USAGE ( .BOTH. , #205 ) ;
#240 = PLANE ( 'NONE',  #227 ) ;
#241 = ORIENTED_EDGE ( 'NONE', *, *, #173, .T. ) ;
#242 = EDGE_CURVE ( 'NONE', #75, #77, #166, .T. ) ;
#243 = DIRECTION ( 'NONE',  ( -1.000000000000000000, 0.000000000000000000, 0.000000000000000000 ) ) ;
#244 = VECTOR ( 'NONE', #169, 39.37007874015748854 ) ;
#245 = UNCERTAINTY_MEASURE_WITH_UNIT (LENGTH_MEASURE( 1.000000000000000082E-05 ), #211, 'distance_accuracy_value', 'NONE');
#246 = ORIENTED_EDGE ( 'NONE', *, *, #332, .T. ) ;
#247 = DIRECTION ( 'NONE',  ( -3.159563465292449303E-17, 1.000000000000000000, -0.000000000000000000 ) ) ;
#248 = ADVANCED_FACE ( 'NONE', ( #31 ), #186, .T. ) ;
#249 = DIRECTION ( 'NONE',  ( -3.159563465292449303E-17, 1.000000000000000000, -0.000000000000000000 ) ) ;
#250 = DIRECTION ( 'NONE',  ( 0.000000000000000000, 1.000000000000000000, 0.000000000000000000 ) ) ;
#251 = MECHANICAL_DESIGN_GEOMETRIC_PRESENTATION_REPRESENTATION (  '', ( #311 ), #283 ) ;
#252 = AXIS2_PLACEMENT_3D ( 'NONE', #106, #221, #109 ) ;
#253 = SURFACE_STYLE_USAGE ( .BOTH. , #39 ) ;
#254 = PRODUCT_DEFINITION_SHAPE ( 'NONE', 'NONE',  #189 ) ;
#255 = CARTESIAN_POINT ( 'NONE',  ( -6.123233995736766036E-17, 2.500000000000000000, 0.000000000000000000 ) ) ;
#256 = VERTEX_POINT ( 'NONE', #59 ) ;
#257 = CARTESIAN_POINT ( 'NONE',  ( -0.1250000000000001388, 2.500000000000000000, 0.000000000000000000 ) ) ;
#258 = PRESENTATION_STYLE_ASSIGNMENT (( #261 ) ) ;
#259 = AXIS2_PLACEMENT_3D ( 'NONE', #16, #112, #195 ) ;
#260 = CARTESIAN_POINT ( 'NONE',  ( 1.148106374200643863E-17, 0.000000000000000000, 0.09375000000000001388 ) ) ;
#261 = SURFACE_STYLE_USAGE ( .BOTH. , #346 ) ;
#262 = EDGE_CURVE ( 'NONE', #123, #30, #271, .T. ) ;
#263 = ORIENTED_EDGE ( 'NONE', *, *, #228, .T. ) ;
#264 = DIRECTION ( 'NONE',  ( 0.000000000000000000, 0.000000000000000000, 1.000000000000000000 ) ) ;
#265 = APPLICATION_CONTEXT ( 'automotive_design' ) ;
#266 = ORIENTED_EDGE ( 'NONE', *, *, #140, .T. ) ;
#267 =( LENGTH_UNIT ( ) NAMED_UNIT ( * ) SI_UNIT ( $, .METRE. ) );
#268 =( CONVERSION_BASED_UNIT ( 'INCH', #321 ) LENGTH_UNIT ( ) NAMED_UNIT ( #183 ) );
#269 =( NAMED_UNIT ( * ) SI_UNIT ( $, .STERADIAN. ) SOLID_ANGLE_UNIT ( ) );
#270 = SURFACE_STYLE_FILL_AREA ( #53 ) ;
#271 = CIRCLE ( 'NONE', #357, 0.1250000000000000278 ) ;
#272 = EDGE_LOOP ( 'NONE', ( #170, #125 ) ) ;
#273 = DIRECTION ( 'NONE',  ( -1.000000000000000000, 0.000000000000000000, 0.000000000000000000 ) ) ;
#274 = APPLICATION_CONTEXT ( 'automotive_design' ) ;
#275 = DIRECTION ( 'NONE',  ( -3.159563465292449303E-17, 1.000000000000000000, -0.000000000000000000 ) ) ;
#276 = AXIS2_PLACEMENT_3D ( 'NONE', #87, #264, #127 ) ;
#277 = UNCERTAINTY_MEASURE_WITH_UNIT (LENGTH_MEASURE( 1.000000000000000082E-05 ), #282, 'distance_accuracy_value', 'NONE');
#278 = CARTESIAN_POINT ( 'NONE',  ( 0.000000000000000000, 0.5620000000000000551, 0.000000000000000000 ) ) ;
#279 = FILL_AREA_STYLE ('',( #307 ) ) ;
#280 = CARTESIAN_POINT ( 'NONE',  ( 7.582401355855259480E-33, 0.5620000000000001661, 0.000000000000000000 ) ) ;
#281 = UNCERTAINTY_MEASURE_WITH_UNIT (LENGTH_MEASURE( 1.000000000000000082E-05 ), #268, 'distance_accuracy_value', 'NONE');
#282 =( CONVERSION_BASED_UNIT ( 'INCH', #82 ) LENGTH_UNIT ( ) NAMED_UNIT ( #176 ) );
#283 =( GEOMETRIC_REPRESENTATION_CONTEXT ( 3 ) GLOBAL_UNCERTAINTY_ASSIGNED_CONTEXT ( ( #277 ) ) GLOBAL_UNIT_ASSIGNED_CONTEXT ( ( #282, #185, #102 ) ) REPRESENTATION_CONTEXT ( 'NONE', 'WORKASPACE' ) );
#284 =( GEOMETRIC_REPRESENTATION_CONTEXT ( 3 ) GLOBAL_UNCERTAINTY_ASSIGNED_CONTEXT ( ( #245 ) ) GLOBAL_UNIT_ASSIGNED_CONTEXT ( ( #211, #153, #50 ) ) REPRESENTATION_CONTEXT ( 'NONE', 'WORKASPACE' ) );
#285 = PLANE ( 'NONE',  #322 ) ;
#286 = SURFACE_STYLE_FILL_AREA ( #171 ) ;
#287 = CYLINDRICAL_SURFACE ( 'NONE', #111, 0.1250000000000000278 ) ;
#288 = CYLINDRICAL_SURFACE ( 'NONE', #259, 0.09375000000000001388 ) ;
#289 = AXIS2_PLACEMENT_3D ( 'NONE', #177, #300, #99 ) ;
#290 = FILL_AREA_STYLE_COLOUR ( '', #85 ) ;
#291 = ORIENTED_EDGE ( 'NONE', *, *, #68, .F. ) ;
#292 = PLANE ( 'NONE',  #147 ) ;
#293 = DIRECTION ( 'NONE',  ( -3.159563465292449303E-17, 1.000000000000000000, 0.000000000000000000 ) ) ;
#294 = STYLED_ITEM ( 'NONE', ( #13 ), #202 ) ;
#295 = LENGTH_MEASURE_WITH_UNIT ( LENGTH_MEASURE( 0.02539999999999999897 ), #2 );
#296 = EDGE_CURVE ( 'NONE', #172, #256, #200, .T. ) ;
#297 = PRODUCT_CONTEXT ( 'NONE', #274, 'mechanical' ) ;
#298 = DIMENSIONAL_EXPONENTS ( 1.000000000000000000, 0.000000000000000000, 0.000000000000000000, 0.000000000000000000, 0.000000000000000000, 0.000000000000000000, 0.000000000000000000 ) ;
#299 = EDGE_LOOP ( 'NONE', ( #291, #151, #241, #328 ) ) ;
#300 = DIRECTION ( 'NONE',  ( -0.000000000000000000, -1.000000000000000000, -0.000000000000000000 ) ) ;
#301 = CARTESIAN_POINT ( 'NONE',  ( 7.582401355855259480E-33, 0.5620000000000001661, 0.000000000000000000 ) ) ;
#302 = ORIENTED_EDGE ( 'NONE', *, *, #68, .T. ) ;
#303 = CARTESIAN_POINT ( 'NONE',  ( 7.582401355855259480E-33, 0.5620000000000001661, 0.000000000000000000 ) ) ;
#304 = COLOUR_RGB ( '',1.000000000000000000, 0.000000000000000000, 0.000000000000000000 ) ;
#305 = COLOUR_RGB ( '',1.000000000000000000, 0.000000000000000000, 0.000000000000000000 ) ;
#306 = EDGE_LOOP ( 'NONE', ( #198, #330 ) ) ;
#307 = FILL_AREA_STYLE_COLOUR ( '', #305 ) ;
#308 = DIRECTION ( 'NONE',  ( -0.000000000000000000, -1.000000000000000000, -0.000000000000000000 ) ) ;
#309 = CARTESIAN_POINT ( 'NONE',  ( -6.123233995736766036E-17, 2.500000000000000000, 0.000000000000000000 ) ) ;
#310 = PRODUCT ( '84096', '84096', '', ( #297 ) ) ;
#311 = STYLED_ITEM ( 'NONE', ( #184 ), #51 ) ;
#312 = EDGE_CURVE ( 'NONE', #30, #256, #36, .T. ) ;
#313 = LENGTH_MEASURE_WITH_UNIT ( LENGTH_MEASURE( 0.02539999999999999897 ), #318 );
#314 =( NAMED_UNIT ( * ) PLANE_ANGLE_UNIT ( ) SI_UNIT ( $, .RADIAN. ) );
#315 = LINE ( 'NONE', #113, #92 ) ;
#316 = EDGE_CURVE ( 'NONE', #30, #123, #323, .T. ) ;
#317 = COLOUR_RGB ( '',0.7921568627450980005, 0.8196078431372548767, 0.9333333333333333481 ) ;
#318 =( LENGTH_UNIT ( ) NAMED_UNIT ( * ) SI_UNIT ( $, .METRE. ) );
#319 =( LENGTH_UNIT ( ) NAMED_UNIT ( * ) SI_UNIT ( $, .METRE. ) );
#320 = CARTESIAN_POINT ( 'NONE',  ( 0.09375000000000001388, 0.5620000000000001661, 1.148106374200643863E-17 ) ) ;
#321 = LENGTH_MEASURE_WITH_UNIT ( LENGTH_MEASURE( 0.02539999999999999897 ), #355 );
#322 = AXIS2_PLACEMENT_3D ( 'NONE', #157, #250, #107 ) ;
#323 = CIRCLE ( 'NONE', #252, 0.1250000000000000278 ) ;
#324 = DIRECTION ( 'NONE',  ( 0.000000000000000000, 0.000000000000000000, -1.000000000000000000 ) ) ;
#325 =( CONVERSION_BASED_UNIT ( 'INCH', #152 ) LENGTH_UNIT ( ) NAMED_UNIT ( #298 ) );
#326 = ADVANCED_FACE ( 'NONE', ( #336 ), #288, .T. ) ;
#327 = FACE_OUTER_BOUND ( 'NONE', #117, .T. ) ;
#328 = ORIENTED_EDGE ( 'NONE', *, *, #228, .F. ) ;
#329 = COLOUR_RGB ( '',1.000000000000000000, 0.000000000000000000, 0.000000000000000000 ) ;
#330 = ORIENTED_EDGE ( 'NONE', *, *, #26, .F. ) ;
#331 =( LENGTH_UNIT ( ) NAMED_UNIT ( * ) SI_UNIT ( $, .METRE. ) );
#332 = EDGE_CURVE ( 'NONE', #210, #123, #315, .T. ) ;
#333 = DIRECTION ( 'NONE',  ( 0.000000000000000000, 0.000000000000000000, -1.000000000000000000 ) ) ;
#334 = ORIENTED_EDGE ( 'NONE', *, *, #193, .T. ) ;
#335 = CLOSED_SHELL ( 'NONE', ( #208, #51, #326, #237 ) ) ;
#336 = FACE_OUTER_BOUND ( 'NONE', #299, .T. ) ;
#337 = AXIS2_PLACEMENT_3D ( 'NONE', #24, #98, #146 ) ;
#338 = CARTESIAN_POINT ( 'NONE',  ( 1.148106374200643863E-17, 0.000000000000000000, 0.09375000000000001388 ) ) ;
#339 = PRODUCT_DEFINITION_FORMATION_WITH_SPECIFIED_SOURCE ( 'ANY', '', #310, .NOT_KNOWN. ) ;
#340 = FACE_OUTER_BOUND ( 'NONE', #131, .T. ) ;
#341 = FACE_OUTER_BOUND ( 'NONE', #235, .T. ) ;
#342 = CIRCLE ( 'NONE', #356, 0.09375000000000001388 ) ;
#343 = MECHANICAL_DESIGN_GEOMETRIC_PRESENTATION_REPRESENTATION (  '', ( #294 ), #97 ) ;
#344 = AXIS2_PLACEMENT_3D ( 'NONE', #303, #126, #78 ) ;
#345 = FACE_OUTER_BOUND ( 'NONE', #306, .T. ) ;
#346 = SURFACE_SIDE_STYLE ('',( #143 ) ) ;
#347 = ADVANCED_FACE ( 'NONE', ( #349 ), #89, .F. ) ;
#348 = FILL_AREA_STYLE_COLOUR ( '', #304 ) ;
#349 = FACE_OUTER_BOUND ( 'NONE', #272, .T. ) ;
#350 =( NAMED_UNIT ( * ) PLANE_ANGLE_UNIT ( ) SI_UNIT ( $, .RADIAN. ) );
#351 = LENGTH_MEASURE_WITH_UNIT ( LENGTH_MEASURE( 0.02539999999999999897 ), #319 );
#352 = AXIS2_PLACEMENT_3D ( 'NONE', #197, #149, #25 ) ;
#353 = DIRECTION ( 'NONE',  ( -3.159563465292449303E-17, 1.000000000000000000, -0.000000000000000000 ) ) ;
#354 = DIRECTION ( 'NONE',  ( -3.159563465292449303E-17, 1.000000000000000000, -0.000000000000000000 ) ) ;
#355 =( LENGTH_UNIT ( ) NAMED_UNIT ( * ) SI_UNIT ( $, .METRE. ) );
#356 = AXIS2_PLACEMENT_3D ( 'NONE', #301, #155, #273 ) ;
#357 = AXIS2_PLACEMENT_3D ( 'NONE', #218, #247, #243 ) ;
#358 = FILL_AREA_STYLE_COLOUR ( '', #232 ) ;
#359 = ORIENTED_EDGE ( 'NONE', *, *, #296, .F. ) ;
ENDSEC;
END-ISO-10303-21;
