ISO-10303-21;
HEADER;
FILE_DESCRIPTION (( 'STEP AP214' ),
    '1' );
FILE_NAME ('Micro_RTC-250-1.STEP',
    '2021-09-03T18:07:14',
    ( '' ),
    ( '' ),
    'SwSTEP 2.0',
    'SolidWorks 2020',
    '' );
FILE_SCHEMA (( 'AUTOMOTIVE_DESIGN' ));
ENDSEC;

DATA;
#1 = DIRECTION ( 'NONE',  ( 1.000000000000000000, 0.0000000000000000000, 0.0000000000000000000 ) ) ;
#2 = ORIENTED_EDGE ( 'NONE', *, *, #212, .T. ) ;
#3 = ORIENTED_EDGE ( 'NONE', *, *, #93, .T. ) ;
#4 = ORIENTED_EDGE ( 'NONE', *, *, #174, .T. ) ;
#5 = DIRECTION ( 'NONE',  ( -1.000000000000000000, 0.0000000000000000000, 0.0000000000000000000 ) ) ;
#6 = ORIENTED_EDGE ( 'NONE', *, *, #174, .F. ) ;
#7 = AXIS2_PLACEMENT_3D ( 'NONE', #182, #129, #200 ) ;
#8 = DIRECTION ( 'NONE',  ( 0.0000000000000000000, 0.0000000000000000000, 1.000000000000000000 ) ) ;
#9 = EDGE_CURVE ( 'NONE', #173, #154, #81, .T. ) ;
#10 = CARTESIAN_POINT ( 'NONE',  ( 0.0000000000000000000, 0.0000000000000000000, 2.485000000000000320 ) ) ;
#11 = FILL_AREA_STYLE_COLOUR ( '', #76 ) ;
#12 = AXIS2_PLACEMENT_3D ( 'NONE', #179, #166, #181 ) ;
#13 = CARTESIAN_POINT ( 'NONE',  ( 0.0000000000000000000, 0.0000000000000000000, 2.500000000000000000 ) ) ;
#14 = CARTESIAN_POINT ( 'NONE',  ( 0.0000000000000000000, 0.0000000000000000000, 2.500000000000000000 ) ) ;
#15 = DIRECTION ( 'NONE',  ( 0.0000000000000000000, 0.0000000000000000000, -1.000000000000000000 ) ) ;
#16 = DIRECTION ( 'NONE',  ( -1.000000000000000000, 0.0000000000000000000, 0.0000000000000000000 ) ) ;
#17 = CLOSED_SHELL ( 'NONE', ( #153, #50, #78, #222, #124, #242, #72, #96 ) ) ;
#18 =( NAMED_UNIT ( * ) SI_UNIT ( $, .STERADIAN. ) SOLID_ANGLE_UNIT ( ) );
#19 = PRODUCT_RELATED_PRODUCT_CATEGORY ( 'part', '', ( #98 ) ) ;
#20 = ORIENTED_EDGE ( 'NONE', *, *, #149, .F. ) ;
#21 = CARTESIAN_POINT ( 'NONE',  ( 0.0000000000000000000, 0.0000000000000000000, 0.0000000000000000000 ) ) ;
#22 = DIRECTION ( 'NONE',  ( 1.000000000000000000, 0.0000000000000000000, 0.0000000000000000000 ) ) ;
#23 = PRODUCT_DEFINITION_CONTEXT ( 'detailed design', #231, 'design' ) ;
#24 = CONICAL_SURFACE ( 'NONE', #52, 0.003999999999999999216, 0.2617993877991504625 ) ;
#25 = EDGE_LOOP ( 'NONE', ( #217, #133, #4, #20 ) ) ;
#26 = EDGE_CURVE ( 'NONE', #172, #119, #45, .T. ) ;
#27 = EDGE_LOOP ( 'NONE', ( #157, #3, #116, #236 ) ) ;
#28 = ORIENTED_EDGE ( 'NONE', *, *, #134, .F. ) ;
#29 = CARTESIAN_POINT ( 'NONE',  ( 0.0000000000000000000, 0.0000000000000000000, 0.0000000000000000000 ) ) ;
#30 = DIRECTION ( 'NONE',  ( 1.000000000000000000, 0.0000000000000000000, -0.0000000000000000000 ) ) ;
#31 = CARTESIAN_POINT ( 'NONE',  ( 0.1100000000000001948, 1.438959988998141146E-17, 2.500000000000000000 ) ) ;
#32 = CIRCLE ( 'NONE', #77, 0.1250000000000000000 ) ;
#33 = DIRECTION ( 'NONE',  ( -0.0000000000000000000, -0.0000000000000000000, -1.000000000000000000 ) ) ;
#34 =( GEOMETRIC_REPRESENTATION_CONTEXT ( 3 ) GLOBAL_UNCERTAINTY_ASSIGNED_CONTEXT ( ( #65 ) ) GLOBAL_UNIT_ASSIGNED_CONTEXT ( ( #132, #109, #18 ) ) REPRESENTATION_CONTEXT ( 'NONE', 'WORKASPACE' ) );
#35 = CARTESIAN_POINT ( 'NONE',  ( 0.0000000000000000000, 0.0000000000000000000, 2.500000000000000000 ) ) ;
#36 = DIRECTION ( 'NONE',  ( -0.0000000000000000000, -0.0000000000000000000, -1.000000000000000000 ) ) ;
#37 = PRODUCT_DEFINITION_SHAPE ( 'NONE', 'NONE',  #69 ) ;
#38 = VECTOR ( 'NONE', #141, 39.37007874015748854 ) ;
#39 =( NAMED_UNIT ( * ) PLANE_ANGLE_UNIT ( ) SI_UNIT ( $, .RADIAN. ) );
#40 = EDGE_LOOP ( 'NONE', ( #44, #63 ) ) ;
#41 = FACE_OUTER_BOUND ( 'NONE', #100, .T. ) ;
#42 = ORIENTED_EDGE ( 'NONE', *, *, #228, .F. ) ;
#43 = CONICAL_SURFACE ( 'NONE', #111, 0.003999999999999999216, 0.2617993877991504625 ) ;
#44 = ORIENTED_EDGE ( 'NONE', *, *, #158, .T. ) ;
#45 = LINE ( 'NONE', #159, #147 ) ;
#46 =( LENGTH_UNIT ( ) NAMED_UNIT ( * ) SI_UNIT ( $, .METRE. ) );
#47 = CARTESIAN_POINT ( 'NONE',  ( 0.0000000000000000000, 0.0000000000000000000, 0.0000000000000000000 ) ) ;
#48 = DIRECTION ( 'NONE',  ( 0.2588190451025217387, 0.0000000000000000000, 0.9659258262890679791 ) ) ;
#49 = CARTESIAN_POINT ( 'NONE',  ( -0.1250000000000000000, 0.0000000000000000000, 0.4515781477158323232 ) ) ;
#50 = ADVANCED_FACE ( 'NONE', ( #197 ), #171, .T. ) ;
#51 = CARTESIAN_POINT ( 'NONE',  ( 0.0000000000000000000, 0.0000000000000000000, 0.0000000000000000000 ) ) ;
#52 = AXIS2_PLACEMENT_3D ( 'NONE', #83, #194, #22 ) ;
#53 = DIRECTION ( 'NONE',  ( -1.000000000000000000, 0.0000000000000000000, 0.0000000000000000000 ) ) ;
#54 = CARTESIAN_POINT ( 'NONE',  ( 0.0000000000000000000, 0.0000000000000000000, 2.485000000000000320 ) ) ;
#55 = LENGTH_MEASURE_WITH_UNIT ( LENGTH_MEASURE( 0.02539999999999999897 ), #248 );
#56 = AXIS2_PLACEMENT_3D ( 'NONE', #10, #221, #245 ) ;
#57 = PRESENTATION_LAYER_ASSIGNMENT (  '', '', ( #95 ) ) ;
#58 =( LENGTH_UNIT ( ) NAMED_UNIT ( * ) SI_UNIT ( $, .METRE. ) );
#59 =( NAMED_UNIT ( * ) SI_UNIT ( $, .STERADIAN. ) SOLID_ANGLE_UNIT ( ) );
#60 = APPLICATION_CONTEXT ( 'automotive_design' ) ;
#61 =( GEOMETRIC_REPRESENTATION_CONTEXT ( 3 ) GLOBAL_UNCERTAINTY_ASSIGNED_CONTEXT ( ( #235 ) ) GLOBAL_UNIT_ASSIGNED_CONTEXT ( ( #225, #230, #59 ) ) REPRESENTATION_CONTEXT ( 'NONE', 'WORKASPACE' ) );
#62 = DIRECTION ( 'NONE',  ( 0.0000000000000000000, 0.0000000000000000000, -1.000000000000000000 ) ) ;
#63 = ORIENTED_EDGE ( 'NONE', *, *, #228, .T. ) ;
#64 = SHAPE_DEFINITION_REPRESENTATION ( #37, #229 ) ;
#65 = UNCERTAINTY_MEASURE_WITH_UNIT (LENGTH_MEASURE( 1.000000000000000082E-05 ), #132, 'distance_accuracy_value', 'NONE');
#66 = AXIS2_PLACEMENT_3D ( 'NONE', #123, #167, #246 ) ;
#67 = CIRCLE ( 'NONE', #162, 0.1100000000000001948 ) ;
#68 = DIRECTION ( 'NONE',  ( 1.000000000000000000, 0.0000000000000000000, -0.0000000000000000000 ) ) ;
#69 = PRODUCT_DEFINITION ( 'UNKNOWN', '', #203, #23 ) ;
#70 = CARTESIAN_POINT ( 'NONE',  ( 0.1250000000000000000, 1.530808498934191509E-17, 2.485000000000000320 ) ) ;
#71 = STYLED_ITEM ( 'NONE', ( #241 ), #180 ) ;
#72 = ADVANCED_FACE ( 'NONE', ( #41 ), #24, .T. ) ;
#73 = FACE_OUTER_BOUND ( 'NONE', #25, .T. ) ;
#74 = CARTESIAN_POINT ( 'NONE',  ( 0.0000000000000000000, 0.0000000000000000000, 0.4515781477158323232 ) ) ;
#75 = DIRECTION ( 'NONE',  ( 0.0000000000000000000, 0.0000000000000000000, 1.000000000000000000 ) ) ;
#76 = COLOUR_RGB ( '',0.7921568627450980005, 0.8196078431372548767, 0.9333333333333333481 ) ;
#77 = AXIS2_PLACEMENT_3D ( 'NONE', #54, #170, #208 ) ;
#78 = ADVANCED_FACE ( 'NONE', ( #99 ), #160, .T. ) ;
#79 = VERTEX_POINT ( 'NONE', #86 ) ;
#80 = ORIENTED_EDGE ( 'NONE', *, *, #212, .F. ) ;
#81 = LINE ( 'NONE', #233, #188 ) ;
#82 = DIMENSIONAL_EXPONENTS ( 1.000000000000000000, 0.0000000000000000000, 0.0000000000000000000, 0.0000000000000000000, 0.0000000000000000000, 0.0000000000000000000, 0.0000000000000000000 ) ;
#83 = CARTESIAN_POINT ( 'NONE',  ( 0.0000000000000000000, 0.0000000000000000000, 0.0000000000000000000 ) ) ;
#84 = VERTEX_POINT ( 'NONE', #202 ) ;
#85 = DIRECTION ( 'NONE',  ( -1.000000000000000000, 0.0000000000000000000, 0.0000000000000000000 ) ) ;
#86 = CARTESIAN_POINT ( 'NONE',  ( 0.003999999999999999216, 0.0000000000000000000, 0.0000000000000000000 ) ) ;
#87 = SURFACE_SIDE_STYLE ('',( #89 ) ) ;
#88 = CIRCLE ( 'NONE', #12, 0.1100000000000001948 ) ;
#89 = SURFACE_STYLE_FILL_AREA ( #204 ) ;
#90 = LINE ( 'NONE', #126, #118 ) ;
#91 = SURFACE_STYLE_USAGE ( .BOTH. , #186 ) ;
#92 = AXIS2_PLACEMENT_3D ( 'NONE', #74, #209, #227 ) ;
#93 = EDGE_CURVE ( 'NONE', #119, #154, #108, .T. ) ;
#94 = AXIS2_PLACEMENT_3D ( 'NONE', #13, #8, #68 ) ;
#95 = STYLED_ITEM ( 'NONE', ( #146 ), #229 ) ;
#96 = ADVANCED_FACE ( 'NONE', ( #165 ), #243, .F. ) ;
#97 = EDGE_LOOP ( 'NONE', ( #219, #196, #101, #136 ) ) ;
#98 = PRODUCT ( 'Micro_RTC-250-1', 'Micro_RTC-250-1', '', ( #213 ) ) ;
#99 = FACE_OUTER_BOUND ( 'NONE', #240, .T. ) ;
#100 = EDGE_LOOP ( 'NONE', ( #28, #137, #215, #193 ) ) ;
#101 = ORIENTED_EDGE ( 'NONE', *, *, #9, .T. ) ;
#102 = EDGE_CURVE ( 'NONE', #79, #84, #142, .T. ) ;
#103 = CARTESIAN_POINT ( 'NONE',  ( -0.003999999999999999216, 4.898587196589411612E-19, 0.0000000000000000000 ) ) ;
#104 = FACE_OUTER_BOUND ( 'NONE', #40, .T. ) ;
#105 = DIRECTION ( 'NONE',  ( -0.0000000000000000000, -0.0000000000000000000, -1.000000000000000000 ) ) ;
#106 = DIRECTION ( 'NONE',  ( -0.0000000000000000000, -0.0000000000000000000, -1.000000000000000000 ) ) ;
#107 = DIRECTION ( 'NONE',  ( 1.000000000000000000, 0.0000000000000000000, 0.0000000000000000000 ) ) ;
#108 = CIRCLE ( 'NONE', #56, 0.1250000000000000000 ) ;
#109 =( NAMED_UNIT ( * ) PLANE_ANGLE_UNIT ( ) SI_UNIT ( $, .RADIAN. ) );
#110 = FACE_OUTER_BOUND ( 'NONE', #27, .T. ) ;
#111 = AXIS2_PLACEMENT_3D ( 'NONE', #127, #201, #139 ) ;
#112 = MECHANICAL_DESIGN_GEOMETRIC_PRESENTATION_REPRESENTATION (  '', ( #95 ), #125 ) ;
#113 = ORIENTED_EDGE ( 'NONE', *, *, #9, .F. ) ;
#114 = DIRECTION ( 'NONE',  ( 0.0000000000000000000, 0.0000000000000000000, 1.000000000000000000 ) ) ;
#115 = EDGE_CURVE ( 'NONE', #119, #195, #90, .T. ) ;
#116 = ORIENTED_EDGE ( 'NONE', *, *, #191, .T. ) ;
#117 = EDGE_LOOP ( 'NONE', ( #163, #122 ) ) ;
#118 = VECTOR ( 'NONE', #105, 39.37007874015748143 ) ;
#119 = VERTEX_POINT ( 'NONE', #70 ) ;
#120 = UNCERTAINTY_MEASURE_WITH_UNIT (LENGTH_MEASURE( 1.000000000000000082E-05 ), #151, 'distance_accuracy_value', 'NONE');
#121 =( NAMED_UNIT ( * ) SI_UNIT ( $, .STERADIAN. ) SOLID_ANGLE_UNIT ( ) );
#122 = ORIENTED_EDGE ( 'NONE', *, *, #140, .T. ) ;
#123 = CARTESIAN_POINT ( 'NONE',  ( 0.0000000000000000000, 0.0000000000000000000, 2.500000000000000000 ) ) ;
#124 = ADVANCED_FACE ( 'NONE', ( #104 ), #224, .T. ) ;
#125 =( GEOMETRIC_REPRESENTATION_CONTEXT ( 3 ) GLOBAL_UNCERTAINTY_ASSIGNED_CONTEXT ( ( #120 ) ) GLOBAL_UNIT_ASSIGNED_CONTEXT ( ( #151, #39, #121 ) ) REPRESENTATION_CONTEXT ( 'NONE', 'WORKASPACE' ) );
#126 = CARTESIAN_POINT ( 'NONE',  ( 0.1250000000000000000, 1.530808498934191509E-17, 2.500000000000000000 ) ) ;
#127 = CARTESIAN_POINT ( 'NONE',  ( 0.0000000000000000000, 0.0000000000000000000, 0.0000000000000000000 ) ) ;
#128 = CARTESIAN_POINT ( 'NONE',  ( -0.1250000000000000000, 0.0000000000000000000, 2.485000000000000320 ) ) ;
#129 = DIRECTION ( 'NONE',  ( -0.0000000000000000000, -0.0000000000000000000, -1.000000000000000000 ) ) ;
#130 = LINE ( 'NONE', #207, #232 ) ;
#131 = CARTESIAN_POINT ( 'NONE',  ( 0.1250000000000000000, 1.530808498934191509E-17, 0.4515781477158323232 ) ) ;
#132 =( CONVERSION_BASED_UNIT ( 'INCH', #169 ) LENGTH_UNIT ( ) NAMED_UNIT ( #82 ) );
#133 = ORIENTED_EDGE ( 'NONE', *, *, #134, .T. ) ;
#134 = EDGE_CURVE ( 'NONE', #84, #135, #168, .T. ) ;
#135 = VERTEX_POINT ( 'NONE', #49 ) ;
#136 = ORIENTED_EDGE ( 'NONE', *, *, #93, .F. ) ;
#137 = ORIENTED_EDGE ( 'NONE', *, *, #102, .F. ) ;
#138 = ORIENTED_EDGE ( 'NONE', *, *, #191, .F. ) ;
#139 = DIRECTION ( 'NONE',  ( 1.000000000000000000, 0.0000000000000000000, 0.0000000000000000000 ) ) ;
#140 = EDGE_CURVE ( 'NONE', #84, #79, #238, .T. ) ;
#141 = DIRECTION ( 'NONE',  ( -0.2588190451025217387, 3.169619151431776651E-17, 0.9659258262890679791 ) ) ;
#142 = CIRCLE ( 'NONE', #184, 0.003999999999999999216 ) ;
#143 = DIRECTION ( 'NONE',  ( -0.0000000000000000000, -0.0000000000000000000, -1.000000000000000000 ) ) ;
#144 = SURFACE_STYLE_USAGE ( .BOTH. , #87 ) ;
#145 = LENGTH_MEASURE_WITH_UNIT ( LENGTH_MEASURE( 0.02539999999999999897 ), #46 );
#146 = PRESENTATION_STYLE_ASSIGNMENT (( #91 ) ) ;
#147 = VECTOR ( 'NONE', #211, 39.37007874015748143 ) ;
#148 = COLOUR_RGB ( '',0.7921568627450980005, 0.8196078431372548767, 0.9333333333333333481 ) ;
#149 = EDGE_CURVE ( 'NONE', #79, #195, #164, .T. ) ;
#150 = APPLICATION_PROTOCOL_DEFINITION ( 'draft international standard', 'automotive_design', 1998, #60 ) ;
#151 =( CONVERSION_BASED_UNIT ( 'INCH', #55 ) LENGTH_UNIT ( ) NAMED_UNIT ( #216 ) );
#152 = FILL_AREA_STYLE ('',( #247 ) ) ;
#153 = ADVANCED_FACE ( 'NONE', ( #73 ), #43, .T. ) ;
#154 = VERTEX_POINT ( 'NONE', #128 ) ;
#155 = CONICAL_SURFACE ( 'NONE', #234, 0.1100000000000001948, 0.7853981633974517207 ) ;
#156 = APPLICATION_PROTOCOL_DEFINITION ( 'draft international standard', 'automotive_design', 1998, #231 ) ;
#157 = ORIENTED_EDGE ( 'NONE', *, *, #115, .F. ) ;
#158 = EDGE_CURVE ( 'NONE', #173, #172, #88, .T. ) ;
#159 = CARTESIAN_POINT ( 'NONE',  ( 0.1100000000000001948, 1.347111479062090784E-17, 2.500000000000000000 ) ) ;
#160 = CYLINDRICAL_SURFACE ( 'NONE', #66, 0.1250000000000000000 ) ;
#161 = AXIS2_PLACEMENT_3D ( 'NONE', #51, #143, #85 ) ;
#162 = AXIS2_PLACEMENT_3D ( 'NONE', #187, #75, #107 ) ;
#163 = ORIENTED_EDGE ( 'NONE', *, *, #102, .T. ) ;
#164 = LINE ( 'NONE', #223, #192 ) ;
#165 = FACE_OUTER_BOUND ( 'NONE', #117, .T. ) ;
#166 = DIRECTION ( 'NONE',  ( 0.0000000000000000000, 0.0000000000000000000, 1.000000000000000000 ) ) ;
#167 = DIRECTION ( 'NONE',  ( -0.0000000000000000000, -0.0000000000000000000, -1.000000000000000000 ) ) ;
#168 = LINE ( 'NONE', #103, #38 ) ;
#169 = LENGTH_MEASURE_WITH_UNIT ( LENGTH_MEASURE( 0.02539999999999999897 ), #58 );
#170 = DIRECTION ( 'NONE',  ( 0.0000000000000000000, 0.0000000000000000000, -1.000000000000000000 ) ) ;
#171 = CONICAL_SURFACE ( 'NONE', #178, 0.1100000000000001948, 0.7853981633974517207 ) ;
#172 = VERTEX_POINT ( 'NONE', #31 ) ;
#173 = VERTEX_POINT ( 'NONE', #220 ) ;
#174 = EDGE_CURVE ( 'NONE', #135, #195, #226, .T. ) ;
#175 = DIRECTION ( 'NONE',  ( -0.7071067811865499042, 0.0000000000000000000, -0.7071067811865451302 ) ) ;
#176 = ORIENTED_EDGE ( 'NONE', *, *, #26, .T. ) ;
#177 = EDGE_LOOP ( 'NONE', ( #42, #176, #80, #113 ) ) ;
#178 = AXIS2_PLACEMENT_3D ( 'NONE', #214, #62, #5 ) ;
#179 = CARTESIAN_POINT ( 'NONE',  ( 0.0000000000000000000, 0.0000000000000000000, 2.500000000000000000 ) ) ;
#180 = MANIFOLD_SOLID_BREP ( 'Cut-Revolve1', #17 ) ;
#181 = DIRECTION ( 'NONE',  ( 1.000000000000000000, 0.0000000000000000000, 0.0000000000000000000 ) ) ;
#182 = CARTESIAN_POINT ( 'NONE',  ( 0.0000000000000000000, 0.0000000000000000000, 0.4515781477158323232 ) ) ;
#183 = EDGE_CURVE ( 'NONE', #195, #135, #199, .T. ) ;
#184 = AXIS2_PLACEMENT_3D ( 'NONE', #47, #106, #185 ) ;
#185 = DIRECTION ( 'NONE',  ( -1.000000000000000000, 0.0000000000000000000, 0.0000000000000000000 ) ) ;
#186 = SURFACE_SIDE_STYLE ('',( #249 ) ) ;
#187 = CARTESIAN_POINT ( 'NONE',  ( 0.0000000000000000000, 0.0000000000000000000, 2.500000000000000000 ) ) ;
#188 = VECTOR ( 'NONE', #175, 39.37007874015748143 ) ;
#189 = CYLINDRICAL_SURFACE ( 'NONE', #239, 0.1250000000000000000 ) ;
#190 = FACE_OUTER_BOUND ( 'NONE', #97, .T. ) ;
#191 = EDGE_CURVE ( 'NONE', #154, #135, #130, .T. ) ;
#192 = VECTOR ( 'NONE', #48, 39.37007874015748854 ) ;
#193 = ORIENTED_EDGE ( 'NONE', *, *, #183, .T. ) ;
#194 = DIRECTION ( 'NONE',  ( 0.0000000000000000000, 0.0000000000000000000, 1.000000000000000000 ) ) ;
#195 = VERTEX_POINT ( 'NONE', #131 ) ;
#196 = ORIENTED_EDGE ( 'NONE', *, *, #158, .F. ) ;
#197 = FACE_OUTER_BOUND ( 'NONE', #177, .T. ) ;
#198 = DIRECTION ( 'NONE',  ( 0.0000000000000000000, 0.0000000000000000000, 1.000000000000000000 ) ) ;
#199 = CIRCLE ( 'NONE', #92, 0.1250000000000000000 ) ;
#200 = DIRECTION ( 'NONE',  ( -1.000000000000000000, 0.0000000000000000000, 0.0000000000000000000 ) ) ;
#201 = DIRECTION ( 'NONE',  ( 0.0000000000000000000, 0.0000000000000000000, 1.000000000000000000 ) ) ;
#202 = CARTESIAN_POINT ( 'NONE',  ( -0.003999999999999999216, 7.898971854500427644E-18, 0.0000000000000000000 ) ) ;
#203 = PRODUCT_DEFINITION_FORMATION_WITH_SPECIFIED_SOURCE ( 'ANY', '', #98, .NOT_KNOWN. ) ;
#204 = FILL_AREA_STYLE ('',( #11 ) ) ;
#205 = DIMENSIONAL_EXPONENTS ( 1.000000000000000000, 0.0000000000000000000, 0.0000000000000000000, 0.0000000000000000000, 0.0000000000000000000, 0.0000000000000000000, 0.0000000000000000000 ) ;
#206 = AXIS2_PLACEMENT_3D ( 'NONE', #29, #198, #30 ) ;
#207 = CARTESIAN_POINT ( 'NONE',  ( -0.1250000000000000000, 0.0000000000000000000, 2.500000000000000000 ) ) ;
#208 = DIRECTION ( 'NONE',  ( 1.000000000000000000, 0.0000000000000000000, 0.0000000000000000000 ) ) ;
#209 = DIRECTION ( 'NONE',  ( -0.0000000000000000000, -0.0000000000000000000, -1.000000000000000000 ) ) ;
#210 = PRESENTATION_LAYER_ASSIGNMENT (  '', '', ( #71 ) ) ;
#211 = DIRECTION ( 'NONE',  ( 0.7071067811865499042, 8.659560562354961208E-17, -0.7071067811865451302 ) ) ;
#212 = EDGE_CURVE ( 'NONE', #154, #119, #32, .T. ) ;
#213 = PRODUCT_CONTEXT ( 'NONE', #60, 'mechanical' ) ;
#214 = CARTESIAN_POINT ( 'NONE',  ( 0.0000000000000000000, 0.0000000000000000000, 2.500000000000000000 ) ) ;
#215 = ORIENTED_EDGE ( 'NONE', *, *, #149, .T. ) ;
#216 = DIMENSIONAL_EXPONENTS ( 1.000000000000000000, 0.0000000000000000000, 0.0000000000000000000, 0.0000000000000000000, 0.0000000000000000000, 0.0000000000000000000, 0.0000000000000000000 ) ;
#217 = ORIENTED_EDGE ( 'NONE', *, *, #140, .F. ) ;
#218 = AXIS2_PLACEMENT_3D ( 'NONE', #21, #114, #1 ) ;
#219 = ORIENTED_EDGE ( 'NONE', *, *, #26, .F. ) ;
#220 = CARTESIAN_POINT ( 'NONE',  ( -0.1100000000000001948, 0.0000000000000000000, 2.500000000000000000 ) ) ;
#221 = DIRECTION ( 'NONE',  ( 0.0000000000000000000, 0.0000000000000000000, -1.000000000000000000 ) ) ;
#222 = ADVANCED_FACE ( 'NONE', ( #110 ), #189, .T. ) ;
#223 = CARTESIAN_POINT ( 'NONE',  ( 0.003999999999999999216, 0.0000000000000000000, 0.0000000000000000000 ) ) ;
#224 = PLANE ( 'NONE',  #94 ) ;
#225 =( CONVERSION_BASED_UNIT ( 'INCH', #145 ) LENGTH_UNIT ( ) NAMED_UNIT ( #205 ) );
#226 = CIRCLE ( 'NONE', #7, 0.1250000000000000000 ) ;
#227 = DIRECTION ( 'NONE',  ( -1.000000000000000000, 0.0000000000000000000, 0.0000000000000000000 ) ) ;
#228 = EDGE_CURVE ( 'NONE', #172, #173, #67, .T. ) ;
#229 = ADVANCED_BREP_SHAPE_REPRESENTATION ( 'Micro_RTC-250-1', ( #180, #218 ), #34 ) ;
#230 =( NAMED_UNIT ( * ) PLANE_ANGLE_UNIT ( ) SI_UNIT ( $, .RADIAN. ) );
#231 = APPLICATION_CONTEXT ( 'automotive_design' ) ;
#232 = VECTOR ( 'NONE', #33, 39.37007874015748143 ) ;
#233 = CARTESIAN_POINT ( 'NONE',  ( -0.1100000000000001948, 0.0000000000000000000, 2.500000000000000000 ) ) ;
#234 = AXIS2_PLACEMENT_3D ( 'NONE', #14, #15, #16 ) ;
#235 = UNCERTAINTY_MEASURE_WITH_UNIT (LENGTH_MEASURE( 1.000000000000000082E-05 ), #225, 'distance_accuracy_value', 'NONE');
#236 = ORIENTED_EDGE ( 'NONE', *, *, #183, .F. ) ;
#237 = ORIENTED_EDGE ( 'NONE', *, *, #115, .T. ) ;
#238 = CIRCLE ( 'NONE', #161, 0.003999999999999999216 ) ;
#239 = AXIS2_PLACEMENT_3D ( 'NONE', #35, #36, #53 ) ;
#240 = EDGE_LOOP ( 'NONE', ( #2, #237, #6, #138 ) ) ;
#241 = PRESENTATION_STYLE_ASSIGNMENT (( #144 ) ) ;
#242 = ADVANCED_FACE ( 'NONE', ( #190 ), #155, .T. ) ;
#243 = PLANE ( 'NONE',  #206 ) ;
#244 = MECHANICAL_DESIGN_GEOMETRIC_PRESENTATION_REPRESENTATION (  '', ( #71 ), #61 ) ;
#245 = DIRECTION ( 'NONE',  ( 1.000000000000000000, 0.0000000000000000000, 0.0000000000000000000 ) ) ;
#246 = DIRECTION ( 'NONE',  ( -1.000000000000000000, 0.0000000000000000000, 0.0000000000000000000 ) ) ;
#247 = FILL_AREA_STYLE_COLOUR ( '', #148 ) ;
#248 =( LENGTH_UNIT ( ) NAMED_UNIT ( * ) SI_UNIT ( $, .METRE. ) );
#249 = SURFACE_STYLE_FILL_AREA ( #152 ) ;
ENDSEC;
END-ISO-10303-21;
