ISO-10303-21;
HEADER;
FILE_DESCRIPTION (( 'STEP AP214' ),
    '1' );
FILE_NAME ('Micro_SPD-312-082.STEP',
    '2021-09-03T21:20:33',
    ( '' ),
    ( '' ),
    'SwSTEP 2.0',
    'SolidWorks 2020',
    '' );
FILE_SCHEMA (( 'AUTOMOTIVE_DESIGN' ));
ENDSEC;

DATA;
#1 = VERTEX_POINT ( 'NONE', #57 ) ;
#2 = DIRECTION ( 'NONE',  ( 1.000000000000000000, 0.0000000000000000000, 0.0000000000000000000 ) ) ;
#3 = ORIENTED_EDGE ( 'NONE', *, *, #37, .T. ) ;
#4 = CARTESIAN_POINT ( 'NONE',  ( -0.1562000000000000333, 0.0000000000000000000, 0.0000000000000000000 ) ) ;
#5 = EDGE_LOOP ( 'NONE', ( #332, #128, #165, #39 ) ) ;
#6 =( GEOMETRIC_REPRESENTATION_CONTEXT ( 3 ) GLOBAL_UNCERTAINTY_ASSIGNED_CONTEXT ( ( #22 ) ) GLOBAL_UNIT_ASSIGNED_CONTEXT ( ( #313, #149, #308 ) ) REPRESENTATION_CONTEXT ( 'NONE', 'WORKASPACE' ) );
#7 = CYLINDRICAL_SURFACE ( 'NONE', #74, 0.1562500000000000000 ) ;
#8 = SHAPE_DEFINITION_REPRESENTATION ( #122, #231 ) ;
#9 = CARTESIAN_POINT ( 'NONE',  ( 0.0000000000000000000, 0.0000000000000000000, 2.500000000000000000 ) ) ;
#10 = FACE_OUTER_BOUND ( 'NONE', #113, .T. ) ;
#11 = ORIENTED_EDGE ( 'NONE', *, *, #152, .F. ) ;
#12 = EDGE_CURVE ( 'NONE', #33, #107, #151, .T. ) ;
#13 = CARTESIAN_POINT ( 'NONE',  ( 0.0000000000000000000, 0.0000000000000000000, 0.0000000000000000000 ) ) ;
#14 = ORIENTED_EDGE ( 'NONE', *, *, #348, .F. ) ;
#15 =( LENGTH_UNIT ( ) NAMED_UNIT ( * ) SI_UNIT ( $, .METRE. ) );
#16 = DIRECTION ( 'NONE',  ( -0.7071067811865490160, 8.659560562354951347E-17, 0.7071067811865459074 ) ) ;
#17 = LENGTH_MEASURE_WITH_UNIT ( LENGTH_MEASURE( 0.02539999999999999897 ), #144 );
#18 = EDGE_CURVE ( 'NONE', #55, #220, #225, .T. ) ;
#19 = CIRCLE ( 'NONE', #63, 0.1562500000000000000 ) ;
#20 = CARTESIAN_POINT ( 'NONE',  ( -0.1412499999999994871, 0.0000000000000000000, 2.500000000000000000 ) ) ;
#21 =( LENGTH_UNIT ( ) NAMED_UNIT ( * ) SI_UNIT ( $, .METRE. ) );
#22 = UNCERTAINTY_MEASURE_WITH_UNIT (LENGTH_MEASURE( 1.000000000000000082E-05 ), #313, 'distance_accuracy_value', 'NONE');
#23 = CARTESIAN_POINT ( 'NONE',  ( 0.0000000000000000000, 0.0000000000000000000, 0.0000000000000000000 ) ) ;
#24 = VECTOR ( 'NONE', #281, 39.37007874015748854 ) ;
#25 = PRODUCT_DEFINITION_FORMATION_WITH_SPECIFIED_SOURCE ( 'ANY', '', #336, .NOT_KNOWN. ) ;
#26 = FACE_OUTER_BOUND ( 'NONE', #5, .T. ) ;
#27 = CONICAL_SURFACE ( 'NONE', #218, 0.1412499999999994871, 0.7853981633974391752 ) ;
#28 = FACE_OUTER_BOUND ( 'NONE', #175, .T. ) ;
#29 = ORIENTED_EDGE ( 'NONE', *, *, #340, .T. ) ;
#30 = DIRECTION ( 'NONE',  ( 0.0000000000000000000, 0.0000000000000000000, 1.000000000000000000 ) ) ;
#31 = CARTESIAN_POINT ( 'NONE',  ( 0.0000000000000000000, 0.0000000000000000000, 0.7500000000000001110 ) ) ;
#32 = DIRECTION ( 'NONE',  ( -0.0000000000000000000, -0.0000000000000000000, -1.000000000000000000 ) ) ;
#33 = VERTEX_POINT ( 'NONE', #140 ) ;
#34 = CIRCLE ( 'NONE', #291, 0.02350000000000000352 ) ;
#35 = CARTESIAN_POINT ( 'NONE',  ( -0.1562500000000000000, 0.0000000000000000000, 2.484999999999999432 ) ) ;
#36 = DIRECTION ( 'NONE',  ( -1.000000000000000000, 0.0000000000000000000, 0.0000000000000000000 ) ) ;
#37 = EDGE_CURVE ( 'NONE', #347, #119, #158, .T. ) ;
#38 = CARTESIAN_POINT ( 'NONE',  ( -0.1562000000000000333, 1.913204461967952718E-17, 0.7500000000000001110 ) ) ;
#39 = ORIENTED_EDGE ( 'NONE', *, *, #129, .F. ) ;
#40 = CARTESIAN_POINT ( 'NONE',  ( -0.02350000000000000352, 2.877919977996280598E-18, 0.0000000000000000000 ) ) ;
#41 = ORIENTED_EDGE ( 'NONE', *, *, #348, .T. ) ;
#42 = VECTOR ( 'NONE', #285, 39.37007874015748854 ) ;
#43 = DIRECTION ( 'NONE',  ( -0.7071067811865410224, 0.0000000000000000000, -0.7071067811865539010 ) ) ;
#44 = PRESENTATION_STYLE_ASSIGNMENT (( #168 ) ) ;
#45 = ADVANCED_FACE ( 'NONE', ( #249 ), #117, .F. ) ;
#46 = AXIS2_PLACEMENT_3D ( 'NONE', #191, #195, #311 ) ;
#47 = DIRECTION ( 'NONE',  ( -0.0000000000000000000, -0.0000000000000000000, -1.000000000000000000 ) ) ;
#48 = ADVANCED_FACE ( 'NONE', ( #145 ), #226, .T. ) ;
#49 =( CONVERSION_BASED_UNIT ( 'INCH', #173 ) LENGTH_UNIT ( ) NAMED_UNIT ( #197 ) );
#50 = DIRECTION ( 'NONE',  ( -1.000000000000000000, 0.0000000000000000000, 0.0000000000000000000 ) ) ;
#51 = AXIS2_PLACEMENT_3D ( 'NONE', #314, #261, #102 ) ;
#52 = MANIFOLD_SOLID_BREP ( 'Cut-Revolve2', #305 ) ;
#53 = DIRECTION ( 'NONE',  ( 1.000000000000000000, 0.0000000000000000000, 0.0000000000000000000 ) ) ;
#54 = VECTOR ( 'NONE', #239, 39.37007874015748143 ) ;
#55 = VERTEX_POINT ( 'NONE', #179 ) ;
#56 = LINE ( 'NONE', #4, #233 ) ;
#57 = CARTESIAN_POINT ( 'NONE',  ( 0.1562500000000000000, 1.913510623667739463E-17, 2.484999999999999432 ) ) ;
#58 = DIRECTION ( 'NONE',  ( -0.0000000000000000000, -0.0000000000000000000, -1.000000000000000000 ) ) ;
#59 = EDGE_LOOP ( 'NONE', ( #14, #11, #3, #268 ) ) ;
#60 = DIRECTION ( 'NONE',  ( 0.0000000000000000000, 0.0000000000000000000, -1.000000000000000000 ) ) ;
#61 = ADVANCED_FACE ( 'NONE', ( #288 ), #254, .T. ) ;
#62 = ORIENTED_EDGE ( 'NONE', *, *, #108, .F. ) ;
#63 = AXIS2_PLACEMENT_3D ( 'NONE', #274, #182, #133 ) ;
#64 = DIRECTION ( 'NONE',  ( 0.0000000000000000000, 0.0000000000000000000, -1.000000000000000000 ) ) ;
#65 = ORIENTED_EDGE ( 'NONE', *, *, #340, .F. ) ;
#66 = DIRECTION ( 'NONE',  ( 1.000000000000000000, 0.0000000000000000000, 0.0000000000000000000 ) ) ;
#67 = ORIENTED_EDGE ( 'NONE', *, *, #214, .F. ) ;
#68 = CARTESIAN_POINT ( 'NONE',  ( 0.1562500000000000000, 1.913510623667739463E-17, 0.7500499999999999945 ) ) ;
#69 = ADVANCED_FACE ( 'NONE', ( #26 ), #329, .T. ) ;
#70 = CONICAL_SURFACE ( 'NONE', #282, 0.1562000000000000333, 0.7853981633974504994 ) ;
#71 = LENGTH_MEASURE_WITH_UNIT ( LENGTH_MEASURE( 0.02539999999999999897 ), #15 );
#72 = DIRECTION ( 'NONE',  ( 0.0000000000000000000, 0.0000000000000000000, -1.000000000000000000 ) ) ;
#73 = ORIENTED_EDGE ( 'NONE', *, *, #103, .T. ) ;
#74 = AXIS2_PLACEMENT_3D ( 'NONE', #118, #186, #114 ) ;
#75 = FACE_OUTER_BOUND ( 'NONE', #101, .T. ) ;
#76 = ORIENTED_EDGE ( 'NONE', *, *, #318, .T. ) ;
#77 =( NAMED_UNIT ( * ) SI_UNIT ( $, .STERADIAN. ) SOLID_ANGLE_UNIT ( ) );
#78 = CARTESIAN_POINT ( 'NONE',  ( -0.02350000000000000352, 1.100345149033896978E-17, 0.0000000000000000000 ) ) ;
#79 = AXIS2_PLACEMENT_3D ( 'NONE', #166, #192, #66 ) ;
#80 = ORIENTED_EDGE ( 'NONE', *, *, #266, .F. ) ;
#81 = FACE_OUTER_BOUND ( 'NONE', #211, .T. ) ;
#82 = ORIENTED_EDGE ( 'NONE', *, *, #177, .T. ) ;
#83 = DIRECTION ( 'NONE',  ( 1.000000000000000000, 0.0000000000000000000, 0.0000000000000000000 ) ) ;
#84 = ORIENTED_EDGE ( 'NONE', *, *, #214, .T. ) ;
#85 = DIRECTION ( 'NONE',  ( -1.000000000000000000, 0.0000000000000000000, 0.0000000000000000000 ) ) ;
#86 = ORIENTED_EDGE ( 'NONE', *, *, #129, .T. ) ;
#87 = CIRCLE ( 'NONE', #154, 0.1562500000000000000 ) ;
#88 = DIRECTION ( 'NONE',  ( -1.000000000000000000, 0.0000000000000000000, 0.0000000000000000000 ) ) ;
#89 = DIRECTION ( 'NONE',  ( 0.0000000000000000000, 0.0000000000000000000, 1.000000000000000000 ) ) ;
#90 = ADVANCED_FACE ( 'NONE', ( #75 ), #258, .T. ) ;
#91 = PRODUCT_DEFINITION_CONTEXT ( 'detailed design', #273, 'design' ) ;
#92 = CARTESIAN_POINT ( 'NONE',  ( 0.1412499999999994871, 1.729813603795630110E-17, 2.500000000000000000 ) ) ;
#93 = COLOUR_RGB ( '',0.7921568627450980005, 0.8196078431372548767, 0.9333333333333333481 ) ;
#94 = STYLED_ITEM ( 'NONE', ( #259 ), #231 ) ;
#95 = APPLICATION_PROTOCOL_DEFINITION ( 'draft international standard', 'automotive_design', 1998, #99 ) ;
#96 = SURFACE_SIDE_STYLE ('',( #333 ) ) ;
#97 = EDGE_CURVE ( 'NONE', #110, #347, #105, .T. ) ;
#98 =( NAMED_UNIT ( * ) SI_UNIT ( $, .STERADIAN. ) SOLID_ANGLE_UNIT ( ) );
#99 = APPLICATION_CONTEXT ( 'automotive_design' ) ;
#100 = CARTESIAN_POINT ( 'NONE',  ( 0.0000000000000000000, 0.0000000000000000000, 2.500000000000000000 ) ) ;
#101 = EDGE_LOOP ( 'NONE', ( #328, #302, #76, #84 ) ) ;
#102 = DIRECTION ( 'NONE',  ( -1.000000000000000000, 0.0000000000000000000, 0.0000000000000000000 ) ) ;
#103 = EDGE_CURVE ( 'NONE', #236, #1, #87, .T. ) ;
#104 = DIRECTION ( 'NONE',  ( 0.0000000000000000000, 0.0000000000000000000, -1.000000000000000000 ) ) ;
#105 = CIRCLE ( 'NONE', #335, 0.02350000000000000352 ) ;
#106 = DIRECTION ( 'NONE',  ( -1.000000000000000000, 0.0000000000000000000, 0.0000000000000000000 ) ) ;
#107 = VERTEX_POINT ( 'NONE', #319 ) ;
#108 = EDGE_CURVE ( 'NONE', #324, #299, #19, .T. ) ;
#109 = LINE ( 'NONE', #215, #306 ) ;
#110 = VERTEX_POINT ( 'NONE', #78 ) ;
#111 = DIRECTION ( 'NONE',  ( 1.000000000000000000, 0.0000000000000000000, 0.0000000000000000000 ) ) ;
#112 = DIRECTION ( 'NONE',  ( 0.0000000000000000000, 0.0000000000000000000, 1.000000000000000000 ) ) ;
#113 = EDGE_LOOP ( 'NONE', ( #73, #82, #62, #80 ) ) ;
#114 = DIRECTION ( 'NONE',  ( -1.000000000000000000, 0.0000000000000000000, 0.0000000000000000000 ) ) ;
#115 = CARTESIAN_POINT ( 'NONE',  ( 0.0000000000000000000, 0.0000000000000000000, 0.0000000000000000000 ) ) ;
#116 = DIRECTION ( 'NONE',  ( 0.0000000000000000000, 0.0000000000000000000, 1.000000000000000000 ) ) ;
#117 = PLANE ( 'NONE',  #46 ) ;
#118 = CARTESIAN_POINT ( 'NONE',  ( 0.0000000000000000000, 0.0000000000000000000, 2.500000000000000000 ) ) ;
#119 = VERTEX_POINT ( 'NONE', #217 ) ;
#120 = VECTOR ( 'NONE', #155, 39.37007874015748143 ) ;
#121 =( CONVERSION_BASED_UNIT ( 'INCH', #71 ) LENGTH_UNIT ( ) NAMED_UNIT ( #339 ) );
#122 = PRODUCT_DEFINITION_SHAPE ( 'NONE', 'NONE',  #198 ) ;
#123 = MECHANICAL_DESIGN_GEOMETRIC_PRESENTATION_REPRESENTATION (  '', ( #241 ), #124 ) ;
#124 =( GEOMETRIC_REPRESENTATION_CONTEXT ( 3 ) GLOBAL_UNCERTAINTY_ASSIGNED_CONTEXT ( ( #263 ) ) GLOBAL_UNIT_ASSIGNED_CONTEXT ( ( #121, #264, #77 ) ) REPRESENTATION_CONTEXT ( 'NONE', 'WORKASPACE' ) );
#125 = ADVANCED_FACE ( 'NONE', ( #267 ), #70, .T. ) ;
#126 = CARTESIAN_POINT ( 'NONE',  ( 0.02350000000000000352, 0.0000000000000000000, 0.0000000000000000000 ) ) ;
#127 = DIRECTION ( 'NONE',  ( -0.0000000000000000000, -0.0000000000000000000, -1.000000000000000000 ) ) ;
#128 = ORIENTED_EDGE ( 'NONE', *, *, #12, .F. ) ;
#129 = EDGE_CURVE ( 'NONE', #1, #236, #321, .T. ) ;
#130 = CIRCLE ( 'NONE', #172, 0.1562000000000000333 ) ;
#131 = PLANE ( 'NONE',  #317 ) ;
#132 = VERTEX_POINT ( 'NONE', #139 ) ;
#133 = DIRECTION ( 'NONE',  ( 1.000000000000000000, 0.0000000000000000000, 0.0000000000000000000 ) ) ;
#134 = CARTESIAN_POINT ( 'NONE',  ( 0.02350000000000000352, 0.0000000000000000000, 0.0000000000000000000 ) ) ;
#135 = DIRECTION ( 'NONE',  ( -1.000000000000000000, 0.0000000000000000000, 0.0000000000000000000 ) ) ;
#136 = PRESENTATION_LAYER_ASSIGNMENT (  '', '', ( #94 ) ) ;
#137 = AXIS2_PLACEMENT_3D ( 'NONE', #194, #337, #222 ) ;
#138 = EDGE_LOOP ( 'NONE', ( #304, #86, #183, #67 ) ) ;
#139 = CARTESIAN_POINT ( 'NONE',  ( -0.1562000000000000333, 0.0000000000000000000, 0.1526538876382273757 ) ) ;
#140 = CARTESIAN_POINT ( 'NONE',  ( -0.1412499999999994871, 0.0000000000000000000, 2.500000000000000000 ) ) ;
#141 = DIRECTION ( 'NONE',  ( -0.0000000000000000000, -0.0000000000000000000, -1.000000000000000000 ) ) ;
#142 = AXIS2_PLACEMENT_3D ( 'NONE', #31, #275, #36 ) ;
#143 = AXIS2_PLACEMENT_3D ( 'NONE', #252, #89, #229 ) ;
#144 =( LENGTH_UNIT ( ) NAMED_UNIT ( * ) SI_UNIT ( $, .METRE. ) );
#145 = FACE_OUTER_BOUND ( 'NONE', #156, .T. ) ;
#146 = DIRECTION ( 'NONE',  ( -1.000000000000000000, 0.0000000000000000000, 0.0000000000000000000 ) ) ;
#147 = EDGE_CURVE ( 'NONE', #220, #132, #56, .T. ) ;
#148 = AXIS2_PLACEMENT_3D ( 'NONE', #210, #141, #85 ) ;
#149 =( NAMED_UNIT ( * ) PLANE_ANGLE_UNIT ( ) SI_UNIT ( $, .RADIAN. ) );
#150 = SURFACE_SIDE_STYLE ('',( #228 ) ) ;
#151 = CIRCLE ( 'NONE', #296, 0.1412499999999994871 ) ;
#152 = EDGE_CURVE ( 'NONE', #347, #110, #34, .T. ) ;
#153 = ORIENTED_EDGE ( 'NONE', *, *, #205, .F. ) ;
#154 = AXIS2_PLACEMENT_3D ( 'NONE', #345, #72, #53 ) ;
#155 = DIRECTION ( 'NONE',  ( -0.0000000000000000000, -0.0000000000000000000, -1.000000000000000000 ) ) ;
#156 = EDGE_LOOP ( 'NONE', ( #178, #216, #201, #315 ) ) ;
#157 = CARTESIAN_POINT ( 'NONE',  ( 0.0000000000000000000, 0.0000000000000000000, 2.484999999999999432 ) ) ;
#158 = LINE ( 'NONE', #134, #188 ) ;
#159 = ADVANCED_FACE ( 'NONE', ( #81 ), #262, .T. ) ;
#160 = CARTESIAN_POINT ( 'NONE',  ( 0.0000000000000000000, 0.0000000000000000000, 0.7500000000000001110 ) ) ;
#161 = ORIENTED_EDGE ( 'NONE', *, *, #152, .T. ) ;
#162 = DIRECTION ( 'NONE',  ( -0.0000000000000000000, -0.0000000000000000000, -1.000000000000000000 ) ) ;
#163 = DIRECTION ( 'NONE',  ( 1.000000000000000000, 0.0000000000000000000, 0.0000000000000000000 ) ) ;
#164 = DIRECTION ( 'NONE',  ( -0.0000000000000000000, -0.0000000000000000000, -1.000000000000000000 ) ) ;
#165 = ORIENTED_EDGE ( 'NONE', *, *, #284, .T. ) ;
#166 = CARTESIAN_POINT ( 'NONE',  ( 0.0000000000000000000, 0.0000000000000000000, 2.500000000000000000 ) ) ;
#167 = VECTOR ( 'NONE', #16, 39.37007874015748854 ) ;
#168 = SURFACE_STYLE_USAGE ( .BOTH. , #150 ) ;
#169 = DIMENSIONAL_EXPONENTS ( 1.000000000000000000, 0.0000000000000000000, 0.0000000000000000000, 0.0000000000000000000, 0.0000000000000000000, 0.0000000000000000000, 0.0000000000000000000 ) ;
#170 = FILL_AREA_STYLE ('',( #257 ) ) ;
#171 = CARTESIAN_POINT ( 'NONE',  ( 0.0000000000000000000, 0.0000000000000000000, 0.0000000000000000000 ) ) ;
#172 = AXIS2_PLACEMENT_3D ( 'NONE', #250, #32, #135 ) ;
#173 = LENGTH_MEASURE_WITH_UNIT ( LENGTH_MEASURE( 0.02539999999999999897 ), #21 );
#174 = EDGE_CURVE ( 'NONE', #55, #119, #109, .T. ) ;
#175 = EDGE_LOOP ( 'NONE', ( #295, #270 ) ) ;
#176 = MECHANICAL_DESIGN_GEOMETRIC_PRESENTATION_REPRESENTATION (  '', ( #94 ), #322 ) ;
#177 = EDGE_CURVE ( 'NONE', #1, #299, #303, .T. ) ;
#178 = ORIENTED_EDGE ( 'NONE', *, *, #174, .F. ) ;
#179 = CARTESIAN_POINT ( 'NONE',  ( 0.1562000000000000333, 0.0000000000000000000, 0.7500000000000001110 ) ) ;
#180 = PRESENTATION_LAYER_ASSIGNMENT (  '', '', ( #241 ) ) ;
#181 = CIRCLE ( 'NONE', #137, 0.1562000000000000333 ) ;
#182 = DIRECTION ( 'NONE',  ( -0.0000000000000000000, -0.0000000000000000000, -1.000000000000000000 ) ) ;
#183 = ORIENTED_EDGE ( 'NONE', *, *, #266, .T. ) ;
#184 = DIRECTION ( 'NONE',  ( -1.000000000000000000, 0.0000000000000000000, 0.0000000000000000000 ) ) ;
#185 = DIRECTION ( 'NONE',  ( 0.6560590289905088301, 0.0000000000000000000, 0.7547095802227706818 ) ) ;
#186 = DIRECTION ( 'NONE',  ( -0.0000000000000000000, -0.0000000000000000000, -1.000000000000000000 ) ) ;
#187 = ORIENTED_EDGE ( 'NONE', *, *, #108, .T. ) ;
#188 = VECTOR ( 'NONE', #185, 39.37007874015748143 ) ;
#189 = LINE ( 'NONE', #294, #120 ) ;
#190 = AXIS2_PLACEMENT_3D ( 'NONE', #200, #232, #292 ) ;
#191 = CARTESIAN_POINT ( 'NONE',  ( 0.0000000000000000000, 0.0000000000000000000, 0.0000000000000000000 ) ) ;
#192 = DIRECTION ( 'NONE',  ( 0.0000000000000000000, 0.0000000000000000000, 1.000000000000000000 ) ) ;
#193 = ORIENTED_EDGE ( 'NONE', *, *, #284, .F. ) ;
#194 = CARTESIAN_POINT ( 'NONE',  ( 0.0000000000000000000, 0.0000000000000000000, 0.7500000000000001110 ) ) ;
#195 = DIRECTION ( 'NONE',  ( 0.0000000000000000000, 0.0000000000000000000, 1.000000000000000000 ) ) ;
#196 = LINE ( 'NONE', #92, #24 ) ;
#197 = DIMENSIONAL_EXPONENTS ( 1.000000000000000000, 0.0000000000000000000, 0.0000000000000000000, 0.0000000000000000000, 0.0000000000000000000, 0.0000000000000000000, 0.0000000000000000000 ) ;
#198 = PRODUCT_DEFINITION ( 'UNKNOWN', '', #25, #91 ) ;
#199 = AXIS2_PLACEMENT_3D ( 'NONE', #157, #64, #111 ) ;
#200 = CARTESIAN_POINT ( 'NONE',  ( 0.0000000000000000000, 0.0000000000000000000, 0.7500000000000001110 ) ) ;
#201 = ORIENTED_EDGE ( 'NONE', *, *, #147, .T. ) ;
#202 = UNCERTAINTY_MEASURE_WITH_UNIT (LENGTH_MEASURE( 1.000000000000000082E-05 ), #49, 'distance_accuracy_value', 'NONE');
#203 = EDGE_LOOP ( 'NONE', ( #320, #213, #290, #193 ) ) ;
#204 = CIRCLE ( 'NONE', #289, 0.1562000000000000333 ) ;
#205 = EDGE_CURVE ( 'NONE', #132, #119, #204, .T. ) ;
#206 = CARTESIAN_POINT ( 'NONE',  ( 0.0000000000000000000, 0.0000000000000000000, 2.500000000000000000 ) ) ;
#207 = ORIENTED_EDGE ( 'NONE', *, *, #205, .T. ) ;
#208 = ADVANCED_FACE ( 'NONE', ( #10 ), #327, .T. ) ;
#209 = VECTOR ( 'NONE', #221, 39.37007874015748143 ) ;
#210 = CARTESIAN_POINT ( 'NONE',  ( 0.0000000000000000000, 0.0000000000000000000, 2.500000000000000000 ) ) ;
#211 = EDGE_LOOP ( 'NONE', ( #279, #41, #207, #272 ) ) ;
#212 = FACE_OUTER_BOUND ( 'NONE', #203, .T. ) ;
#213 = ORIENTED_EDGE ( 'NONE', *, *, #346, .T. ) ;
#214 = EDGE_CURVE ( 'NONE', #299, #324, #349, .T. ) ;
#215 = CARTESIAN_POINT ( 'NONE',  ( 0.1562000000000000333, 1.912898300268165973E-17, 0.0000000000000000000 ) ) ;
#216 = ORIENTED_EDGE ( 'NONE', *, *, #18, .T. ) ;
#217 = CARTESIAN_POINT ( 'NONE',  ( 0.1562000000000000333, 1.912898300268165973E-17, 0.1526538876382273757 ) ) ;
#218 = AXIS2_PLACEMENT_3D ( 'NONE', #326, #60, #330 ) ;
#219 = PRODUCT_CONTEXT ( 'NONE', #99, 'mechanical' ) ;
#220 = VERTEX_POINT ( 'NONE', #38 ) ;
#221 = DIRECTION ( 'NONE',  ( -0.6560590289905088301, 8.034405899049472288E-17, 0.7547095802227706818 ) ) ;
#222 = DIRECTION ( 'NONE',  ( -1.000000000000000000, 0.0000000000000000000, 0.0000000000000000000 ) ) ;
#223 = EDGE_CURVE ( 'NONE', #119, #132, #130, .T. ) ;
#224 = CARTESIAN_POINT ( 'NONE',  ( -0.1562500000000000000, 0.0000000000000000000, 0.7500499999999999945 ) ) ;
#225 = CIRCLE ( 'NONE', #142, 0.1562000000000000333 ) ;
#226 = CYLINDRICAL_SURFACE ( 'NONE', #343, 0.1562000000000000333 ) ;
#227 = SURFACE_STYLE_USAGE ( .BOTH. , #96 ) ;
#228 = SURFACE_STYLE_FILL_AREA ( #338 ) ;
#229 = DIRECTION ( 'NONE',  ( 1.000000000000000000, 0.0000000000000000000, 0.0000000000000000000 ) ) ;
#230 = ADVANCED_FACE ( 'NONE', ( #244 ), #7, .T. ) ;
#231 = ADVANCED_BREP_SHAPE_REPRESENTATION ( 'Micro_SPD-312-082', ( #52, #243 ), #6 ) ;
#232 = DIRECTION ( 'NONE',  ( 0.0000000000000000000, 0.0000000000000000000, 1.000000000000000000 ) ) ;
#233 = VECTOR ( 'NONE', #269, 39.37007874015748143 ) ;
#234 = EDGE_LOOP ( 'NONE', ( #29, #238, #153, #240 ) ) ;
#235 = AXIS2_PLACEMENT_3D ( 'NONE', #100, #104, #50 ) ;
#236 = VERTEX_POINT ( 'NONE', #35 ) ;
#237 = CARTESIAN_POINT ( 'NONE',  ( 0.0000000000000000000, 0.0000000000000000000, 0.0000000000000000000 ) ) ;
#238 = ORIENTED_EDGE ( 'NONE', *, *, #174, .T. ) ;
#239 = DIRECTION ( 'NONE',  ( -0.0000000000000000000, -0.0000000000000000000, -1.000000000000000000 ) ) ;
#240 = ORIENTED_EDGE ( 'NONE', *, *, #147, .F. ) ;
#241 = STYLED_ITEM ( 'NONE', ( #44 ), #52 ) ;
#242 = COLOUR_RGB ( '',0.7921568627450980005, 0.8196078431372548767, 0.9333333333333333481 ) ;
#243 = AXIS2_PLACEMENT_3D ( 'NONE', #115, #112, #248 ) ;
#244 = FACE_OUTER_BOUND ( 'NONE', #138, .T. ) ;
#245 = ORIENTED_EDGE ( 'NONE', *, *, #318, .F. ) ;
#246 = ADVANCED_FACE ( 'NONE', ( #212 ), #27, .T. ) ;
#247 = DIRECTION ( 'NONE',  ( -0.0000000000000000000, -0.0000000000000000000, -1.000000000000000000 ) ) ;
#248 = DIRECTION ( 'NONE',  ( 1.000000000000000000, 0.0000000000000000000, 0.0000000000000000000 ) ) ;
#249 = FACE_OUTER_BOUND ( 'NONE', #277, .T. ) ;
#250 = CARTESIAN_POINT ( 'NONE',  ( 0.0000000000000000000, 0.0000000000000000000, 0.1526538876382273757 ) ) ;
#251 = ORIENTED_EDGE ( 'NONE', *, *, #97, .T. ) ;
#252 = CARTESIAN_POINT ( 'NONE',  ( 0.0000000000000000000, 0.0000000000000000000, 0.0000000000000000000 ) ) ;
#253 = VECTOR ( 'NONE', #43, 39.37007874015748854 ) ;
#254 = CYLINDRICAL_SURFACE ( 'NONE', #51, 0.1562000000000000333 ) ;
#255 = FACE_OUTER_BOUND ( 'NONE', #59, .T. ) ;
#256 = LINE ( 'NONE', #40, #209 ) ;
#257 = FILL_AREA_STYLE_COLOUR ( '', #242 ) ;
#258 = CONICAL_SURFACE ( 'NONE', #190, 0.1562000000000000333, 0.7853981633974504994 ) ;
#259 = PRESENTATION_STYLE_ASSIGNMENT (( #227 ) ) ;
#260 =( NAMED_UNIT ( * ) PLANE_ANGLE_UNIT ( ) SI_UNIT ( $, .RADIAN. ) );
#261 = DIRECTION ( 'NONE',  ( -0.0000000000000000000, -0.0000000000000000000, -1.000000000000000000 ) ) ;
#262 = CONICAL_SURFACE ( 'NONE', #265, 0.02350000000000000352, 0.7155849933176771094 ) ;
#263 = UNCERTAINTY_MEASURE_WITH_UNIT (LENGTH_MEASURE( 1.000000000000000082E-05 ), #121, 'distance_accuracy_value', 'NONE');
#264 =( NAMED_UNIT ( * ) PLANE_ANGLE_UNIT ( ) SI_UNIT ( $, .RADIAN. ) );
#265 = AXIS2_PLACEMENT_3D ( 'NONE', #237, #30, #271 ) ;
#266 = EDGE_CURVE ( 'NONE', #236, #324, #189, .T. ) ;
#267 = FACE_OUTER_BOUND ( 'NONE', #309, .T. ) ;
#268 = ORIENTED_EDGE ( 'NONE', *, *, #223, .T. ) ;
#269 = DIRECTION ( 'NONE',  ( -0.0000000000000000000, -0.0000000000000000000, -1.000000000000000000 ) ) ;
#270 = ORIENTED_EDGE ( 'NONE', *, *, #325, .T. ) ;
#271 = DIRECTION ( 'NONE',  ( 1.000000000000000000, 0.0000000000000000000, 0.0000000000000000000 ) ) ;
#272 = ORIENTED_EDGE ( 'NONE', *, *, #37, .F. ) ;
#273 = APPLICATION_CONTEXT ( 'automotive_design' ) ;
#274 = CARTESIAN_POINT ( 'NONE',  ( 0.0000000000000000000, 0.0000000000000000000, 0.7500499999999999945 ) ) ;
#275 = DIRECTION ( 'NONE',  ( -0.0000000000000000000, -0.0000000000000000000, -1.000000000000000000 ) ) ;
#276 = CARTESIAN_POINT ( 'NONE',  ( 0.0000000000000000000, 0.0000000000000000000, 0.1526538876382273757 ) ) ;
#277 = EDGE_LOOP ( 'NONE', ( #161, #251 ) ) ;
#278 = LINE ( 'NONE', #20, #253 ) ;
#279 = ORIENTED_EDGE ( 'NONE', *, *, #97, .F. ) ;
#280 = ADVANCED_FACE ( 'NONE', ( #28 ), #131, .T. ) ;
#281 = DIRECTION ( 'NONE',  ( 0.7071067811865410224, 8.659560562354852739E-17, -0.7071067811865539010 ) ) ;
#282 = AXIS2_PLACEMENT_3D ( 'NONE', #160, #298, #83 ) ;
#283 = CARTESIAN_POINT ( 'NONE',  ( -0.1562000000000000333, 1.912898300268165973E-17, 0.7500000000000001110 ) ) ;
#284 = EDGE_CURVE ( 'NONE', #33, #236, #278, .T. ) ;
#285 = DIRECTION ( 'NONE',  ( 0.7071067811865490160, 0.0000000000000000000, 0.7071067811865459074 ) ) ;
#286 = AXIS2_PLACEMENT_3D ( 'NONE', #300, #58, #2 ) ;
#287 = FILL_AREA_STYLE_COLOUR ( '', #93 ) ;
#288 = FACE_OUTER_BOUND ( 'NONE', #234, .T. ) ;
#289 = AXIS2_PLACEMENT_3D ( 'NONE', #276, #162, #88 ) ;
#290 = ORIENTED_EDGE ( 'NONE', *, *, #103, .F. ) ;
#291 = AXIS2_PLACEMENT_3D ( 'NONE', #13, #164, #184 ) ;
#292 = DIRECTION ( 'NONE',  ( 1.000000000000000000, 0.0000000000000000000, 0.0000000000000000000 ) ) ;
#293 = ADVANCED_FACE ( 'NONE', ( #255 ), #297, .T. ) ;
#294 = CARTESIAN_POINT ( 'NONE',  ( -0.1562500000000000000, 0.0000000000000000000, 2.500000000000000000 ) ) ;
#295 = ORIENTED_EDGE ( 'NONE', *, *, #12, .T. ) ;
#296 = AXIS2_PLACEMENT_3D ( 'NONE', #9, #116, #163 ) ;
#297 = CONICAL_SURFACE ( 'NONE', #143, 0.02350000000000000352, 0.7155849933176771094 ) ;
#298 = DIRECTION ( 'NONE',  ( 0.0000000000000000000, 0.0000000000000000000, 1.000000000000000000 ) ) ;
#299 = VERTEX_POINT ( 'NONE', #68 ) ;
#300 = CARTESIAN_POINT ( 'NONE',  ( 0.0000000000000000000, 0.0000000000000000000, 0.7500499999999999945 ) ) ;
#301 = APPLICATION_PROTOCOL_DEFINITION ( 'draft international standard', 'automotive_design', 1998, #273 ) ;
#302 = ORIENTED_EDGE ( 'NONE', *, *, #18, .F. ) ;
#303 = LINE ( 'NONE', #323, #54 ) ;
#304 = ORIENTED_EDGE ( 'NONE', *, *, #177, .F. ) ;
#305 = CLOSED_SHELL ( 'NONE', ( #159, #61, #125, #246, #208, #230, #280, #69, #90, #48, #293, #45 ) ) ;
#306 = VECTOR ( 'NONE', #247, 39.37007874015748143 ) ;
#307 = ORIENTED_EDGE ( 'NONE', *, *, #331, .T. ) ;
#308 =( NAMED_UNIT ( * ) SI_UNIT ( $, .STERADIAN. ) SOLID_ANGLE_UNIT ( ) );
#309 = EDGE_LOOP ( 'NONE', ( #65, #307, #187, #245 ) ) ;
#310 = DIRECTION ( 'NONE',  ( 0.0000000000000000000, 0.0000000000000000000, 1.000000000000000000 ) ) ;
#311 = DIRECTION ( 'NONE',  ( 1.000000000000000000, 0.0000000000000000000, -0.0000000000000000000 ) ) ;
#312 = LINE ( 'NONE', #334, #42 ) ;
#313 =( CONVERSION_BASED_UNIT ( 'INCH', #17 ) LENGTH_UNIT ( ) NAMED_UNIT ( #169 ) );
#314 = CARTESIAN_POINT ( 'NONE',  ( 0.0000000000000000000, 0.0000000000000000000, 0.0000000000000000000 ) ) ;
#315 = ORIENTED_EDGE ( 'NONE', *, *, #223, .F. ) ;
#316 = PRODUCT_RELATED_PRODUCT_CATEGORY ( 'part', '', ( #336 ) ) ;
#317 = AXIS2_PLACEMENT_3D ( 'NONE', #206, #310, #342 ) ;
#318 = EDGE_CURVE ( 'NONE', #55, #299, #312, .T. ) ;
#319 = CARTESIAN_POINT ( 'NONE',  ( 0.1412499999999994871, 1.821662113731684786E-17, 2.500000000000000000 ) ) ;
#320 = ORIENTED_EDGE ( 'NONE', *, *, #325, .F. ) ;
#321 = CIRCLE ( 'NONE', #199, 0.1562500000000000000 ) ;
#322 =( GEOMETRIC_REPRESENTATION_CONTEXT ( 3 ) GLOBAL_UNCERTAINTY_ASSIGNED_CONTEXT ( ( #202 ) ) GLOBAL_UNIT_ASSIGNED_CONTEXT ( ( #49, #260, #98 ) ) REPRESENTATION_CONTEXT ( 'NONE', 'WORKASPACE' ) );
#323 = CARTESIAN_POINT ( 'NONE',  ( 0.1562500000000000000, 1.913510623667739463E-17, 2.500000000000000000 ) ) ;
#324 = VERTEX_POINT ( 'NONE', #224 ) ;
#325 = EDGE_CURVE ( 'NONE', #107, #33, #344, .T. ) ;
#326 = CARTESIAN_POINT ( 'NONE',  ( 0.0000000000000000000, 0.0000000000000000000, 2.500000000000000000 ) ) ;
#327 = CYLINDRICAL_SURFACE ( 'NONE', #148, 0.1562500000000000000 ) ;
#328 = ORIENTED_EDGE ( 'NONE', *, *, #331, .F. ) ;
#329 = CONICAL_SURFACE ( 'NONE', #235, 0.1412499999999994871, 0.7853981633974391752 ) ;
#330 = DIRECTION ( 'NONE',  ( -1.000000000000000000, 0.0000000000000000000, 0.0000000000000000000 ) ) ;
#331 = EDGE_CURVE ( 'NONE', #220, #324, #341, .T. ) ;
#332 = ORIENTED_EDGE ( 'NONE', *, *, #346, .F. ) ;
#333 = SURFACE_STYLE_FILL_AREA ( #170 ) ;
#334 = CARTESIAN_POINT ( 'NONE',  ( 0.1562000000000000333, 0.0000000000000000000, 0.7500000000000001110 ) ) ;
#335 = AXIS2_PLACEMENT_3D ( 'NONE', #23, #127, #106 ) ;
#336 = PRODUCT ( 'Micro_SPD-312-082', 'Micro_SPD-312-082', '', ( #219 ) ) ;
#337 = DIRECTION ( 'NONE',  ( -0.0000000000000000000, -0.0000000000000000000, -1.000000000000000000 ) ) ;
#338 = FILL_AREA_STYLE ('',( #287 ) ) ;
#339 = DIMENSIONAL_EXPONENTS ( 1.000000000000000000, 0.0000000000000000000, 0.0000000000000000000, 0.0000000000000000000, 0.0000000000000000000, 0.0000000000000000000, 0.0000000000000000000 ) ;
#340 = EDGE_CURVE ( 'NONE', #220, #55, #181, .T. ) ;
#341 = LINE ( 'NONE', #283, #167 ) ;
#342 = DIRECTION ( 'NONE',  ( 1.000000000000000000, 0.0000000000000000000, -0.0000000000000000000 ) ) ;
#343 = AXIS2_PLACEMENT_3D ( 'NONE', #171, #47, #146 ) ;
#344 = CIRCLE ( 'NONE', #79, 0.1412499999999994871 ) ;
#345 = CARTESIAN_POINT ( 'NONE',  ( 0.0000000000000000000, 0.0000000000000000000, 2.484999999999999432 ) ) ;
#346 = EDGE_CURVE ( 'NONE', #107, #1, #196, .T. ) ;
#347 = VERTEX_POINT ( 'NONE', #126 ) ;
#348 = EDGE_CURVE ( 'NONE', #110, #132, #256, .T. ) ;
#349 = CIRCLE ( 'NONE', #286, 0.1562500000000000000 ) ;
ENDSEC;
END-ISO-10303-21;
