ISO-10303-21;
HEADER;
FILE_DESCRIPTION (( 'STEP AP214' ),
    '1' );
FILE_NAME ('86069.STEP',
    '2023-06-23T16:24:39',
    ( '' ),
    ( '' ),
    'SwSTEP 2.0',
    'SolidWorks 2023',
    '' );
FILE_SCHEMA (( 'AUTOMOTIVE_DESIGN' ));
ENDSEC;

DATA;
#1 = SURFACE_STYLE_FILL_AREA ( #133 ) ;
#2 = COLOUR_RGB ( '',1.000000000000000000, 0.000000000000000000, 0.000000000000000000 ) ;
#3 =( NAMED_UNIT ( * ) SI_UNIT ( $, .STERADIAN. ) SOLID_ANGLE_UNIT ( ) );
#4 = CARTESIAN_POINT ( 'NONE',  ( -0.1875000000000000278, 2.500000000000000000, 0.000000000000000000 ) ) ;
#5 = EDGE_LOOP ( 'NONE', ( #29, #195 ) ) ;
#6 = DIMENSIONAL_EXPONENTS ( 1.000000000000000000, 0.000000000000000000, 0.000000000000000000, 0.000000000000000000, 0.000000000000000000, 0.000000000000000000, 0.000000000000000000 ) ;
#7 = SURFACE_SIDE_STYLE ('',( #147 ) ) ;
#8 = CIRCLE ( 'NONE', #243, 0.1875000000000000278 ) ;
#9 = LINE ( 'NONE', #138, #178 ) ;
#10 = ORIENTED_EDGE ( 'NONE', *, *, #289, .F. ) ;
#11 = DIRECTION ( 'NONE',  ( -4.898587196589413075E-17, 1.000000000000000000, -0.000000000000000000 ) ) ;
#12 = PRESENTATION_LAYER_ASSIGNMENT (  '', '', ( #142 ) ) ;
#13 = FACE_OUTER_BOUND ( 'NONE', #205, .T. ) ;
#14 = APPLICATION_PROTOCOL_DEFINITION ( 'draft international standard', 'automotive_design', 1998, #158 ) ;
#15 = PRESENTATION_LAYER_ASSIGNMENT (  '', '', ( #269 ) ) ;
#16 =( NAMED_UNIT ( * ) PLANE_ANGLE_UNIT ( ) SI_UNIT ( $, .RADIAN. ) );
#17 = CYLINDRICAL_SURFACE ( 'NONE', #247, 0.1875000000000000833 ) ;
#18 = ADVANCED_BREP_SHAPE_REPRESENTATION ( '86069', ( #297, #299, #181 ), #204 ) ;
#19 = SURFACE_STYLE_FILL_AREA ( #134 ) ;
#20 = UNCERTAINTY_MEASURE_WITH_UNIT (LENGTH_MEASURE( 1.000000000000000082E-05 ), #280, 'distance_accuracy_value', 'NONE');
#21 = DIRECTION ( 'NONE',  ( -4.898587196589412459E-17, 1.000000000000000000, -0.000000000000000000 ) ) ;
#22 = DIRECTION ( 'NONE',  ( -0.000000000000000000, -1.000000000000000000, -0.000000000000000000 ) ) ;
#23 = ORIENTED_EDGE ( 'NONE', *, *, #260, .T. ) ;
#24 = FACE_OUTER_BOUND ( 'NONE', #295, .T. ) ;
#25 = ADVANCED_FACE ( 'NONE', ( #13 ), #275, .T. ) ;
#26 = DIMENSIONAL_EXPONENTS ( 1.000000000000000000, 0.000000000000000000, 0.000000000000000000, 0.000000000000000000, 0.000000000000000000, 0.000000000000000000, 0.000000000000000000 ) ;
#27 = AXIS2_PLACEMENT_3D ( 'NONE', #235, #81, #51 ) ;
#28 = SURFACE_SIDE_STYLE ('',( #62 ) ) ;
#29 = ORIENTED_EDGE ( 'NONE', *, *, #108, .F. ) ;
#30 =( GEOMETRIC_REPRESENTATION_CONTEXT ( 3 ) GLOBAL_UNCERTAINTY_ASSIGNED_CONTEXT ( ( #20 ) ) GLOBAL_UNIT_ASSIGNED_CONTEXT ( ( #280, #125, #103 ) ) REPRESENTATION_CONTEXT ( 'NONE', 'WORKASPACE' ) );
#31 = CARTESIAN_POINT ( 'NONE',  ( 1.516480271171051896E-32, 2.500000000000000000, 0.000000000000000000 ) ) ;
#32 = DIRECTION ( 'NONE',  ( -1.000000000000000000, 0.000000000000000000, 0.000000000000000000 ) ) ;
#33 = SURFACE_STYLE_USAGE ( .BOTH. , #28 ) ;
#34 = CARTESIAN_POINT ( 'NONE',  ( 2.296212748401287726E-17, 0.000000000000000000, 0.1875000000000000278 ) ) ;
#35 = PRODUCT ( '86069', '86069', '', ( #199 ) ) ;
#36 = FACE_OUTER_BOUND ( 'NONE', #218, .T. ) ;
#37 = LENGTH_MEASURE_WITH_UNIT ( LENGTH_MEASURE( 0.02539999999999999897 ), #156 );
#38 = DIRECTION ( 'NONE',  ( 0.000000000000000000, 0.000000000000000000, 1.000000000000000000 ) ) ;
#39 =( LENGTH_UNIT ( ) NAMED_UNIT ( * ) SI_UNIT ( $, .METRE. ) );
#40 =( NAMED_UNIT ( * ) PLANE_ANGLE_UNIT ( ) SI_UNIT ( $, .RADIAN. ) );
#41 = SURFACE_STYLE_FILL_AREA ( #154 ) ;
#42 = CARTESIAN_POINT ( 'NONE',  ( 0.1875000000000000278, 2.500000000000000000, 2.296212748401288650E-17 ) ) ;
#43 = MECHANICAL_DESIGN_GEOMETRIC_PRESENTATION_REPRESENTATION (  '', ( #142 ), #30 ) ;
#44 = CARTESIAN_POINT ( 'NONE',  ( -1.224646799147353207E-16, 5.000000000000000000, 0.000000000000000000 ) ) ;
#45 =( GEOMETRIC_REPRESENTATION_CONTEXT ( 3 ) GLOBAL_UNCERTAINTY_ASSIGNED_CONTEXT ( ( #202 ) ) GLOBAL_UNIT_ASSIGNED_CONTEXT ( ( #60, #87, #250 ) ) REPRESENTATION_CONTEXT ( 'NONE', 'WORKASPACE' ) );
#46 = ADVANCED_FACE ( 'NONE', ( #24 ), #140, .T. ) ;
#47 =( GEOMETRIC_REPRESENTATION_CONTEXT ( 3 ) GLOBAL_UNCERTAINTY_ASSIGNED_CONTEXT ( ( #210 ) ) GLOBAL_UNIT_ASSIGNED_CONTEXT ( ( #130, #16, #150 ) ) REPRESENTATION_CONTEXT ( 'NONE', 'WORKASPACE' ) );
#48 = DIMENSIONAL_EXPONENTS ( 1.000000000000000000, 0.000000000000000000, 0.000000000000000000, 0.000000000000000000, 0.000000000000000000, 0.000000000000000000, 0.000000000000000000 ) ;
#49 = CARTESIAN_POINT ( 'NONE',  ( 0.000000000000000000, 0.000000000000000000, 0.000000000000000000 ) ) ;
#50 =( GEOMETRIC_REPRESENTATION_CONTEXT ( 3 ) GLOBAL_UNCERTAINTY_ASSIGNED_CONTEXT ( ( #131 ) ) GLOBAL_UNIT_ASSIGNED_CONTEXT ( ( #212, #107, #3 ) ) REPRESENTATION_CONTEXT ( 'NONE', 'WORKASPACE' ) );
#51 = DIRECTION ( 'NONE',  ( 0.000000000000000000, 0.000000000000000000, -1.000000000000000000 ) ) ;
#52 = EDGE_LOOP ( 'NONE', ( #268, #239, #61, #143 ) ) ;
#53 = ORIENTED_EDGE ( 'NONE', *, *, #70, .F. ) ;
#54 = COLOUR_RGB ( '',1.000000000000000000, 0.000000000000000000, 0.000000000000000000 ) ;
#55 = DIRECTION ( 'NONE',  ( -0.000000000000000000, -1.000000000000000000, -0.000000000000000000 ) ) ;
#56 = CARTESIAN_POINT ( 'NONE',  ( 0.000000000000000000, 0.000000000000000000, 0.000000000000000000 ) ) ;
#57 = CARTESIAN_POINT ( 'NONE',  ( 0.000000000000000000, 0.000000000000000000, 0.000000000000000000 ) ) ;
#58 = CARTESIAN_POINT ( 'NONE',  ( 2.249639673992786583E-34, 2.500000000000000000, 0.000000000000000000 ) ) ;
#59 = CYLINDRICAL_SURFACE ( 'NONE', #249, 0.1875000000000000278 ) ;
#60 =( CONVERSION_BASED_UNIT ( 'INCH', #276 ) LENGTH_UNIT ( ) NAMED_UNIT ( #267 ) );
#61 = ORIENTED_EDGE ( 'NONE', *, *, #185, .F. ) ;
#62 = SURFACE_STYLE_FILL_AREA ( #85 ) ;
#63 =( NAMED_UNIT ( * ) PLANE_ANGLE_UNIT ( ) SI_UNIT ( $, .RADIAN. ) );
#64 = COLOUR_RGB ( '',1.000000000000000000, 0.000000000000000000, 0.000000000000000000 ) ;
#65 = CARTESIAN_POINT ( 'NONE',  ( -0.1875000000000002776, 5.000000000000000000, 0.000000000000000000 ) ) ;
#66 = LENGTH_MEASURE_WITH_UNIT ( LENGTH_MEASURE( 0.02539999999999999897 ), #197 );
#67 = EDGE_CURVE ( 'NONE', #175, #283, #222, .T. ) ;
#68 = VECTOR ( 'NONE', #21, 39.37007874015748143 ) ;
#69 = SURFACE_SIDE_STYLE ('',( #1 ) ) ;
#70 = EDGE_CURVE ( 'NONE', #165, #189, #262, .T. ) ;
#71 = DIRECTION ( 'NONE',  ( 0.000000000000000000, 0.000000000000000000, -1.000000000000000000 ) ) ;
#72 = AXIS2_PLACEMENT_3D ( 'NONE', #272, #173, #32 ) ;
#73 = PRESENTATION_LAYER_ASSIGNMENT (  '', '', ( #254 ) ) ;
#74 = VERTEX_POINT ( 'NONE', #34 ) ;
#75 = ORIENTED_EDGE ( 'NONE', *, *, #116, .F. ) ;
#76 = DIRECTION ( 'NONE',  ( 1.000000000000000000, 4.898587196589412459E-17, 0.000000000000000000 ) ) ;
#77 = AXIS2_PLACEMENT_3D ( 'NONE', #58, #303, #126 ) ;
#78 = DIRECTION ( 'NONE',  ( -0.000000000000000000, -1.000000000000000000, -0.000000000000000000 ) ) ;
#79 = PLANE ( 'NONE',  #207 ) ;
#80 = LINE ( 'NONE', #102, #287 ) ;
#81 = DIRECTION ( 'NONE',  ( -0.000000000000000000, -1.000000000000000000, -0.000000000000000000 ) ) ;
#82 = CARTESIAN_POINT ( 'NONE',  ( 2.296212748401287726E-17, 2.500000000000000000, 0.1875000000000000278 ) ) ;
#83 =( LENGTH_UNIT ( ) NAMED_UNIT ( * ) SI_UNIT ( $, .METRE. ) );
#84 = FILL_AREA_STYLE ('',( #88 ) ) ;
#85 = FILL_AREA_STYLE ('',( #304 ) ) ;
#86 =( NAMED_UNIT ( * ) PLANE_ANGLE_UNIT ( ) SI_UNIT ( $, .RADIAN. ) );
#87 =( NAMED_UNIT ( * ) PLANE_ANGLE_UNIT ( ) SI_UNIT ( $, .RADIAN. ) );
#88 = FILL_AREA_STYLE_COLOUR ( '', #223 ) ;
#89 = UNCERTAINTY_MEASURE_WITH_UNIT (LENGTH_MEASURE( 1.000000000000000082E-05 ), #255, 'distance_accuracy_value', 'NONE');
#90 =( LENGTH_UNIT ( ) NAMED_UNIT ( * ) SI_UNIT ( $, .METRE. ) );
#91 = EDGE_CURVE ( 'NONE', #175, #74, #80, .T. ) ;
#92 = PRESENTATION_STYLE_ASSIGNMENT (( #286 ) ) ;
#93 = LENGTH_MEASURE_WITH_UNIT ( LENGTH_MEASURE( 0.02539999999999999897 ), #90 );
#94 = CYLINDRICAL_SURFACE ( 'NONE', #238, 0.1875000000000000278 ) ;
#95 = DIRECTION ( 'NONE',  ( 0.000000000000000000, -1.000000000000000000, -0.000000000000000000 ) ) ;
#96 = DIMENSIONAL_EXPONENTS ( 1.000000000000000000, 0.000000000000000000, 0.000000000000000000, 0.000000000000000000, 0.000000000000000000, 0.000000000000000000, 0.000000000000000000 ) ;
#97 = UNCERTAINTY_MEASURE_WITH_UNIT (LENGTH_MEASURE( 1.000000000000000082E-05 ), #256, 'distance_accuracy_value', 'NONE');
#98 = CARTESIAN_POINT ( 'NONE',  ( -1.224646799147353207E-16, 5.000000000000000000, 0.000000000000000000 ) ) ;
#99 = EDGE_LOOP ( 'NONE', ( #236, #246 ) ) ;
#100 = EDGE_CURVE ( 'NONE', #189, #294, #206, .T. ) ;
#101 = DIRECTION ( 'NONE',  ( -0.000000000000000000, -1.000000000000000000, -0.000000000000000000 ) ) ;
#102 = CARTESIAN_POINT ( 'NONE',  ( 2.296212748401287726E-17, 0.000000000000000000, 0.1875000000000000278 ) ) ;
#103 =( NAMED_UNIT ( * ) SI_UNIT ( $, .STERADIAN. ) SOLID_ANGLE_UNIT ( ) );
#104 = FACE_OUTER_BOUND ( 'NONE', #99, .T. ) ;
#105 = SURFACE_STYLE_FILL_AREA ( #84 ) ;
#106 = PRESENTATION_STYLE_ASSIGNMENT (( #179 ) ) ;
#107 =( NAMED_UNIT ( * ) PLANE_ANGLE_UNIT ( ) SI_UNIT ( $, .RADIAN. ) );
#108 = EDGE_CURVE ( 'NONE', #283, #175, #248, .T. ) ;
#109 = SURFACE_SIDE_STYLE ('',( #19 ) ) ;
#110 = LENGTH_MEASURE_WITH_UNIT ( LENGTH_MEASURE( 0.02539999999999999897 ), #241 );
#111 = DIRECTION ( 'NONE',  ( -1.000000000000000000, 0.000000000000000000, 0.000000000000000000 ) ) ;
#112 = CLOSED_SHELL ( 'NONE', ( #240, #225, #153, #25 ) ) ;
#113 = CARTESIAN_POINT ( 'NONE',  ( 0.000000000000000000, 2.500000000000000000, 0.000000000000000000 ) ) ;
#114 = PRODUCT_DEFINITION_SHAPE ( 'NONE', 'NONE',  #174 ) ;
#115 = DIRECTION ( 'NONE',  ( 0.000000000000000000, 0.000000000000000000, -1.000000000000000000 ) ) ;
#116 = EDGE_CURVE ( 'NONE', #294, #189, #186, .T. ) ;
#117 = DIRECTION ( 'NONE',  ( -4.898587196589413075E-17, 1.000000000000000000, -0.000000000000000000 ) ) ;
#118 =( GEOMETRIC_REPRESENTATION_CONTEXT ( 3 ) GLOBAL_UNCERTAINTY_ASSIGNED_CONTEXT ( ( #89 ) ) GLOBAL_UNIT_ASSIGNED_CONTEXT ( ( #255, #63, #128 ) ) REPRESENTATION_CONTEXT ( 'NONE', 'WORKASPACE' ) );
#119 = MECHANICAL_DESIGN_GEOMETRIC_PRESENTATION_REPRESENTATION (  '', ( #269 ), #118 ) ;
#120 = DIRECTION ( 'NONE',  ( -1.000000000000000000, 0.000000000000000000, 0.000000000000000000 ) ) ;
#121 = SURFACE_STYLE_USAGE ( .BOTH. , #7 ) ;
#122 = ADVANCED_FACE ( 'NONE', ( #104 ), #79, .F. ) ;
#123 = ORIENTED_EDGE ( 'NONE', *, *, #257, .T. ) ;
#124 = DIRECTION ( 'NONE',  ( 0.000000000000000000, 0.000000000000000000, -1.000000000000000000 ) ) ;
#125 =( NAMED_UNIT ( * ) PLANE_ANGLE_UNIT ( ) SI_UNIT ( $, .RADIAN. ) );
#126 = DIRECTION ( 'NONE',  ( -1.000000000000000000, -4.898587196589412459E-17, 0.000000000000000000 ) ) ;
#127 = DIRECTION ( 'NONE',  ( -1.000000000000000000, 0.000000000000000000, 0.000000000000000000 ) ) ;
#128 =( NAMED_UNIT ( * ) SI_UNIT ( $, .STERADIAN. ) SOLID_ANGLE_UNIT ( ) );
#129 =( NAMED_UNIT ( * ) SI_UNIT ( $, .STERADIAN. ) SOLID_ANGLE_UNIT ( ) );
#130 =( CONVERSION_BASED_UNIT ( 'INCH', #66 ) LENGTH_UNIT ( ) NAMED_UNIT ( #190 ) );
#131 = UNCERTAINTY_MEASURE_WITH_UNIT (LENGTH_MEASURE( 1.000000000000000082E-05 ), #212, 'distance_accuracy_value', 'NONE');
#132 =( CONVERSION_BASED_UNIT ( 'INCH', #93 ) LENGTH_UNIT ( ) NAMED_UNIT ( #6 ) );
#133 = FILL_AREA_STYLE ('',( #261 ) ) ;
#134 = FILL_AREA_STYLE ('',( #259 ) ) ;
#135 = PRESENTATION_STYLE_ASSIGNMENT (( #203 ) ) ;
#136 = MECHANICAL_DESIGN_GEOMETRIC_PRESENTATION_REPRESENTATION (  '', ( #281 ), #47 ) ;
#137 = AXIS2_PLACEMENT_3D ( 'NONE', #31, #117, #111 ) ;
#138 = CARTESIAN_POINT ( 'NONE',  ( 0.1874999999999999445, 5.000000000000000000, 2.296212748401288342E-17 ) ) ;
#139 = DIRECTION ( 'NONE',  ( -0.000000000000000000, -1.000000000000000000, -0.000000000000000000 ) ) ;
#140 = CYLINDRICAL_SURFACE ( 'NONE', #242, 0.1875000000000000833 ) ;
#141 = DIMENSIONAL_EXPONENTS ( 1.000000000000000000, 0.000000000000000000, 0.000000000000000000, 0.000000000000000000, 0.000000000000000000, 0.000000000000000000, 0.000000000000000000 ) ;
#142 = STYLED_ITEM ( 'NONE', ( #106 ), #299 ) ;
#143 = ORIENTED_EDGE ( 'NONE', *, *, #244, .F. ) ;
#144 = ORIENTED_EDGE ( 'NONE', *, *, #70, .T. ) ;
#145 = STYLED_ITEM ( 'NONE', ( #92 ), #240 ) ;
#146 = MECHANICAL_DESIGN_GEOMETRIC_PRESENTATION_REPRESENTATION (  '', ( #145 ), #50 ) ;
#147 = SURFACE_STYLE_FILL_AREA ( #216 ) ;
#148 = DIRECTION ( 'NONE',  ( 0.000000000000000000, 0.000000000000000000, -1.000000000000000000 ) ) ;
#149 = LINE ( 'NONE', #253, #152 ) ;
#150 =( NAMED_UNIT ( * ) SI_UNIT ( $, .STERADIAN. ) SOLID_ANGLE_UNIT ( ) );
#151 = ORIENTED_EDGE ( 'NONE', *, *, #244, .T. ) ;
#152 = VECTOR ( 'NONE', #101, 39.37007874015748143 ) ;
#153 = ADVANCED_FACE ( 'NONE', ( #284 ), #59, .T. ) ;
#154 = FILL_AREA_STYLE ('',( #258 ) ) ;
#155 = DIRECTION ( 'NONE',  ( -1.000000000000000000, 0.000000000000000000, 0.000000000000000000 ) ) ;
#156 =( LENGTH_UNIT ( ) NAMED_UNIT ( * ) SI_UNIT ( $, .METRE. ) );
#157 = SURFACE_STYLE_USAGE ( .BOTH. , #109 ) ;
#158 = APPLICATION_CONTEXT ( 'automotive_design' ) ;
#159 = COLOUR_RGB ( '',1.000000000000000000, 0.000000000000000000, 0.000000000000000000 ) ;
#160 = AXIS2_PLACEMENT_3D ( 'NONE', #113, #139, #71 ) ;
#161 = PRESENTATION_LAYER_ASSIGNMENT (  '', '', ( #281 ) ) ;
#162 = CARTESIAN_POINT ( 'NONE',  ( 0.1875000000000000278, 5.000000000000000000, 2.296212748401288650E-17 ) ) ;
#163 = EDGE_CURVE ( 'NONE', #165, #168, #8, .T. ) ;
#164 = EDGE_LOOP ( 'NONE', ( #292, #219, #279, #53 ) ) ;
#165 = VERTEX_POINT ( 'NONE', #4 ) ;
#166 = CARTESIAN_POINT ( 'NONE',  ( 0.000000000000000000, 2.500000000000000000, 0.000000000000000000 ) ) ;
#167 =( GEOMETRIC_REPRESENTATION_CONTEXT ( 3 ) GLOBAL_UNCERTAINTY_ASSIGNED_CONTEXT ( ( #215 ) ) GLOBAL_UNIT_ASSIGNED_CONTEXT ( ( #132, #40, #182 ) ) REPRESENTATION_CONTEXT ( 'NONE', 'WORKASPACE' ) );
#168 = VERTEX_POINT ( 'NONE', #42 ) ;
#169 = DIRECTION ( 'NONE',  ( 0.000000000000000000, 0.000000000000000000, -1.000000000000000000 ) ) ;
#170 = PRODUCT_DEFINITION_CONTEXT ( 'detailed design', #158, 'design' ) ;
#171 = CARTESIAN_POINT ( 'NONE',  ( 0.1875000000000000278, 5.000000000000000000, 0.000000000000000000 ) ) ;
#172 = ORIENTED_EDGE ( 'NONE', *, *, #91, .F. ) ;
#173 = DIRECTION ( 'NONE',  ( -4.898587196589413075E-17, 1.000000000000000000, -0.000000000000000000 ) ) ;
#174 = PRODUCT_DEFINITION ( 'UNKNOWN', '', #273, #170 ) ;
#175 = VERTEX_POINT ( 'NONE', #82 ) ;
#176 = CARTESIAN_POINT ( 'NONE',  ( 0.000000000000000000, 0.000000000000000000, 0.000000000000000000 ) ) ;
#177 = ADVANCED_FACE ( 'NONE', ( #36 ), #234, .F. ) ;
#178 = VECTOR ( 'NONE', #193, 39.37007874015748143 ) ;
#179 = SURFACE_STYLE_USAGE ( .BOTH. , #201 ) ;
#180 = DIRECTION ( 'NONE',  ( 0.000000000000000000, -0.000000000000000000, 1.000000000000000000 ) ) ;
#181 = AXIS2_PLACEMENT_3D ( 'NONE', #176, #38, #278 ) ;
#182 =( NAMED_UNIT ( * ) SI_UNIT ( $, .STERADIAN. ) SOLID_ANGLE_UNIT ( ) );
#183 =( LENGTH_UNIT ( ) NAMED_UNIT ( * ) SI_UNIT ( $, .METRE. ) );
#184 = FACE_OUTER_BOUND ( 'NONE', #52, .T. ) ;
#185 = EDGE_CURVE ( 'NONE', #227, #74, #213, .T. ) ;
#186 = CIRCLE ( 'NONE', #191, 0.1875000000000001388 ) ;
#187 = DIRECTION ( 'NONE',  ( -4.898587196589413075E-17, 1.000000000000000000, -0.000000000000000000 ) ) ;
#188 = ADVANCED_FACE ( 'NONE', ( #263 ), #17, .T. ) ;
#189 = VERTEX_POINT ( 'NONE', #65 ) ;
#190 = DIMENSIONAL_EXPONENTS ( 1.000000000000000000, 0.000000000000000000, 0.000000000000000000, 0.000000000000000000, 0.000000000000000000, 0.000000000000000000, 0.000000000000000000 ) ;
#191 = AXIS2_PLACEMENT_3D ( 'NONE', #300, #11, #120 ) ;
#192 = ORIENTED_EDGE ( 'NONE', *, *, #260, .F. ) ;
#193 = DIRECTION ( 'NONE',  ( -4.898587196589412459E-17, 1.000000000000000000, -0.000000000000000000 ) ) ;
#194 = DIRECTION ( 'NONE',  ( -0.000000000000000000, -1.000000000000000000, -0.000000000000000000 ) ) ;
#195 = ORIENTED_EDGE ( 'NONE', *, *, #67, .F. ) ;
#196 = FILL_AREA_STYLE_COLOUR ( '', #282 ) ;
#197 =( LENGTH_UNIT ( ) NAMED_UNIT ( * ) SI_UNIT ( $, .METRE. ) );
#198 = AXIS2_PLACEMENT_3D ( 'NONE', #57, #95, #115 ) ;
#199 = PRODUCT_CONTEXT ( 'NONE', #217, 'mechanical' ) ;
#200 = DIRECTION ( 'NONE',  ( 4.898587196589412459E-17, -1.000000000000000000, 0.000000000000000000 ) ) ;
#201 = SURFACE_SIDE_STYLE ('',( #105 ) ) ;
#202 = UNCERTAINTY_MEASURE_WITH_UNIT (LENGTH_MEASURE( 1.000000000000000082E-05 ), #60, 'distance_accuracy_value', 'NONE');
#203 = SURFACE_STYLE_USAGE ( .BOTH. , #69 ) ;
#204 =( GEOMETRIC_REPRESENTATION_CONTEXT ( 3 ) GLOBAL_UNCERTAINTY_ASSIGNED_CONTEXT ( ( #97 ) ) GLOBAL_UNIT_ASSIGNED_CONTEXT ( ( #256, #86, #129 ) ) REPRESENTATION_CONTEXT ( 'NONE', 'WORKASPACE' ) );
#205 = EDGE_LOOP ( 'NONE', ( #231, #123 ) ) ;
#206 = CIRCLE ( 'NONE', #72, 0.1875000000000001388 ) ;
#207 = AXIS2_PLACEMENT_3D ( 'NONE', #171, #200, #76 ) ;
#208 = SHAPE_DEFINITION_REPRESENTATION ( #114, #18 ) ;
#209 = FACE_OUTER_BOUND ( 'NONE', #5, .T. ) ;
#210 = UNCERTAINTY_MEASURE_WITH_UNIT (LENGTH_MEASURE( 1.000000000000000082E-05 ), #130, 'distance_accuracy_value', 'NONE');
#211 = CARTESIAN_POINT ( 'NONE',  ( 0.000000000000000000, 2.500000000000000000, 0.000000000000000000 ) ) ;
#212 =( CONVERSION_BASED_UNIT ( 'INCH', #110 ) LENGTH_UNIT ( ) NAMED_UNIT ( #141 ) );
#213 = CIRCLE ( 'NONE', #27, 0.1875000000000000278 ) ;
#214 = PRESENTATION_STYLE_ASSIGNMENT (( #157 ) ) ;
#215 = UNCERTAINTY_MEASURE_WITH_UNIT (LENGTH_MEASURE( 1.000000000000000082E-05 ), #132, 'distance_accuracy_value', 'NONE');
#216 = FILL_AREA_STYLE ('',( #196 ) ) ;
#217 = APPLICATION_CONTEXT ( 'automotive_design' ) ;
#218 = EDGE_LOOP ( 'NONE', ( #298, #192 ) ) ;
#219 = ORIENTED_EDGE ( 'NONE', *, *, #289, .T. ) ;
#220 = ORIENTED_EDGE ( 'NONE', *, *, #67, .T. ) ;
#221 = CARTESIAN_POINT ( 'NONE',  ( 0.000000000000000000, 2.500000000000000000, -0.1875000000000000278 ) ) ;
#222 = CIRCLE ( 'NONE', #160, 0.1875000000000000278 ) ;
#223 = COLOUR_RGB ( '',0.7921568627450980005, 0.8196078431372548767, 0.9333333333333333481 ) ;
#224 = EDGE_LOOP ( 'NONE', ( #172, #220, #151, #251 ) ) ;
#225 = ADVANCED_FACE ( 'NONE', ( #209 ), #290, .T. ) ;
#226 = DIRECTION ( 'NONE',  ( 0.000000000000000000, 0.000000000000000000, -1.000000000000000000 ) ) ;
#227 = VERTEX_POINT ( 'NONE', #308 ) ;
#228 = PRESENTATION_STYLE_ASSIGNMENT (( #121 ) ) ;
#229 = PRESENTATION_STYLE_ASSIGNMENT (( #33 ) ) ;
#230 = DIRECTION ( 'NONE',  ( -4.898587196589413075E-17, 1.000000000000000000, -0.000000000000000000 ) ) ;
#231 = ORIENTED_EDGE ( 'NONE', *, *, #185, .T. ) ;
#232 = CIRCLE ( 'NONE', #265, 0.1875000000000000278 ) ;
#233 = APPLICATION_PROTOCOL_DEFINITION ( 'draft international standard', 'automotive_design', 1998, #217 ) ;
#234 = PLANE ( 'NONE',  #77 ) ;
#235 = CARTESIAN_POINT ( 'NONE',  ( 0.000000000000000000, 0.000000000000000000, 0.000000000000000000 ) ) ;
#236 = ORIENTED_EDGE ( 'NONE', *, *, #100, .T. ) ;
#237 = SURFACE_SIDE_STYLE ('',( #41 ) ) ;
#238 = AXIS2_PLACEMENT_3D ( 'NONE', #56, #22, #169 ) ;
#239 = ORIENTED_EDGE ( 'NONE', *, *, #91, .T. ) ;
#240 = ADVANCED_FACE ( 'NONE', ( #184 ), #94, .T. ) ;
#241 =( LENGTH_UNIT ( ) NAMED_UNIT ( * ) SI_UNIT ( $, .METRE. ) );
#242 = AXIS2_PLACEMENT_3D ( 'NONE', #98, #187, #296 ) ;
#243 = AXIS2_PLACEMENT_3D ( 'NONE', #252, #230, #127 ) ;
#244 = EDGE_CURVE ( 'NONE', #283, #227, #149, .T. ) ;
#245 = MECHANICAL_DESIGN_GEOMETRIC_PRESENTATION_REPRESENTATION (  '', ( #307 ), #45 ) ;
#246 = ORIENTED_EDGE ( 'NONE', *, *, #116, .T. ) ;
#247 = AXIS2_PLACEMENT_3D ( 'NONE', #44, #285, #155 ) ;
#248 = CIRCLE ( 'NONE', #305, 0.1875000000000000278 ) ;
#249 = AXIS2_PLACEMENT_3D ( 'NONE', #49, #270, #148 ) ;
#250 =( NAMED_UNIT ( * ) SI_UNIT ( $, .STERADIAN. ) SOLID_ANGLE_UNIT ( ) );
#251 = ORIENTED_EDGE ( 'NONE', *, *, #257, .F. ) ;
#252 = CARTESIAN_POINT ( 'NONE',  ( 1.516480271171051896E-32, 2.500000000000000000, 0.000000000000000000 ) ) ;
#253 = CARTESIAN_POINT ( 'NONE',  ( 0.000000000000000000, 0.000000000000000000, -0.1875000000000000278 ) ) ;
#254 = STYLED_ITEM ( 'NONE', ( #135 ), #225 ) ;
#255 =( CONVERSION_BASED_UNIT ( 'INCH', #277 ) LENGTH_UNIT ( ) NAMED_UNIT ( #48 ) );
#256 =( CONVERSION_BASED_UNIT ( 'INCH', #302 ) LENGTH_UNIT ( ) NAMED_UNIT ( #96 ) );
#257 = EDGE_CURVE ( 'NONE', #74, #227, #232, .T. ) ;
#258 = FILL_AREA_STYLE_COLOUR ( '', #64 ) ;
#259 = FILL_AREA_STYLE_COLOUR ( '', #159 ) ;
#260 = EDGE_CURVE ( 'NONE', #168, #165, #288, .T. ) ;
#261 = FILL_AREA_STYLE_COLOUR ( '', #54 ) ;
#262 = LINE ( 'NONE', #266, #68 ) ;
#263 = FACE_OUTER_BOUND ( 'NONE', #164, .T. ) ;
#264 = MECHANICAL_DESIGN_GEOMETRIC_PRESENTATION_REPRESENTATION (  '', ( #254 ), #167 ) ;
#265 = AXIS2_PLACEMENT_3D ( 'NONE', #271, #55, #226 ) ;
#266 = CARTESIAN_POINT ( 'NONE',  ( -0.1875000000000002220, 5.000000000000000000, 0.000000000000000000 ) ) ;
#267 = DIMENSIONAL_EXPONENTS ( 1.000000000000000000, 0.000000000000000000, 0.000000000000000000, 0.000000000000000000, 0.000000000000000000, 0.000000000000000000, 0.000000000000000000 ) ;
#268 = ORIENTED_EDGE ( 'NONE', *, *, #108, .T. ) ;
#269 = STYLED_ITEM ( 'NONE', ( #214 ), #153 ) ;
#270 = DIRECTION ( 'NONE',  ( -0.000000000000000000, -1.000000000000000000, -0.000000000000000000 ) ) ;
#271 = CARTESIAN_POINT ( 'NONE',  ( 0.000000000000000000, 0.000000000000000000, 0.000000000000000000 ) ) ;
#272 = CARTESIAN_POINT ( 'NONE',  ( -1.224646799147353207E-16, 5.000000000000000000, 0.000000000000000000 ) ) ;
#273 = PRODUCT_DEFINITION_FORMATION_WITH_SPECIFIED_SOURCE ( 'ANY', '', #35, .NOT_KNOWN. ) ;
#274 = CLOSED_SHELL ( 'NONE', ( #188, #177, #46, #122 ) ) ;
#275 = PLANE ( 'NONE',  #198 ) ;
#276 = LENGTH_MEASURE_WITH_UNIT ( LENGTH_MEASURE( 0.02539999999999999897 ), #83 );
#277 = LENGTH_MEASURE_WITH_UNIT ( LENGTH_MEASURE( 0.02539999999999999897 ), #183 );
#278 = DIRECTION ( 'NONE',  ( 1.000000000000000000, 0.000000000000000000, 0.000000000000000000 ) ) ;
#279 = ORIENTED_EDGE ( 'NONE', *, *, #100, .F. ) ;
#280 =( CONVERSION_BASED_UNIT ( 'INCH', #37 ) LENGTH_UNIT ( ) NAMED_UNIT ( #26 ) );
#281 = STYLED_ITEM ( 'NONE', ( #228 ), #297 ) ;
#282 = COLOUR_RGB ( '',0.7921568627450980005, 0.8196078431372548767, 0.9333333333333333481 ) ;
#283 = VERTEX_POINT ( 'NONE', #221 ) ;
#284 = FACE_OUTER_BOUND ( 'NONE', #224, .T. ) ;
#285 = DIRECTION ( 'NONE',  ( -4.898587196589413075E-17, 1.000000000000000000, -0.000000000000000000 ) ) ;
#286 = SURFACE_STYLE_USAGE ( .BOTH. , #237 ) ;
#287 = VECTOR ( 'NONE', #194, 39.37007874015748143 ) ;
#288 = CIRCLE ( 'NONE', #137, 0.1875000000000000278 ) ;
#289 = EDGE_CURVE ( 'NONE', #168, #294, #9, .T. ) ;
#290 = PLANE ( 'NONE',  #291 ) ;
#291 = AXIS2_PLACEMENT_3D ( 'NONE', #211, #309, #180 ) ;
#292 = ORIENTED_EDGE ( 'NONE', *, *, #163, .T. ) ;
#293 = PRESENTATION_LAYER_ASSIGNMENT (  '', '', ( #145 ) ) ;
#294 = VERTEX_POINT ( 'NONE', #162 ) ;
#295 = EDGE_LOOP ( 'NONE', ( #10, #23, #144, #75 ) ) ;
#296 = DIRECTION ( 'NONE',  ( -1.000000000000000000, 0.000000000000000000, 0.000000000000000000 ) ) ;
#297 = MANIFOLD_SOLID_BREP ( 'Revolve - Cutting Edge', #112 ) ;
#298 = ORIENTED_EDGE ( 'NONE', *, *, #163, .F. ) ;
#299 = MANIFOLD_SOLID_BREP ( 'Revolve - Tool Body (Straight Shanked)', #274 ) ;
#300 = CARTESIAN_POINT ( 'NONE',  ( -1.224646799147353207E-16, 5.000000000000000000, 0.000000000000000000 ) ) ;
#301 = PRESENTATION_LAYER_ASSIGNMENT (  '', '', ( #307 ) ) ;
#302 = LENGTH_MEASURE_WITH_UNIT ( LENGTH_MEASURE( 0.02539999999999999897 ), #39 );
#303 = DIRECTION ( 'NONE',  ( -4.898587196589412459E-17, 1.000000000000000000, 0.000000000000000000 ) ) ;
#304 = FILL_AREA_STYLE_COLOUR ( '', #2 ) ;
#305 = AXIS2_PLACEMENT_3D ( 'NONE', #166, #78, #124 ) ;
#306 = PRODUCT_RELATED_PRODUCT_CATEGORY ( 'part', '', ( #35 ) ) ;
#307 = STYLED_ITEM ( 'NONE', ( #229 ), #25 ) ;
#308 = CARTESIAN_POINT ( 'NONE',  ( 0.000000000000000000, 0.000000000000000000, -0.1875000000000000278 ) ) ;
#309 = DIRECTION ( 'NONE',  ( 0.000000000000000000, 1.000000000000000000, 0.000000000000000000 ) ) ;
ENDSEC;
END-ISO-10303-21;
