ISO-10303-21;
HEADER;
FILE_DESCRIPTION (( 'STEP AP214' ),
    '1' );
FILE_NAME ('59653.STEP',
    '2023-07-24T15:51:48',
    ( '' ),
    ( '' ),
    'SwSTEP 2.0',
    'SolidWorks 2023',
    '' );
FILE_SCHEMA (( 'AUTOMOTIVE_DESIGN' ));
ENDSEC;

DATA;
#1 = MECHANICAL_DESIGN_GEOMETRIC_PRESENTATION_REPRESENTATION (  '', ( #248 ), #73 ) ;
#2 = CIRCLE ( 'NONE', #61, 4.000000000000000000 ) ;
#3 = CYLINDRICAL_SURFACE ( 'NONE', #103, 3.999999999999998224 ) ;
#4 = EDGE_CURVE ( 'NONE', #53, #159, #20, .T. ) ;
#5 =( LENGTH_UNIT ( ) NAMED_UNIT ( * ) SI_UNIT ( .MILLI., .METRE. ) );
#6 = FILL_AREA_STYLE ('',( #284 ) ) ;
#7 = FILL_AREA_STYLE ('',( #227 ) ) ;
#8 = FACE_OUTER_BOUND ( 'NONE', #182, .T. ) ;
#9 = EDGE_LOOP ( 'NONE', ( #214, #179 ) ) ;
#10 = CARTESIAN_POINT ( 'NONE',  ( 0.000000000000000000, 0.000000000000000000, 0.000000000000000000 ) ) ;
#11 = VERTEX_POINT ( 'NONE', #119 ) ;
#12 = STYLED_ITEM ( 'NONE', ( #199 ), #237 ) ;
#13 = ORIENTED_EDGE ( 'NONE', *, *, #180, .T. ) ;
#14 = DIRECTION ( 'NONE',  ( 0.000000000000000000, 0.000000000000000000, -1.000000000000000000 ) ) ;
#15 = DIRECTION ( 'NONE',  ( -6.774641867623654571E-17, -1.000000000000000000, 0.000000000000000000 ) ) ;
#16 = FILL_AREA_STYLE_COLOUR ( '', #121 ) ;
#17 =( NAMED_UNIT ( * ) SI_UNIT ( $, .STERADIAN. ) SOLID_ANGLE_UNIT ( ) );
#18 = ADVANCED_BREP_SHAPE_REPRESENTATION ( '59653', ( #237, #134, #128 ), #79 ) ;
#19 = SURFACE_STYLE_FILL_AREA ( #266 ) ;
#20 = CIRCLE ( 'NONE', #72, 4.000000000000000000 ) ;
#21 = ADVANCED_FACE ( 'NONE', ( #141 ), #188, .T. ) ;
#22 =( NAMED_UNIT ( * ) PLANE_ANGLE_UNIT ( ) SI_UNIT ( $, .RADIAN. ) );
#23 = PRODUCT_RELATED_PRODUCT_CATEGORY ( 'part', '', ( #167 ) ) ;
#24 = MECHANICAL_DESIGN_GEOMETRIC_PRESENTATION_REPRESENTATION (  '', ( #100 ), #65 ) ;
#25 = PLANE ( 'NONE',  #132 ) ;
#26 = UNCERTAINTY_MEASURE_WITH_UNIT (LENGTH_MEASURE( 1.000000000000000082E-05 ), #231, 'distance_accuracy_value', 'NONE');
#27 = SURFACE_SIDE_STYLE ('',( #210 ) ) ;
#28 = AXIS2_PLACEMENT_3D ( 'NONE', #263, #92, #218 ) ;
#29 = DIRECTION ( 'NONE',  ( 6.774641867623654571E-17, 1.000000000000000000, -0.000000000000000000 ) ) ;
#30 = DIRECTION ( 'NONE',  ( -1.000000000000000000, 0.000000000000000000, 0.000000000000000000 ) ) ;
#31 = CARTESIAN_POINT ( 'NONE',  ( 4.000000000000000000, 63.00000000000000000, 4.898587196589411843E-16 ) ) ;
#32 = SURFACE_STYLE_USAGE ( .BOTH. , #58 ) ;
#33 =( NAMED_UNIT ( * ) SI_UNIT ( $, .STERADIAN. ) SOLID_ANGLE_UNIT ( ) );
#34 = ORIENTED_EDGE ( 'NONE', *, *, #288, .F. ) ;
#35 =( NAMED_UNIT ( * ) PLANE_ANGLE_UNIT ( ) SI_UNIT ( $, .RADIAN. ) );
#36 = LINE ( 'NONE', #261, #70 ) ;
#37 = EDGE_LOOP ( 'NONE', ( #143, #91, #163, #95 ) ) ;
#38 =( NAMED_UNIT ( * ) SI_UNIT ( $, .STERADIAN. ) SOLID_ANGLE_UNIT ( ) );
#39 =( GEOMETRIC_REPRESENTATION_CONTEXT ( 3 ) GLOBAL_UNCERTAINTY_ASSIGNED_CONTEXT ( ( #213 ) ) GLOBAL_UNIT_ASSIGNED_CONTEXT ( ( #5, #234, #33 ) ) REPRESENTATION_CONTEXT ( 'NONE', 'WORKASPACE' ) );
#40 = CIRCLE ( 'NONE', #276, 4.000000000000000000 ) ;
#41 = EDGE_CURVE ( 'NONE', #215, #53, #36, .T. ) ;
#42 = AXIS2_PLACEMENT_3D ( 'NONE', #190, #264, #197 ) ;
#43 = CARTESIAN_POINT ( 'NONE',  ( 0.000000000000000000, 16.00000000000000000, 0.000000000000000000 ) ) ;
#44 = PLANE ( 'NONE',  #28 ) ;
#45 = MECHANICAL_DESIGN_GEOMETRIC_PRESENTATION_REPRESENTATION (  '', ( #12 ), #39 ) ;
#46 = EDGE_CURVE ( 'NONE', #114, #241, #127, .T. ) ;
#47 = CARTESIAN_POINT ( 'NONE',  ( 4.000000000000001776, 63.00000000000000000, 4.898587196589410857E-16 ) ) ;
#48 =( NAMED_UNIT ( * ) SI_UNIT ( $, .STERADIAN. ) SOLID_ANGLE_UNIT ( ) );
#49 = ORIENTED_EDGE ( 'NONE', *, *, #170, .T. ) ;
#50 = ADVANCED_FACE ( 'NONE', ( #204 ), #208, .T. ) ;
#51 = PRESENTATION_STYLE_ASSIGNMENT (( #255 ) ) ;
#52 = SURFACE_SIDE_STYLE ('',( #108 ) ) ;
#53 = VERTEX_POINT ( 'NONE', #173 ) ;
#54 = CYLINDRICAL_SURFACE ( 'NONE', #209, 4.000000000000000000 ) ;
#55 = PRESENTATION_LAYER_ASSIGNMENT (  '', '', ( #100 ) ) ;
#56 = ORIENTED_EDGE ( 'NONE', *, *, #185, .F. ) ;
#57 = PRODUCT_DEFINITION_SHAPE ( 'NONE', 'NONE',  #226 ) ;
#58 = SURFACE_SIDE_STYLE ('',( #184 ) ) ;
#59 = DIRECTION ( 'NONE',  ( -0.000000000000000000, -1.000000000000000000, -0.000000000000000000 ) ) ;
#60 = FACE_OUTER_BOUND ( 'NONE', #76, .T. ) ;
#61 = AXIS2_PLACEMENT_3D ( 'NONE', #265, #29, #75 ) ;
#62 = ADVANCED_FACE ( 'NONE', ( #60 ), #44, .F. ) ;
#63 =( NAMED_UNIT ( * ) SI_UNIT ( $, .STERADIAN. ) SOLID_ANGLE_UNIT ( ) );
#64 = SURFACE_SIDE_STYLE ('',( #19 ) ) ;
#65 =( GEOMETRIC_REPRESENTATION_CONTEXT ( 3 ) GLOBAL_UNCERTAINTY_ASSIGNED_CONTEXT ( ( #174 ) ) GLOBAL_UNIT_ASSIGNED_CONTEXT ( ( #69, #154, #63 ) ) REPRESENTATION_CONTEXT ( 'NONE', 'WORKASPACE' ) );
#66 = DIRECTION ( 'NONE',  ( 1.000000000000000000, 0.000000000000000000, 0.000000000000000000 ) ) ;
#67 = APPLICATION_PROTOCOL_DEFINITION ( 'draft international standard', 'automotive_design', 1998, #252 ) ;
#68 = FILL_AREA_STYLE_COLOUR ( '', #221 ) ;
#69 =( LENGTH_UNIT ( ) NAMED_UNIT ( * ) SI_UNIT ( .MILLI., .METRE. ) );
#70 = VECTOR ( 'NONE', #59, 1000.000000000000000 ) ;
#71 = CARTESIAN_POINT ( 'NONE',  ( 3.184081677783117402E-15, 63.00000000000000000, 0.000000000000000000 ) ) ;
#72 = AXIS2_PLACEMENT_3D ( 'NONE', #283, #146, #232 ) ;
#73 =( GEOMETRIC_REPRESENTATION_CONTEXT ( 3 ) GLOBAL_UNCERTAINTY_ASSIGNED_CONTEXT ( ( #240 ) ) GLOBAL_UNIT_ASSIGNED_CONTEXT ( ( #84, #35, #38 ) ) REPRESENTATION_CONTEXT ( 'NONE', 'WORKASPACE' ) );
#74 = SURFACE_STYLE_FILL_AREA ( #6 ) ;
#75 = DIRECTION ( 'NONE',  ( -1.000000000000000000, 0.000000000000000000, 0.000000000000000000 ) ) ;
#76 = EDGE_LOOP ( 'NONE', ( #175, #257 ) ) ;
#77 = ORIENTED_EDGE ( 'NONE', *, *, #249, .F. ) ;
#78 = DIRECTION ( 'NONE',  ( -0.000000000000000000, -1.000000000000000000, -0.000000000000000000 ) ) ;
#79 =( GEOMETRIC_REPRESENTATION_CONTEXT ( 3 ) GLOBAL_UNCERTAINTY_ASSIGNED_CONTEXT ( ( #203 ) ) GLOBAL_UNIT_ASSIGNED_CONTEXT ( ( #130, #22, #152 ) ) REPRESENTATION_CONTEXT ( 'NONE', 'WORKASPACE' ) );
#80 = ADVANCED_FACE ( 'NONE', ( #224 ), #25, .F. ) ;
#81 = DIRECTION ( 'NONE',  ( 6.774641867623654571E-17, 1.000000000000000000, -0.000000000000000000 ) ) ;
#82 = EDGE_LOOP ( 'NONE', ( #183, #211, #235, #107 ) ) ;
#83 = SURFACE_STYLE_USAGE ( .BOTH. , #90 ) ;
#84 =( LENGTH_UNIT ( ) NAMED_UNIT ( * ) SI_UNIT ( .MILLI., .METRE. ) );
#85 = MECHANICAL_DESIGN_GEOMETRIC_PRESENTATION_REPRESENTATION (  '', ( #155 ), #267 ) ;
#86 = DIRECTION ( 'NONE',  ( -0.000000000000000000, -1.000000000000000000, -0.000000000000000000 ) ) ;
#87 = DIRECTION ( 'NONE',  ( 0.000000000000000000, -0.000000000000000000, 1.000000000000000000 ) ) ;
#88 = VECTOR ( 'NONE', #136, 1000.000000000000000 ) ;
#89 = CARTESIAN_POINT ( 'NONE',  ( 0.000000000000000000, 0.000000000000000000, 0.000000000000000000 ) ) ;
#90 = SURFACE_SIDE_STYLE ('',( #189 ) ) ;
#91 = ORIENTED_EDGE ( 'NONE', *, *, #244, .T. ) ;
#92 = DIRECTION ( 'NONE',  ( 6.774641867623654571E-17, 1.000000000000000000, -0.000000000000000000 ) ) ;
#93 = PRESENTATION_LAYER_ASSIGNMENT (  '', '', ( #155 ) ) ;
#94 = CARTESIAN_POINT ( 'NONE',  ( -3.851859888774471706E-31, 16.00000000000000000, 0.000000000000000000 ) ) ;
#95 = ORIENTED_EDGE ( 'NONE', *, *, #41, .F. ) ;
#96 = AXIS2_PLACEMENT_3D ( 'NONE', #254, #278, #113 ) ;
#97 = CARTESIAN_POINT ( 'NONE',  ( 4.898587196589412829E-16, 0.000000000000000000, 4.000000000000000000 ) ) ;
#98 = EDGE_LOOP ( 'NONE', ( #279, #106, #99, #56 ) ) ;
#99 = ORIENTED_EDGE ( 'NONE', *, *, #41, .T. ) ;
#100 = STYLED_ITEM ( 'NONE', ( #270 ), #133 ) ;
#101 = FILL_AREA_STYLE ('',( #262 ) ) ;
#102 = FACE_OUTER_BOUND ( 'NONE', #98, .T. ) ;
#103 = AXIS2_PLACEMENT_3D ( 'NONE', #71, #228, #250 ) ;
#104 =( NAMED_UNIT ( * ) PLANE_ANGLE_UNIT ( ) SI_UNIT ( $, .RADIAN. ) );
#105 = COLOUR_RGB ( '',1.000000000000000000, 0.000000000000000000, 0.000000000000000000 ) ;
#106 = ORIENTED_EDGE ( 'NONE', *, *, #259, .T. ) ;
#107 = ORIENTED_EDGE ( 'NONE', *, *, #170, .F. ) ;
#108 = SURFACE_STYLE_FILL_AREA ( #7 ) ;
#109 = COLOUR_RGB ( '',0.7921568627450980005, 0.8196078431372548767, 0.9333333333333333481 ) ;
#110 = CIRCLE ( 'NONE', #137, 4.000000000000000000 ) ;
#111 = AXIS2_PLACEMENT_3D ( 'NONE', #131, #287, #246 ) ;
#112 = LINE ( 'NONE', #140, #245 ) ;
#113 = DIRECTION ( 'NONE',  ( -1.000000000000000000, 0.000000000000000000, 0.000000000000000000 ) ) ;
#114 = VERTEX_POINT ( 'NONE', #124 ) ;
#115 = CARTESIAN_POINT ( 'NONE',  ( 0.000000000000000000, 0.000000000000000000, 0.000000000000000000 ) ) ;
#116 =( LENGTH_UNIT ( ) NAMED_UNIT ( * ) SI_UNIT ( .MILLI., .METRE. ) );
#117 = CARTESIAN_POINT ( 'NONE',  ( -4.000000000000000000, 16.00000000000000000, 0.000000000000000000 ) ) ;
#118 = DIRECTION ( 'NONE',  ( -1.000000000000000000, 0.000000000000000000, 0.000000000000000000 ) ) ;
#119 = CARTESIAN_POINT ( 'NONE',  ( 4.000000000000000000, 16.00000000000000000, 4.898587196589411843E-16 ) ) ;
#120 = ORIENTED_EDGE ( 'NONE', *, *, #259, .F. ) ;
#121 = COLOUR_RGB ( '',1.000000000000000000, 0.000000000000000000, 0.000000000000000000 ) ;
#122 = FACE_OUTER_BOUND ( 'NONE', #37, .T. ) ;
#123 = COLOUR_RGB ( '',1.000000000000000000, 0.000000000000000000, 0.000000000000000000 ) ;
#124 = CARTESIAN_POINT ( 'NONE',  ( -3.999999999999993339, 63.00000000000000000, 0.000000000000000000 ) ) ;
#125 = DIRECTION ( 'NONE',  ( 0.000000000000000000, 1.000000000000000000, 0.000000000000000000 ) ) ;
#126 = CARTESIAN_POINT ( 'NONE',  ( 4.000000000000000000, 63.00000000000000000, 0.000000000000000000 ) ) ;
#127 = CIRCLE ( 'NONE', #187, 3.999999999999996447 ) ;
#128 = AXIS2_PLACEMENT_3D ( 'NONE', #89, #268, #66 ) ;
#129 = SURFACE_STYLE_USAGE ( .BOTH. , #64 ) ;
#130 =( LENGTH_UNIT ( ) NAMED_UNIT ( * ) SI_UNIT ( .MILLI., .METRE. ) );
#131 = CARTESIAN_POINT ( 'NONE',  ( 0.000000000000000000, 16.00000000000000000, 0.000000000000000000 ) ) ;
#132 = AXIS2_PLACEMENT_3D ( 'NONE', #126, #15, #220 ) ;
#133 = ADVANCED_FACE ( 'NONE', ( #102 ), #194, .T. ) ;
#134 = MANIFOLD_SOLID_BREP ( 'Revolve - Tool Body (Straight Shanked)', #242 ) ;
#135 =( NAMED_UNIT ( * ) PLANE_ANGLE_UNIT ( ) SI_UNIT ( $, .RADIAN. ) );
#136 = DIRECTION ( 'NONE',  ( 6.774641867623654571E-17, 1.000000000000000000, -0.000000000000000000 ) ) ;
#137 = AXIS2_PLACEMENT_3D ( 'NONE', #115, #181, #158 ) ;
#138 = SURFACE_STYLE_USAGE ( .BOTH. , #27 ) ;
#139 = ORIENTED_EDGE ( 'NONE', *, *, #46, .T. ) ;
#140 = CARTESIAN_POINT ( 'NONE',  ( -3.999999999999994671, 63.00000000000000000, 0.000000000000000000 ) ) ;
#141 = FACE_OUTER_BOUND ( 'NONE', #82, .T. ) ;
#142 = SURFACE_STYLE_USAGE ( .BOTH. , #52 ) ;
#143 = ORIENTED_EDGE ( 'NONE', *, *, #288, .T. ) ;
#144 = PRESENTATION_LAYER_ASSIGNMENT (  '', '', ( #248 ) ) ;
#145 = PRODUCT_DEFINITION_FORMATION_WITH_SPECIFIED_SOURCE ( 'ANY', '', #167, .NOT_KNOWN. ) ;
#146 = DIRECTION ( 'NONE',  ( -0.000000000000000000, -1.000000000000000000, -0.000000000000000000 ) ) ;
#147 = CARTESIAN_POINT ( 'NONE',  ( 3.184081677783117402E-15, 63.00000000000000000, 0.000000000000000000 ) ) ;
#148 = STYLED_ITEM ( 'NONE', ( #51 ), #50 ) ;
#149 =( NAMED_UNIT ( * ) PLANE_ANGLE_UNIT ( ) SI_UNIT ( $, .RADIAN. ) );
#150 = CLOSED_SHELL ( 'NONE', ( #253, #280, #133, #50 ) ) ;
#151 =( GEOMETRIC_REPRESENTATION_CONTEXT ( 3 ) GLOBAL_UNCERTAINTY_ASSIGNED_CONTEXT ( ( #273 ) ) GLOBAL_UNIT_ASSIGNED_CONTEXT ( ( #169, #149, #171 ) ) REPRESENTATION_CONTEXT ( 'NONE', 'WORKASPACE' ) );
#152 =( NAMED_UNIT ( * ) SI_UNIT ( $, .STERADIAN. ) SOLID_ANGLE_UNIT ( ) );
#153 = FILL_AREA_STYLE_COLOUR ( '', #123 ) ;
#154 =( NAMED_UNIT ( * ) PLANE_ANGLE_UNIT ( ) SI_UNIT ( $, .RADIAN. ) );
#155 = STYLED_ITEM ( 'NONE', ( #176 ), #134 ) ;
#156 = CARTESIAN_POINT ( 'NONE',  ( 4.898587196589412829E-16, 16.00000000000000000, 4.000000000000000000 ) ) ;
#157 = SURFACE_SIDE_STYLE ('',( #74 ) ) ;
#158 = DIRECTION ( 'NONE',  ( 0.000000000000000000, 0.000000000000000000, -1.000000000000000000 ) ) ;
#159 = VERTEX_POINT ( 'NONE', #97 ) ;
#160 = ORIENTED_EDGE ( 'NONE', *, *, #180, .F. ) ;
#161 = MECHANICAL_DESIGN_GEOMETRIC_PRESENTATION_REPRESENTATION (  '', ( #285 ), #151 ) ;
#162 = DIRECTION ( 'NONE',  ( 0.000000000000000000, 0.000000000000000000, -1.000000000000000000 ) ) ;
#163 = ORIENTED_EDGE ( 'NONE', *, *, #4, .F. ) ;
#164 = EDGE_CURVE ( 'NONE', #186, #11, #2, .T. ) ;
#165 = PRESENTATION_STYLE_ASSIGNMENT (( #32 ) ) ;
#166 = VERTEX_POINT ( 'NONE', #156 ) ;
#167 = PRODUCT ( '59653', '59653', '', ( #172 ) ) ;
#168 = DIRECTION ( 'NONE',  ( 0.000000000000000000, 0.000000000000000000, -1.000000000000000000 ) ) ;
#169 =( LENGTH_UNIT ( ) NAMED_UNIT ( * ) SI_UNIT ( .MILLI., .METRE. ) );
#170 = EDGE_CURVE ( 'NONE', #186, #114, #112, .T. ) ;
#171 =( NAMED_UNIT ( * ) SI_UNIT ( $, .STERADIAN. ) SOLID_ANGLE_UNIT ( ) );
#172 = PRODUCT_CONTEXT ( 'NONE', #252, 'mechanical' ) ;
#173 = CARTESIAN_POINT ( 'NONE',  ( 0.000000000000000000, 0.000000000000000000, -4.000000000000000000 ) ) ;
#174 = UNCERTAINTY_MEASURE_WITH_UNIT (LENGTH_MEASURE( 1.000000000000000082E-05 ), #69, 'distance_accuracy_value', 'NONE');
#175 = ORIENTED_EDGE ( 'NONE', *, *, #164, .F. ) ;
#176 = PRESENTATION_STYLE_ASSIGNMENT (( #138 ) ) ;
#177 =( GEOMETRIC_REPRESENTATION_CONTEXT ( 3 ) GLOBAL_UNCERTAINTY_ASSIGNED_CONTEXT ( ( #207 ) ) GLOBAL_UNIT_ASSIGNED_CONTEXT ( ( #116, #104, #17 ) ) REPRESENTATION_CONTEXT ( 'NONE', 'WORKASPACE' ) );
#178 = LINE ( 'NONE', #272, #206 ) ;
#179 = ORIENTED_EDGE ( 'NONE', *, *, #185, .T. ) ;
#180 = EDGE_CURVE ( 'NONE', #241, #114, #223, .T. ) ;
#181 = DIRECTION ( 'NONE',  ( -0.000000000000000000, -1.000000000000000000, -0.000000000000000000 ) ) ;
#182 = EDGE_LOOP ( 'NONE', ( #77, #198, #49, #160 ) ) ;
#183 = ORIENTED_EDGE ( 'NONE', *, *, #164, .T. ) ;
#184 = SURFACE_STYLE_FILL_AREA ( #258 ) ;
#185 = EDGE_CURVE ( 'NONE', #159, #53, #110, .T. ) ;
#186 = VERTEX_POINT ( 'NONE', #117 ) ;
#187 = AXIS2_PLACEMENT_3D ( 'NONE', #147, #277, #30 ) ;
#188 = CYLINDRICAL_SURFACE ( 'NONE', #195, 3.999999999999998224 ) ;
#189 = SURFACE_STYLE_FILL_AREA ( #101 ) ;
#190 = CARTESIAN_POINT ( 'NONE',  ( 0.000000000000000000, 0.000000000000000000, 0.000000000000000000 ) ) ;
#191 = PRESENTATION_LAYER_ASSIGNMENT (  '', '', ( #12 ) ) ;
#192 = SHAPE_DEFINITION_REPRESENTATION ( #57, #18 ) ;
#193 = EDGE_CURVE ( 'NONE', #11, #186, #282, .T. ) ;
#194 = CYLINDRICAL_SURFACE ( 'NONE', #229, 4.000000000000000000 ) ;
#195 = AXIS2_PLACEMENT_3D ( 'NONE', #236, #81, #118 ) ;
#196 = CIRCLE ( 'NONE', #111, 4.000000000000000000 ) ;
#197 = DIRECTION ( 'NONE',  ( 0.000000000000000000, 0.000000000000000000, -1.000000000000000000 ) ) ;
#198 = ORIENTED_EDGE ( 'NONE', *, *, #193, .T. ) ;
#199 = PRESENTATION_STYLE_ASSIGNMENT (( #142 ) ) ;
#200 = MECHANICAL_DESIGN_GEOMETRIC_PRESENTATION_REPRESENTATION (  '', ( #148 ), #177 ) ;
#201 = PRESENTATION_LAYER_ASSIGNMENT (  '', '', ( #285 ) ) ;
#202 = DIRECTION ( 'NONE',  ( -1.000000000000000000, 0.000000000000000000, 0.000000000000000000 ) ) ;
#203 = UNCERTAINTY_MEASURE_WITH_UNIT (LENGTH_MEASURE( 1.000000000000000082E-05 ), #130, 'distance_accuracy_value', 'NONE');
#204 = FACE_OUTER_BOUND ( 'NONE', #9, .T. ) ;
#205 = DIRECTION ( 'NONE',  ( 6.774641867623654571E-17, 1.000000000000000000, -0.000000000000000000 ) ) ;
#206 = VECTOR ( 'NONE', #274, 1000.000000000000000 ) ;
#207 = UNCERTAINTY_MEASURE_WITH_UNIT (LENGTH_MEASURE( 1.000000000000000082E-05 ), #116, 'distance_accuracy_value', 'NONE');
#208 = PLANE ( 'NONE',  #42 ) ;
#209 = AXIS2_PLACEMENT_3D ( 'NONE', #10, #78, #162 ) ;
#210 = SURFACE_STYLE_FILL_AREA ( #247 ) ;
#211 = ORIENTED_EDGE ( 'NONE', *, *, #249, .T. ) ;
#212 = APPLICATION_CONTEXT ( 'automotive_design' ) ;
#213 = UNCERTAINTY_MEASURE_WITH_UNIT (LENGTH_MEASURE( 1.000000000000000082E-05 ), #5, 'distance_accuracy_value', 'NONE');
#214 = ORIENTED_EDGE ( 'NONE', *, *, #4, .T. ) ;
#215 = VERTEX_POINT ( 'NONE', #256 ) ;
#216 = AXIS2_PLACEMENT_3D ( 'NONE', #94, #233, #202 ) ;
#217 = DIRECTION ( 'NONE',  ( -0.000000000000000000, -1.000000000000000000, -0.000000000000000000 ) ) ;
#218 = DIRECTION ( 'NONE',  ( -1.000000000000000000, 6.774641867623654571E-17, 0.000000000000000000 ) ) ;
#219 = PRESENTATION_STYLE_ASSIGNMENT (( #129 ) ) ;
#220 = DIRECTION ( 'NONE',  ( 1.000000000000000000, -6.774641867623654571E-17, 0.000000000000000000 ) ) ;
#221 = COLOUR_RGB ( '',0.7921568627450980005, 0.8196078431372548767, 0.9333333333333333481 ) ;
#222 = APPLICATION_PROTOCOL_DEFINITION ( 'draft international standard', 'automotive_design', 1998, #212 ) ;
#223 = CIRCLE ( 'NONE', #96, 3.999999999999996447 ) ;
#224 = FACE_OUTER_BOUND ( 'NONE', #281, .T. ) ;
#225 = PRODUCT_DEFINITION_CONTEXT ( 'detailed design', #212, 'design' ) ;
#226 = PRODUCT_DEFINITION ( 'UNKNOWN', '', #145, #225 ) ;
#227 = FILL_AREA_STYLE_COLOUR ( '', #109 ) ;
#228 = DIRECTION ( 'NONE',  ( 6.774641867623654571E-17, 1.000000000000000000, -0.000000000000000000 ) ) ;
#229 = AXIS2_PLACEMENT_3D ( 'NONE', #286, #86, #168 ) ;
#230 = AXIS2_PLACEMENT_3D ( 'NONE', #43, #125, #87 ) ;
#231 =( LENGTH_UNIT ( ) NAMED_UNIT ( * ) SI_UNIT ( .MILLI., .METRE. ) );
#232 = DIRECTION ( 'NONE',  ( 0.000000000000000000, 0.000000000000000000, -1.000000000000000000 ) ) ;
#233 = DIRECTION ( 'NONE',  ( 6.774641867623654571E-17, 1.000000000000000000, -0.000000000000000000 ) ) ;
#234 =( NAMED_UNIT ( * ) PLANE_ANGLE_UNIT ( ) SI_UNIT ( $, .RADIAN. ) );
#235 = ORIENTED_EDGE ( 'NONE', *, *, #46, .F. ) ;
#236 = CARTESIAN_POINT ( 'NONE',  ( 3.184081677783117402E-15, 63.00000000000000000, 0.000000000000000000 ) ) ;
#237 = MANIFOLD_SOLID_BREP ( 'Revolve - Cutting Edge', #150 ) ;
#238 = ADVANCED_FACE ( 'NONE', ( #8 ), #3, .T. ) ;
#239 = CARTESIAN_POINT ( 'NONE',  ( 0.000000000000000000, 16.00000000000000000, 0.000000000000000000 ) ) ;
#240 = UNCERTAINTY_MEASURE_WITH_UNIT (LENGTH_MEASURE( 1.000000000000000082E-05 ), #84, 'distance_accuracy_value', 'NONE');
#241 = VERTEX_POINT ( 'NONE', #31 ) ;
#242 = CLOSED_SHELL ( 'NONE', ( #21, #62, #238, #80 ) ) ;
#243 = PLANE ( 'NONE',  #230 ) ;
#244 = EDGE_CURVE ( 'NONE', #166, #159, #178, .T. ) ;
#245 = VECTOR ( 'NONE', #205, 1000.000000000000000 ) ;
#246 = DIRECTION ( 'NONE',  ( 0.000000000000000000, 0.000000000000000000, -1.000000000000000000 ) ) ;
#247 = FILL_AREA_STYLE ('',( #68 ) ) ;
#248 = STYLED_ITEM ( 'NONE', ( #165 ), #253 ) ;
#249 = EDGE_CURVE ( 'NONE', #11, #241, #251, .T. ) ;
#250 = DIRECTION ( 'NONE',  ( -1.000000000000000000, 0.000000000000000000, 0.000000000000000000 ) ) ;
#251 = LINE ( 'NONE', #47, #88 ) ;
#252 = APPLICATION_CONTEXT ( 'automotive_design' ) ;
#253 = ADVANCED_FACE ( 'NONE', ( #122 ), #54, .T. ) ;
#254 = CARTESIAN_POINT ( 'NONE',  ( 3.184081677783117402E-15, 63.00000000000000000, 0.000000000000000000 ) ) ;
#255 = SURFACE_STYLE_USAGE ( .BOTH. , #157 ) ;
#256 = CARTESIAN_POINT ( 'NONE',  ( 0.000000000000000000, 16.00000000000000000, -4.000000000000000000 ) ) ;
#257 = ORIENTED_EDGE ( 'NONE', *, *, #193, .F. ) ;
#258 = FILL_AREA_STYLE ('',( #16 ) ) ;
#259 = EDGE_CURVE ( 'NONE', #166, #215, #40, .T. ) ;
#260 = EDGE_LOOP ( 'NONE', ( #34, #120 ) ) ;
#261 = CARTESIAN_POINT ( 'NONE',  ( 0.000000000000000000, 0.000000000000000000, -4.000000000000000000 ) ) ;
#262 = FILL_AREA_STYLE_COLOUR ( '', #275 ) ;
#263 = CARTESIAN_POINT ( 'NONE',  ( 9.179154486911863099E-33, 16.00000000000000000, 0.000000000000000000 ) ) ;
#264 = DIRECTION ( 'NONE',  ( 0.000000000000000000, -1.000000000000000000, -0.000000000000000000 ) ) ;
#265 = CARTESIAN_POINT ( 'NONE',  ( -3.851859888774471706E-31, 16.00000000000000000, 0.000000000000000000 ) ) ;
#266 = FILL_AREA_STYLE ('',( #153 ) ) ;
#267 =( GEOMETRIC_REPRESENTATION_CONTEXT ( 3 ) GLOBAL_UNCERTAINTY_ASSIGNED_CONTEXT ( ( #26 ) ) GLOBAL_UNIT_ASSIGNED_CONTEXT ( ( #231, #135, #48 ) ) REPRESENTATION_CONTEXT ( 'NONE', 'WORKASPACE' ) );
#268 = DIRECTION ( 'NONE',  ( 0.000000000000000000, 0.000000000000000000, 1.000000000000000000 ) ) ;
#269 = FACE_OUTER_BOUND ( 'NONE', #260, .T. ) ;
#270 = PRESENTATION_STYLE_ASSIGNMENT (( #83 ) ) ;
#271 = PRESENTATION_LAYER_ASSIGNMENT (  '', '', ( #148 ) ) ;
#272 = CARTESIAN_POINT ( 'NONE',  ( 4.898587196589412829E-16, 0.000000000000000000, 4.000000000000000000 ) ) ;
#273 = UNCERTAINTY_MEASURE_WITH_UNIT (LENGTH_MEASURE( 1.000000000000000082E-05 ), #169, 'distance_accuracy_value', 'NONE');
#274 = DIRECTION ( 'NONE',  ( -0.000000000000000000, -1.000000000000000000, -0.000000000000000000 ) ) ;
#275 = COLOUR_RGB ( '',1.000000000000000000, 0.000000000000000000, 0.000000000000000000 ) ;
#276 = AXIS2_PLACEMENT_3D ( 'NONE', #239, #217, #14 ) ;
#277 = DIRECTION ( 'NONE',  ( 6.774641867623654571E-17, 1.000000000000000000, -0.000000000000000000 ) ) ;
#278 = DIRECTION ( 'NONE',  ( 6.774641867623654571E-17, 1.000000000000000000, -0.000000000000000000 ) ) ;
#279 = ORIENTED_EDGE ( 'NONE', *, *, #244, .F. ) ;
#280 = ADVANCED_FACE ( 'NONE', ( #269 ), #243, .T. ) ;
#281 = EDGE_LOOP ( 'NONE', ( #139, #13 ) ) ;
#282 = CIRCLE ( 'NONE', #216, 4.000000000000000000 ) ;
#283 = CARTESIAN_POINT ( 'NONE',  ( 0.000000000000000000, 0.000000000000000000, 0.000000000000000000 ) ) ;
#284 = FILL_AREA_STYLE_COLOUR ( '', #105 ) ;
#285 = STYLED_ITEM ( 'NONE', ( #219 ), #280 ) ;
#286 = CARTESIAN_POINT ( 'NONE',  ( 0.000000000000000000, 0.000000000000000000, 0.000000000000000000 ) ) ;
#287 = DIRECTION ( 'NONE',  ( -0.000000000000000000, -1.000000000000000000, -0.000000000000000000 ) ) ;
#288 = EDGE_CURVE ( 'NONE', #215, #166, #196, .T. ) ;
ENDSEC;
END-ISO-10303-21;
