ISO-10303-21;
HEADER;
FILE_DESCRIPTION (( 'STEP AP214' ),
    '1' );
FILE_NAME ('01300.STEP',
    '2023-06-22T14:26:01',
    ( '' ),
    ( '' ),
    'SwSTEP 2.0',
    'SolidWorks 2023',
    '' );
FILE_SCHEMA (( 'AUTOMOTIVE_DESIGN' ));
ENDSEC;

DATA;
#1 = EDGE_LOOP ( 'NONE', ( #158, #94, #304, #67 ) ) ;
#2 = CARTESIAN_POINT ( 'NONE',  ( 0.000000000000000000, 2.125000000000000000, 0.000000000000000000 ) ) ;
#3 = CARTESIAN_POINT ( 'NONE',  ( -0.1562500000000002220, 4.000000000000000000, 0.000000000000000000 ) ) ;
#4 = COLOUR_RGB ( '',1.000000000000000000, 0.000000000000000000, 0.000000000000000000 ) ;
#5 = DIRECTION ( 'NONE',  ( 0.000000000000000000, 0.000000000000000000, -1.000000000000000000 ) ) ;
#6 = EDGE_LOOP ( 'NONE', ( #92, #53, #142, #90 ) ) ;
#7 = SHAPE_DEFINITION_REPRESENTATION ( #13, #101 ) ;
#8 = EDGE_LOOP ( 'NONE', ( #162, #19 ) ) ;
#9 = ADVANCED_FACE ( 'NONE', ( #164 ), #115, .T. ) ;
#10 = FILL_AREA_STYLE_COLOUR ( '', #60 ) ;
#11 = PRESENTATION_LAYER_ASSIGNMENT (  '', '', ( #293 ) ) ;
#12 =( NAMED_UNIT ( * ) PLANE_ANGLE_UNIT ( ) SI_UNIT ( $, .RADIAN. ) );
#13 = PRODUCT_DEFINITION_SHAPE ( 'NONE', 'NONE',  #22 ) ;
#14 = DIRECTION ( 'NONE',  ( 0.000000000000000000, 0.000000000000000000, -1.000000000000000000 ) ) ;
#15 = CARTESIAN_POINT ( 'NONE',  ( 0.000000000000000000, 0.000000000000000000, 0.000000000000000000 ) ) ;
#16 =( LENGTH_UNIT ( ) NAMED_UNIT ( * ) SI_UNIT ( $, .METRE. ) );
#17 =( NAMED_UNIT ( * ) PLANE_ANGLE_UNIT ( ) SI_UNIT ( $, .RADIAN. ) );
#18 =( NAMED_UNIT ( * ) SI_UNIT ( $, .STERADIAN. ) SOLID_ANGLE_UNIT ( ) );
#19 = ORIENTED_EDGE ( 'NONE', *, *, #183, .F. ) ;
#20 = CARTESIAN_POINT ( 'NONE',  ( 0.1562500000000000000, 4.000000000000000000, 0.000000000000000000 ) ) ;
#21 = CARTESIAN_POINT ( 'NONE',  ( 0.1562499999999999445, 4.000000000000000000, 1.913510623667740080E-17 ) ) ;
#22 = PRODUCT_DEFINITION ( 'UNKNOWN', '', #149, #301 ) ;
#23 = FILL_AREA_STYLE ('',( #184 ) ) ;
#24 =( GEOMETRIC_REPRESENTATION_CONTEXT ( 3 ) GLOBAL_UNCERTAINTY_ASSIGNED_CONTEXT ( ( #231 ) ) GLOBAL_UNIT_ASSIGNED_CONTEXT ( ( #147, #12, #221 ) ) REPRESENTATION_CONTEXT ( 'NONE', 'WORKASPACE' ) );
#25 = UNCERTAINTY_MEASURE_WITH_UNIT (LENGTH_MEASURE( 1.000000000000000082E-05 ), #206, 'distance_accuracy_value', 'NONE');
#26 = DIRECTION ( 'NONE',  ( -6.531449595452546658E-17, 1.000000000000000000, -0.000000000000000000 ) ) ;
#27 = PLANE ( 'NONE',  #34 ) ;
#28 = CARTESIAN_POINT ( 'NONE',  ( 0.000000000000000000, 2.125000000000000000, 0.000000000000000000 ) ) ;
#29 = CARTESIAN_POINT ( 'NONE',  ( -1.224646799147352714E-16, 4.000000000000000000, 0.000000000000000000 ) ) ;
#30 = ORIENTED_EDGE ( 'NONE', *, *, #223, .T. ) ;
#31 = CIRCLE ( 'NONE', #35, 0.1562500000000000000 ) ;
#32 = VERTEX_POINT ( 'NONE', #145 ) ;
#33 = PRESENTATION_STYLE_ASSIGNMENT (( #292 ) ) ;
#34 = AXIS2_PLACEMENT_3D ( 'NONE', #69, #276, #40 ) ;
#35 = AXIS2_PLACEMENT_3D ( 'NONE', #309, #143, #138 ) ;
#36 = FACE_OUTER_BOUND ( 'NONE', #1, .T. ) ;
#37 = PLANE ( 'NONE',  #193 ) ;
#38 = COLOUR_RGB ( '',1.000000000000000000, 0.000000000000000000, 0.000000000000000000 ) ;
#39 = FACE_OUTER_BOUND ( 'NONE', #77, .T. ) ;
#40 = DIRECTION ( 'NONE',  ( 0.000000000000000000, -0.000000000000000000, 1.000000000000000000 ) ) ;
#41 = PRESENTATION_STYLE_ASSIGNMENT (( #258 ) ) ;
#42 = PRESENTATION_LAYER_ASSIGNMENT (  '', '', ( #89 ) ) ;
#43 =( GEOMETRIC_REPRESENTATION_CONTEXT ( 3 ) GLOBAL_UNCERTAINTY_ASSIGNED_CONTEXT ( ( #25 ) ) GLOBAL_UNIT_ASSIGNED_CONTEXT ( ( #206, #225, #129 ) ) REPRESENTATION_CONTEXT ( 'NONE', 'WORKASPACE' ) );
#44 = EDGE_CURVE ( 'NONE', #117, #156, #121, .T. ) ;
#45 =( NAMED_UNIT ( * ) PLANE_ANGLE_UNIT ( ) SI_UNIT ( $, .RADIAN. ) );
#46 = PLANE ( 'NONE',  #103 ) ;
#47 =( LENGTH_UNIT ( ) NAMED_UNIT ( * ) SI_UNIT ( $, .METRE. ) );
#48 = APPLICATION_CONTEXT ( 'automotive_design' ) ;
#49 = EDGE_LOOP ( 'NONE', ( #268, #217 ) ) ;
#50 = COLOUR_RGB ( '',0.7921568627450980005, 0.8196078431372548767, 0.9333333333333333481 ) ;
#51 = CARTESIAN_POINT ( 'NONE',  ( 0.1562500000000000000, 2.125000000000000000, 1.913510623667740388E-17 ) ) ;
#52 = DIRECTION ( 'NONE',  ( -0.000000000000000000, -1.000000000000000000, -0.000000000000000000 ) ) ;
#53 = ORIENTED_EDGE ( 'NONE', *, *, #246, .T. ) ;
#54 = VERTEX_POINT ( 'NONE', #51 ) ;
#55 = DIRECTION ( 'NONE',  ( -1.000000000000000000, 0.000000000000000000, 0.000000000000000000 ) ) ;
#56 = MECHANICAL_DESIGN_GEOMETRIC_PRESENTATION_REPRESENTATION (  '', ( #65 ), #159 ) ;
#57 = MECHANICAL_DESIGN_GEOMETRIC_PRESENTATION_REPRESENTATION (  '', ( #134 ), #179 ) ;
#58 = LENGTH_MEASURE_WITH_UNIT ( LENGTH_MEASURE( 0.02539999999999999897 ), #47 );
#59 = FACE_OUTER_BOUND ( 'NONE', #266, .T. ) ;
#60 = COLOUR_RGB ( '',1.000000000000000000, 0.000000000000000000, 0.000000000000000000 ) ;
#61 = ADVANCED_FACE ( 'NONE', ( #220 ), #27, .T. ) ;
#62 = LENGTH_MEASURE_WITH_UNIT ( LENGTH_MEASURE( 0.02539999999999999897 ), #16 );
#63 = CARTESIAN_POINT ( 'NONE',  ( -1.224646799147352714E-16, 4.000000000000000000, 0.000000000000000000 ) ) ;
#64 = DIRECTION ( 'NONE',  ( -0.000000000000000000, -1.000000000000000000, -0.000000000000000000 ) ) ;
#65 = STYLED_ITEM ( 'NONE', ( #213 ), #61 ) ;
#66 = DIRECTION ( 'NONE',  ( 0.000000000000000000, 0.000000000000000000, -1.000000000000000000 ) ) ;
#67 = ORIENTED_EDGE ( 'NONE', *, *, #79, .F. ) ;
#68 =( LENGTH_UNIT ( ) NAMED_UNIT ( * ) SI_UNIT ( $, .METRE. ) );
#69 = CARTESIAN_POINT ( 'NONE',  ( 0.000000000000000000, 2.125000000000000000, 0.000000000000000000 ) ) ;
#70 = CLOSED_SHELL ( 'NONE', ( #178, #61, #208, #127 ) ) ;
#71 =( CONVERSION_BASED_UNIT ( 'INCH', #235 ) LENGTH_UNIT ( ) NAMED_UNIT ( #199 ) );
#72 = ORIENTED_EDGE ( 'NONE', *, *, #284, .T. ) ;
#73 = MECHANICAL_DESIGN_GEOMETRIC_PRESENTATION_REPRESENTATION (  '', ( #210 ), #24 ) ;
#74 =( LENGTH_UNIT ( ) NAMED_UNIT ( * ) SI_UNIT ( $, .METRE. ) );
#75 = VECTOR ( 'NONE', #234, 39.37007874015748143 ) ;
#76 =( NAMED_UNIT ( * ) SI_UNIT ( $, .STERADIAN. ) SOLID_ANGLE_UNIT ( ) );
#77 = EDGE_LOOP ( 'NONE', ( #256, #244, #291, #189 ) ) ;
#78 = EDGE_LOOP ( 'NONE', ( #30, #187 ) ) ;
#79 = EDGE_CURVE ( 'NONE', #181, #156, #192, .T. ) ;
#80 =( LENGTH_UNIT ( ) NAMED_UNIT ( * ) SI_UNIT ( $, .METRE. ) );
#81 = STYLED_ITEM ( 'NONE', ( #41 ), #208 ) ;
#82 = CARTESIAN_POINT ( 'NONE',  ( 0.000000000000000000, 2.125000000000000000, 0.000000000000000000 ) ) ;
#83 = DIMENSIONAL_EXPONENTS ( 1.000000000000000000, 0.000000000000000000, 0.000000000000000000, 0.000000000000000000, 0.000000000000000000, 0.000000000000000000, 0.000000000000000000 ) ;
#84 = APPLICATION_CONTEXT ( 'automotive_design' ) ;
#85 = SURFACE_STYLE_FILL_AREA ( #131 ) ;
#86 = CIRCLE ( 'NONE', #211, 0.1562500000000000000 ) ;
#87 = DIRECTION ( 'NONE',  ( 0.000000000000000000, 0.000000000000000000, -1.000000000000000000 ) ) ;
#88 = MANIFOLD_SOLID_BREP ( 'Revolve - Tool Body (Straight Shanked)', #278 ) ;
#89 = STYLED_ITEM ( 'NONE', ( #265 ), #88 ) ;
#90 = ORIENTED_EDGE ( 'NONE', *, *, #44, .F. ) ;
#91 = DIRECTION ( 'NONE',  ( 1.000000000000000000, 0.000000000000000000, 0.000000000000000000 ) ) ;
#92 = ORIENTED_EDGE ( 'NONE', *, *, #226, .T. ) ;
#93 = LINE ( 'NONE', #216, #75 ) ;
#94 = ORIENTED_EDGE ( 'NONE', *, *, #172, .T. ) ;
#95 = PRESENTATION_LAYER_ASSIGNMENT (  '', '', ( #81 ) ) ;
#96 = DIRECTION ( 'NONE',  ( -6.531449595452546658E-17, 1.000000000000000000, -0.000000000000000000 ) ) ;
#97 =( NAMED_UNIT ( * ) SI_UNIT ( $, .STERADIAN. ) SOLID_ANGLE_UNIT ( ) );
#98 = SURFACE_STYLE_FILL_AREA ( #23 ) ;
#99 = AXIS2_PLACEMENT_3D ( 'NONE', #105, #64, #66 ) ;
#100 = PRODUCT ( '01300', '01300', '', ( #144 ) ) ;
#101 = ADVANCED_BREP_SHAPE_REPRESENTATION ( '01300', ( #186, #88, #154 ), #238 ) ;
#102 = AXIS2_PLACEMENT_3D ( 'NONE', #240, #269, #55 ) ;
#103 = AXIS2_PLACEMENT_3D ( 'NONE', #242, #285, #118 ) ;
#104 = FILL_AREA_STYLE_COLOUR ( '', #228 ) ;
#105 = CARTESIAN_POINT ( 'NONE',  ( 0.000000000000000000, 2.125000000000000000, 0.000000000000000000 ) ) ;
#106 = CARTESIAN_POINT ( 'NONE',  ( -0.1562500000000000000, 2.125000000000000000, 0.000000000000000000 ) ) ;
#107 = UNCERTAINTY_MEASURE_WITH_UNIT (LENGTH_MEASURE( 1.000000000000000082E-05 ), #274, 'distance_accuracy_value', 'NONE');
#108 = LENGTH_MEASURE_WITH_UNIT ( LENGTH_MEASURE( 0.02539999999999999897 ), #68 );
#109 =( NAMED_UNIT ( * ) PLANE_ANGLE_UNIT ( ) SI_UNIT ( $, .RADIAN. ) );
#110 = CARTESIAN_POINT ( 'NONE',  ( 0.000000000000000000, 0.000000000000000000, 0.000000000000000000 ) ) ;
#111 = CARTESIAN_POINT ( 'NONE',  ( 0.000000000000000000, 0.000000000000000000, 0.000000000000000000 ) ) ;
#112 = AXIS2_PLACEMENT_3D ( 'NONE', #82, #219, #191 ) ;
#113 = SURFACE_STYLE_USAGE ( .BOTH. , #262 ) ;
#114 = DIRECTION ( 'NONE',  ( -0.000000000000000000, -1.000000000000000000, -0.000000000000000000 ) ) ;
#115 = CYLINDRICAL_SURFACE ( 'NONE', #102, 0.1562500000000000833 ) ;
#116 = DIRECTION ( 'NONE',  ( 0.000000000000000000, 0.000000000000000000, 1.000000000000000000 ) ) ;
#117 = VERTEX_POINT ( 'NONE', #106 ) ;
#118 = DIRECTION ( 'NONE',  ( -1.000000000000000000, -6.531449595452546658E-17, 0.000000000000000000 ) ) ;
#119 = ORIENTED_EDGE ( 'NONE', *, *, #236, .F. ) ;
#120 = SURFACE_SIDE_STYLE ('',( #151 ) ) ;
#121 = LINE ( 'NONE', #3, #245 ) ;
#122 =( CONVERSION_BASED_UNIT ( 'INCH', #58 ) LENGTH_UNIT ( ) NAMED_UNIT ( #202 ) );
#123 = PRESENTATION_LAYER_ASSIGNMENT (  '', '', ( #65 ) ) ;
#124 = SURFACE_STYLE_USAGE ( .BOTH. , #120 ) ;
#125 = CARTESIAN_POINT ( 'NONE',  ( 0.000000000000000000, 2.125000000000000000, -0.1562500000000000000 ) ) ;
#126 = FACE_OUTER_BOUND ( 'NONE', #78, .T. ) ;
#127 = ADVANCED_FACE ( 'NONE', ( #188 ), #37, .T. ) ;
#128 = VECTOR ( 'NONE', #114, 39.37007874015748143 ) ;
#129 =( NAMED_UNIT ( * ) SI_UNIT ( $, .STERADIAN. ) SOLID_ANGLE_UNIT ( ) );
#130 = FILL_AREA_STYLE ('',( #300 ) ) ;
#131 = FILL_AREA_STYLE ('',( #283 ) ) ;
#132 = DIRECTION ( 'NONE',  ( -1.000000000000000000, 0.000000000000000000, 0.000000000000000000 ) ) ;
#133 = SURFACE_STYLE_FILL_AREA ( #152 ) ;
#134 = STYLED_ITEM ( 'NONE', ( #229 ), #186 ) ;
#135 = DIRECTION ( 'NONE',  ( -6.531449595452546658E-17, 1.000000000000000000, -0.000000000000000000 ) ) ;
#136 = CARTESIAN_POINT ( 'NONE',  ( 0.000000000000000000, 0.000000000000000000, -0.1562500000000000000 ) ) ;
#137 = VERTEX_POINT ( 'NONE', #125 ) ;
#138 = DIRECTION ( 'NONE',  ( 0.000000000000000000, 0.000000000000000000, -1.000000000000000000 ) ) ;
#139 = COLOUR_RGB ( '',1.000000000000000000, 0.000000000000000000, 0.000000000000000000 ) ;
#140 = ORIENTED_EDGE ( 'NONE', *, *, #297, .T. ) ;
#141 = FACE_OUTER_BOUND ( 'NONE', #49, .T. ) ;
#142 = ORIENTED_EDGE ( 'NONE', *, *, #223, .F. ) ;
#143 = DIRECTION ( 'NONE',  ( -0.000000000000000000, -1.000000000000000000, -0.000000000000000000 ) ) ;
#144 = PRODUCT_CONTEXT ( 'NONE', #48, 'mechanical' ) ;
#145 = CARTESIAN_POINT ( 'NONE',  ( 1.913510623667739463E-17, 0.000000000000000000, 0.1562500000000000000 ) ) ;
#146 =( GEOMETRIC_REPRESENTATION_CONTEXT ( 3 ) GLOBAL_UNCERTAINTY_ASSIGNED_CONTEXT ( ( #180 ) ) GLOBAL_UNIT_ASSIGNED_CONTEXT ( ( #207, #302, #155 ) ) REPRESENTATION_CONTEXT ( 'NONE', 'WORKASPACE' ) );
#147 =( CONVERSION_BASED_UNIT ( 'INCH', #148 ) LENGTH_UNIT ( ) NAMED_UNIT ( #252 ) );
#148 = LENGTH_MEASURE_WITH_UNIT ( LENGTH_MEASURE( 0.02539999999999999897 ), #198 );
#149 = PRODUCT_DEFINITION_FORMATION_WITH_SPECIFIED_SOURCE ( 'ANY', '', #100, .NOT_KNOWN. ) ;
#150 = DIRECTION ( 'NONE',  ( 0.000000000000000000, -1.000000000000000000, -0.000000000000000000 ) ) ;
#151 = SURFACE_STYLE_FILL_AREA ( #272 ) ;
#152 = FILL_AREA_STYLE ('',( #104 ) ) ;
#153 = CYLINDRICAL_SURFACE ( 'NONE', #305, 0.1562500000000000000 ) ;
#154 = AXIS2_PLACEMENT_3D ( 'NONE', #239, #116, #91 ) ;
#155 =( NAMED_UNIT ( * ) SI_UNIT ( $, .STERADIAN. ) SOLID_ANGLE_UNIT ( ) );
#156 = VERTEX_POINT ( 'NONE', #295 ) ;
#157 = DIRECTION ( 'NONE',  ( 0.000000000000000000, 0.000000000000000000, -1.000000000000000000 ) ) ;
#158 = ORIENTED_EDGE ( 'NONE', *, *, #246, .F. ) ;
#159 =( GEOMETRIC_REPRESENTATION_CONTEXT ( 3 ) GLOBAL_UNCERTAINTY_ASSIGNED_CONTEXT ( ( #107 ) ) GLOBAL_UNIT_ASSIGNED_CONTEXT ( ( #274, #109, #18 ) ) REPRESENTATION_CONTEXT ( 'NONE', 'WORKASPACE' ) );
#160 = AXIS2_PLACEMENT_3D ( 'NONE', #28, #182, #267 ) ;
#161 = ADVANCED_FACE ( 'NONE', ( #36 ), #271, .T. ) ;
#162 = ORIENTED_EDGE ( 'NONE', *, *, #281, .F. ) ;
#163 = APPLICATION_PROTOCOL_DEFINITION ( 'draft international standard', 'automotive_design', 1998, #48 ) ;
#164 = FACE_OUTER_BOUND ( 'NONE', #6, .T. ) ;
#165 = CYLINDRICAL_SURFACE ( 'NONE', #273, 0.1562500000000000000 ) ;
#166 =( GEOMETRIC_REPRESENTATION_CONTEXT ( 3 ) GLOBAL_UNCERTAINTY_ASSIGNED_CONTEXT ( ( #241 ) ) GLOBAL_UNIT_ASSIGNED_CONTEXT ( ( #122, #196, #97 ) ) REPRESENTATION_CONTEXT ( 'NONE', 'WORKASPACE' ) );
#167 = CIRCLE ( 'NONE', #250, 0.1562500000000000000 ) ;
#168 = MECHANICAL_DESIGN_GEOMETRIC_PRESENTATION_REPRESENTATION (  '', ( #81 ), #146 ) ;
#169 = DIMENSIONAL_EXPONENTS ( 1.000000000000000000, 0.000000000000000000, 0.000000000000000000, 0.000000000000000000, 0.000000000000000000, 0.000000000000000000, 0.000000000000000000 ) ;
#170 =( NAMED_UNIT ( * ) SI_UNIT ( $, .STERADIAN. ) SOLID_ANGLE_UNIT ( ) );
#171 = DIMENSIONAL_EXPONENTS ( 1.000000000000000000, 0.000000000000000000, 0.000000000000000000, 0.000000000000000000, 0.000000000000000000, 0.000000000000000000, 0.000000000000000000 ) ;
#172 = EDGE_CURVE ( 'NONE', #54, #117, #249, .T. ) ;
#173 = DIRECTION ( 'NONE',  ( -0.000000000000000000, -1.000000000000000000, -0.000000000000000000 ) ) ;
#174 = AXIS2_PLACEMENT_3D ( 'NONE', #224, #251, #290 ) ;
#175 =( CONVERSION_BASED_UNIT ( 'INCH', #62 ) LENGTH_UNIT ( ) NAMED_UNIT ( #83 ) );
#176 = SURFACE_STYLE_FILL_AREA ( #130 ) ;
#177 = PLANE ( 'NONE',  #195 ) ;
#178 = ADVANCED_FACE ( 'NONE', ( #59 ), #165, .T. ) ;
#179 =( GEOMETRIC_REPRESENTATION_CONTEXT ( 3 ) GLOBAL_UNCERTAINTY_ASSIGNED_CONTEXT ( ( #306 ) ) GLOBAL_UNIT_ASSIGNED_CONTEXT ( ( #175, #17, #170 ) ) REPRESENTATION_CONTEXT ( 'NONE', 'WORKASPACE' ) );
#180 = UNCERTAINTY_MEASURE_WITH_UNIT (LENGTH_MEASURE( 1.000000000000000082E-05 ), #207, 'distance_accuracy_value', 'NONE');
#181 = VERTEX_POINT ( 'NONE', #277 ) ;
#182 = DIRECTION ( 'NONE',  ( -0.000000000000000000, -1.000000000000000000, -0.000000000000000000 ) ) ;
#183 = EDGE_CURVE ( 'NONE', #288, #137, #296, .T. ) ;
#184 = FILL_AREA_STYLE_COLOUR ( '', #139 ) ;
#185 = SURFACE_STYLE_USAGE ( .BOTH. , #203 ) ;
#186 = MANIFOLD_SOLID_BREP ( 'Revolve - Cutting Edge', #70 ) ;
#187 = ORIENTED_EDGE ( 'NONE', *, *, #79, .T. ) ;
#188 = FACE_OUTER_BOUND ( 'NONE', #287, .T. ) ;
#189 = ORIENTED_EDGE ( 'NONE', *, *, #284, .F. ) ;
#190 = PRODUCT_RELATED_PRODUCT_CATEGORY ( 'part', '', ( #100 ) ) ;
#191 = DIRECTION ( 'NONE',  ( -1.000000000000000000, 0.000000000000000000, 0.000000000000000000 ) ) ;
#192 = CIRCLE ( 'NONE', #227, 0.1562500000000001388 ) ;
#193 = AXIS2_PLACEMENT_3D ( 'NONE', #248, #150, #14 ) ;
#194 = LENGTH_MEASURE_WITH_UNIT ( LENGTH_MEASURE( 0.02539999999999999897 ), #74 );
#195 = AXIS2_PLACEMENT_3D ( 'NONE', #20, #257, #204 ) ;
#196 =( NAMED_UNIT ( * ) PLANE_ANGLE_UNIT ( ) SI_UNIT ( $, .RADIAN. ) );
#197 = FILL_AREA_STYLE ('',( #10 ) ) ;
#198 =( LENGTH_UNIT ( ) NAMED_UNIT ( * ) SI_UNIT ( $, .METRE. ) );
#199 = DIMENSIONAL_EXPONENTS ( 1.000000000000000000, 0.000000000000000000, 0.000000000000000000, 0.000000000000000000, 0.000000000000000000, 0.000000000000000000, 0.000000000000000000 ) ;
#200 = SURFACE_STYLE_USAGE ( .BOTH. , #253 ) ;
#201 = ADVANCED_FACE ( 'NONE', ( #126 ), #177, .F. ) ;
#202 = DIMENSIONAL_EXPONENTS ( 1.000000000000000000, 0.000000000000000000, 0.000000000000000000, 0.000000000000000000, 0.000000000000000000, 0.000000000000000000, 0.000000000000000000 ) ;
#203 = SURFACE_SIDE_STYLE ('',( #176 ) ) ;
#204 = DIRECTION ( 'NONE',  ( 1.000000000000000000, 6.531449595452546658E-17, 0.000000000000000000 ) ) ;
#205 = CIRCLE ( 'NONE', #160, 0.1562500000000000000 ) ;
#206 =( CONVERSION_BASED_UNIT ( 'INCH', #298 ) LENGTH_UNIT ( ) NAMED_UNIT ( #230 ) );
#207 =( CONVERSION_BASED_UNIT ( 'INCH', #108 ) LENGTH_UNIT ( ) NAMED_UNIT ( #169 ) );
#208 = ADVANCED_FACE ( 'NONE', ( #39 ), #153, .T. ) ;
#209 = DIRECTION ( 'NONE',  ( -0.000000000000000000, -1.000000000000000000, -0.000000000000000000 ) ) ;
#210 = STYLED_ITEM ( 'NONE', ( #275 ), #127 ) ;
#211 = AXIS2_PLACEMENT_3D ( 'NONE', #2, #26, #307 ) ;
#212 = CARTESIAN_POINT ( 'NONE',  ( 0.000000000000000000, 0.000000000000000000, -0.1562500000000000000 ) ) ;
#213 = PRESENTATION_STYLE_ASSIGNMENT (( #113 ) ) ;
#214 = LINE ( 'NONE', #136, #128 ) ;
#215 = ORIENTED_EDGE ( 'NONE', *, *, #281, .T. ) ;
#216 = CARTESIAN_POINT ( 'NONE',  ( 1.913510623667739463E-17, 0.000000000000000000, 0.1562500000000000000 ) ) ;
#217 = ORIENTED_EDGE ( 'NONE', *, *, #172, .F. ) ;
#218 = APPLICATION_PROTOCOL_DEFINITION ( 'draft international standard', 'automotive_design', 1998, #84 ) ;
#219 = DIRECTION ( 'NONE',  ( -6.531449595452546658E-17, 1.000000000000000000, -0.000000000000000000 ) ) ;
#220 = FACE_OUTER_BOUND ( 'NONE', #8, .T. ) ;
#221 =( NAMED_UNIT ( * ) SI_UNIT ( $, .STERADIAN. ) SOLID_ANGLE_UNIT ( ) );
#222 = AXIS2_PLACEMENT_3D ( 'NONE', #29, #96, #243 ) ;
#223 = EDGE_CURVE ( 'NONE', #156, #181, #299, .T. ) ;
#224 = CARTESIAN_POINT ( 'NONE',  ( -1.224646799147352714E-16, 4.000000000000000000, 0.000000000000000000 ) ) ;
#225 =( NAMED_UNIT ( * ) PLANE_ANGLE_UNIT ( ) SI_UNIT ( $, .RADIAN. ) );
#226 = EDGE_CURVE ( 'NONE', #117, #54, #86, .T. ) ;
#227 = AXIS2_PLACEMENT_3D ( 'NONE', #63, #303, #132 ) ;
#228 = COLOUR_RGB ( '',0.7921568627450980005, 0.8196078431372548767, 0.9333333333333333481 ) ;
#229 = PRESENTATION_STYLE_ASSIGNMENT (( #200 ) ) ;
#230 = DIMENSIONAL_EXPONENTS ( 1.000000000000000000, 0.000000000000000000, 0.000000000000000000, 0.000000000000000000, 0.000000000000000000, 0.000000000000000000, 0.000000000000000000 ) ;
#231 = UNCERTAINTY_MEASURE_WITH_UNIT (LENGTH_MEASURE( 1.000000000000000082E-05 ), #147, 'distance_accuracy_value', 'NONE');
#232 = MECHANICAL_DESIGN_GEOMETRIC_PRESENTATION_REPRESENTATION (  '', ( #293 ), #43 ) ;
#233 = ADVANCED_FACE ( 'NONE', ( #141 ), #46, .F. ) ;
#234 = DIRECTION ( 'NONE',  ( -0.000000000000000000, -1.000000000000000000, -0.000000000000000000 ) ) ;
#235 = LENGTH_MEASURE_WITH_UNIT ( LENGTH_MEASURE( 0.02539999999999999897 ), #260 );
#236 = EDGE_CURVE ( 'NONE', #137, #237, #214, .T. ) ;
#237 = VERTEX_POINT ( 'NONE', #212 ) ;
#238 =( GEOMETRIC_REPRESENTATION_CONTEXT ( 3 ) GLOBAL_UNCERTAINTY_ASSIGNED_CONTEXT ( ( #282 ) ) GLOBAL_UNIT_ASSIGNED_CONTEXT ( ( #71, #45, #76 ) ) REPRESENTATION_CONTEXT ( 'NONE', 'WORKASPACE' ) );
#239 = CARTESIAN_POINT ( 'NONE',  ( 0.000000000000000000, 0.000000000000000000, 0.000000000000000000 ) ) ;
#240 = CARTESIAN_POINT ( 'NONE',  ( -1.224646799147352714E-16, 4.000000000000000000, 0.000000000000000000 ) ) ;
#241 = UNCERTAINTY_MEASURE_WITH_UNIT (LENGTH_MEASURE( 1.000000000000000082E-05 ), #122, 'distance_accuracy_value', 'NONE');
#242 = CARTESIAN_POINT ( 'NONE',  ( 3.332799517026346248E-34, 2.125000000000000000, 0.000000000000000000 ) ) ;
#243 = DIRECTION ( 'NONE',  ( -1.000000000000000000, 0.000000000000000000, 0.000000000000000000 ) ) ;
#244 = ORIENTED_EDGE ( 'NONE', *, *, #183, .T. ) ;
#245 = VECTOR ( 'NONE', #263, 39.37007874015748143 ) ;
#246 = EDGE_CURVE ( 'NONE', #54, #181, #261, .T. ) ;
#247 = SURFACE_SIDE_STYLE ('',( #294 ) ) ;
#248 = CARTESIAN_POINT ( 'NONE',  ( 0.000000000000000000, 0.000000000000000000, 0.000000000000000000 ) ) ;
#249 = CIRCLE ( 'NONE', #112, 0.1562500000000000000 ) ;
#250 = AXIS2_PLACEMENT_3D ( 'NONE', #110, #209, #5 ) ;
#251 = DIRECTION ( 'NONE',  ( -6.531449595452546658E-17, 1.000000000000000000, -0.000000000000000000 ) ) ;
#252 = DIMENSIONAL_EXPONENTS ( 1.000000000000000000, 0.000000000000000000, 0.000000000000000000, 0.000000000000000000, 0.000000000000000000, 0.000000000000000000, 0.000000000000000000 ) ;
#253 = SURFACE_SIDE_STYLE ('',( #133 ) ) ;
#254 = EDGE_CURVE ( 'NONE', #288, #32, #93, .T. ) ;
#255 = PRESENTATION_LAYER_ASSIGNMENT (  '', '', ( #210 ) ) ;
#256 = ORIENTED_EDGE ( 'NONE', *, *, #254, .F. ) ;
#257 = DIRECTION ( 'NONE',  ( 6.531449595452546658E-17, -1.000000000000000000, 0.000000000000000000 ) ) ;
#258 = SURFACE_STYLE_USAGE ( .BOTH. , #280 ) ;
#259 = VECTOR ( 'NONE', #135, 39.37007874015748143 ) ;
#260 =( LENGTH_UNIT ( ) NAMED_UNIT ( * ) SI_UNIT ( $, .METRE. ) );
#261 = LINE ( 'NONE', #21, #259 ) ;
#262 = SURFACE_SIDE_STYLE ('',( #98 ) ) ;
#263 = DIRECTION ( 'NONE',  ( -6.531449595452546658E-17, 1.000000000000000000, -0.000000000000000000 ) ) ;
#264 = MECHANICAL_DESIGN_GEOMETRIC_PRESENTATION_REPRESENTATION (  '', ( #89 ), #166 ) ;
#265 = PRESENTATION_STYLE_ASSIGNMENT (( #185 ) ) ;
#266 = EDGE_LOOP ( 'NONE', ( #215, #289, #308, #119 ) ) ;
#267 = DIRECTION ( 'NONE',  ( 0.000000000000000000, 0.000000000000000000, -1.000000000000000000 ) ) ;
#268 = ORIENTED_EDGE ( 'NONE', *, *, #226, .F. ) ;
#269 = DIRECTION ( 'NONE',  ( -6.531449595452546658E-17, 1.000000000000000000, -0.000000000000000000 ) ) ;
#270 = FILL_AREA_STYLE_COLOUR ( '', #38 ) ;
#271 = CYLINDRICAL_SURFACE ( 'NONE', #174, 0.1562500000000000833 ) ;
#272 = FILL_AREA_STYLE ('',( #270 ) ) ;
#273 = AXIS2_PLACEMENT_3D ( 'NONE', #15, #173, #87 ) ;
#274 =( CONVERSION_BASED_UNIT ( 'INCH', #194 ) LENGTH_UNIT ( ) NAMED_UNIT ( #171 ) );
#275 = PRESENTATION_STYLE_ASSIGNMENT (( #124 ) ) ;
#276 = DIRECTION ( 'NONE',  ( 0.000000000000000000, 1.000000000000000000, 0.000000000000000000 ) ) ;
#277 = CARTESIAN_POINT ( 'NONE',  ( 0.1562500000000000000, 4.000000000000000000, 1.913510623667740388E-17 ) ) ;
#278 = CLOSED_SHELL ( 'NONE', ( #9, #233, #161, #201 ) ) ;
#279 = PRESENTATION_LAYER_ASSIGNMENT (  '', '', ( #134 ) ) ;
#280 = SURFACE_SIDE_STYLE ('',( #85 ) ) ;
#281 = EDGE_CURVE ( 'NONE', #137, #288, #205, .T. ) ;
#282 = UNCERTAINTY_MEASURE_WITH_UNIT (LENGTH_MEASURE( 1.000000000000000082E-05 ), #71, 'distance_accuracy_value', 'NONE');
#283 = FILL_AREA_STYLE_COLOUR ( '', #4 ) ;
#284 = EDGE_CURVE ( 'NONE', #32, #237, #31, .T. ) ;
#285 = DIRECTION ( 'NONE',  ( -6.531449595452546658E-17, 1.000000000000000000, 0.000000000000000000 ) ) ;
#286 = CARTESIAN_POINT ( 'NONE',  ( 1.913510623667739463E-17, 2.125000000000000000, 0.1562500000000000000 ) ) ;
#287 = EDGE_LOOP ( 'NONE', ( #140, #72 ) ) ;
#288 = VERTEX_POINT ( 'NONE', #286 ) ;
#289 = ORIENTED_EDGE ( 'NONE', *, *, #254, .T. ) ;
#290 = DIRECTION ( 'NONE',  ( -1.000000000000000000, 0.000000000000000000, 0.000000000000000000 ) ) ;
#291 = ORIENTED_EDGE ( 'NONE', *, *, #236, .T. ) ;
#292 = SURFACE_STYLE_USAGE ( .BOTH. , #247 ) ;
#293 = STYLED_ITEM ( 'NONE', ( #33 ), #178 ) ;
#294 = SURFACE_STYLE_FILL_AREA ( #197 ) ;
#295 = CARTESIAN_POINT ( 'NONE',  ( -0.1562500000000002776, 4.000000000000000000, 0.000000000000000000 ) ) ;
#296 = CIRCLE ( 'NONE', #99, 0.1562500000000000000 ) ;
#297 = EDGE_CURVE ( 'NONE', #237, #32, #167, .T. ) ;
#298 = LENGTH_MEASURE_WITH_UNIT ( LENGTH_MEASURE( 0.02539999999999999897 ), #80 );
#299 = CIRCLE ( 'NONE', #222, 0.1562500000000001388 ) ;
#300 = FILL_AREA_STYLE_COLOUR ( '', #50 ) ;
#301 = PRODUCT_DEFINITION_CONTEXT ( 'detailed design', #84, 'design' ) ;
#302 =( NAMED_UNIT ( * ) PLANE_ANGLE_UNIT ( ) SI_UNIT ( $, .RADIAN. ) );
#303 = DIRECTION ( 'NONE',  ( -6.531449595452546658E-17, 1.000000000000000000, -0.000000000000000000 ) ) ;
#304 = ORIENTED_EDGE ( 'NONE', *, *, #44, .T. ) ;
#305 = AXIS2_PLACEMENT_3D ( 'NONE', #111, #52, #157 ) ;
#306 = UNCERTAINTY_MEASURE_WITH_UNIT (LENGTH_MEASURE( 1.000000000000000082E-05 ), #175, 'distance_accuracy_value', 'NONE');
#307 = DIRECTION ( 'NONE',  ( -1.000000000000000000, 0.000000000000000000, 0.000000000000000000 ) ) ;
#308 = ORIENTED_EDGE ( 'NONE', *, *, #297, .F. ) ;
#309 = CARTESIAN_POINT ( 'NONE',  ( 0.000000000000000000, 0.000000000000000000, 0.000000000000000000 ) ) ;
ENDSEC;
END-ISO-10303-21;
