ISO-10303-21;
HEADER;
FILE_DESCRIPTION (( 'STEP AP214' ),
    '1' );
FILE_NAME ('00600.STEP',
    '2023-06-22T14:12:05',
    ( '' ),
    ( '' ),
    'SwSTEP 2.0',
    'SolidWorks 2023',
    '' );
FILE_SCHEMA (( 'AUTOMOTIVE_DESIGN' ));
ENDSEC;

DATA;
#1 = CARTESIAN_POINT ( 'NONE',  ( 0.3125000000000000000, 2.500000000000000000, 3.827021247335479543E-17 ) ) ;
#2 = DIRECTION ( 'NONE',  ( -4.898587196589413075E-17, 1.000000000000000000, -0.000000000000000000 ) ) ;
#3 = VECTOR ( 'NONE', #154, 39.37007874015748143 ) ;
#4 = DIRECTION ( 'NONE',  ( 1.000000000000000000, 0.000000000000000000, 0.000000000000000000 ) ) ;
#5 = VERTEX_POINT ( 'NONE', #238 ) ;
#6 = APPLICATION_PROTOCOL_DEFINITION ( 'draft international standard', 'automotive_design', 1998, #103 ) ;
#7 = PRESENTATION_STYLE_ASSIGNMENT (( #196 ) ) ;
#8 = AXIS2_PLACEMENT_3D ( 'NONE', #216, #2, #99 ) ;
#9 =( GEOMETRIC_REPRESENTATION_CONTEXT ( 3 ) GLOBAL_UNCERTAINTY_ASSIGNED_CONTEXT ( ( #37 ) ) GLOBAL_UNIT_ASSIGNED_CONTEXT ( ( #117, #45, #163 ) ) REPRESENTATION_CONTEXT ( 'NONE', 'WORKASPACE' ) );
#10 = EDGE_CURVE ( 'NONE', #240, #300, #282, .T. ) ;
#11 = CARTESIAN_POINT ( 'NONE',  ( -1.224646799147353207E-16, 5.000000000000000000, 0.000000000000000000 ) ) ;
#12 = AXIS2_PLACEMENT_3D ( 'NONE', #213, #69, #265 ) ;
#13 = CARTESIAN_POINT ( 'NONE',  ( 0.3124999999999999445, 5.000000000000000000, 3.827021247335479543E-17 ) ) ;
#14 = ORIENTED_EDGE ( 'NONE', *, *, #277, .F. ) ;
#15 =( CONVERSION_BASED_UNIT ( 'INCH', #113 ) LENGTH_UNIT ( ) NAMED_UNIT ( #34 ) );
#16 = CARTESIAN_POINT ( 'NONE',  ( -1.224646799147353207E-16, 5.000000000000000000, 0.000000000000000000 ) ) ;
#17 = CYLINDRICAL_SURFACE ( 'NONE', #193, 0.3125000000000000555 ) ;
#18 = COLOUR_RGB ( '',0.7921568627450980005, 0.8196078431372548767, 0.9333333333333333481 ) ;
#19 =( NAMED_UNIT ( * ) SI_UNIT ( $, .STERADIAN. ) SOLID_ANGLE_UNIT ( ) );
#20 = SURFACE_STYLE_FILL_AREA ( #242 ) ;
#21 = PRESENTATION_LAYER_ASSIGNMENT (  '', '', ( #306 ) ) ;
#22 = LENGTH_MEASURE_WITH_UNIT ( LENGTH_MEASURE( 0.02539999999999999897 ), #289 );
#23 =( LENGTH_UNIT ( ) NAMED_UNIT ( * ) SI_UNIT ( $, .METRE. ) );
#24 = EDGE_CURVE ( 'NONE', #300, #240, #157, .T. ) ;
#25 = PRODUCT ( '00600', '00600', '', ( #198 ) ) ;
#26 = UNCERTAINTY_MEASURE_WITH_UNIT (LENGTH_MEASURE( 1.000000000000000082E-05 ), #264, 'distance_accuracy_value', 'NONE');
#27 = CARTESIAN_POINT ( 'NONE',  ( 0.000000000000000000, 2.500000000000000000, -0.3125000000000000000 ) ) ;
#28 = SURFACE_SIDE_STYLE ('',( #20 ) ) ;
#29 = STYLED_ITEM ( 'NONE', ( #78 ), #114 ) ;
#30 = DIMENSIONAL_EXPONENTS ( 1.000000000000000000, 0.000000000000000000, 0.000000000000000000, 0.000000000000000000, 0.000000000000000000, 0.000000000000000000, 0.000000000000000000 ) ;
#31 = CARTESIAN_POINT ( 'NONE',  ( -0.3125000000000002220, 5.000000000000000000, 0.000000000000000000 ) ) ;
#32 = ADVANCED_FACE ( 'NONE', ( #95 ), #190, .T. ) ;
#33 = CARTESIAN_POINT ( 'NONE',  ( -1.224646799147353207E-16, 5.000000000000000000, 0.000000000000000000 ) ) ;
#34 = DIMENSIONAL_EXPONENTS ( 1.000000000000000000, 0.000000000000000000, 0.000000000000000000, 0.000000000000000000, 0.000000000000000000, 0.000000000000000000, 0.000000000000000000 ) ;
#35 = UNCERTAINTY_MEASURE_WITH_UNIT (LENGTH_MEASURE( 1.000000000000000082E-05 ), #46, 'distance_accuracy_value', 'NONE');
#36 = AXIS2_PLACEMENT_3D ( 'NONE', #215, #258, #118 ) ;
#37 = UNCERTAINTY_MEASURE_WITH_UNIT (LENGTH_MEASURE( 1.000000000000000082E-05 ), #117, 'distance_accuracy_value', 'NONE');
#38 = STYLED_ITEM ( 'NONE', ( #125 ), #111 ) ;
#39 = AXIS2_PLACEMENT_3D ( 'NONE', #152, #245, #4 ) ;
#40 = DIRECTION ( 'NONE',  ( -1.000000000000000000, 0.000000000000000000, 0.000000000000000000 ) ) ;
#41 = CARTESIAN_POINT ( 'NONE',  ( -1.224646799147353207E-16, 5.000000000000000000, 0.000000000000000000 ) ) ;
#42 = ORIENTED_EDGE ( 'NONE', *, *, #109, .F. ) ;
#43 = LENGTH_MEASURE_WITH_UNIT ( LENGTH_MEASURE( 0.02539999999999999897 ), #65 );
#44 = VERTEX_POINT ( 'NONE', #27 ) ;
#45 =( NAMED_UNIT ( * ) PLANE_ANGLE_UNIT ( ) SI_UNIT ( $, .RADIAN. ) );
#46 =( CONVERSION_BASED_UNIT ( 'INCH', #22 ) LENGTH_UNIT ( ) NAMED_UNIT ( #214 ) );
#47 = CARTESIAN_POINT ( 'NONE',  ( 3.827021247335478926E-17, 0.000000000000000000, 0.3125000000000000000 ) ) ;
#48 = STYLED_ITEM ( 'NONE', ( #7 ), #75 ) ;
#49 = AXIS2_PLACEMENT_3D ( 'NONE', #235, #186, #239 ) ;
#50 = ORIENTED_EDGE ( 'NONE', *, *, #24, .T. ) ;
#51 = DIRECTION ( 'NONE',  ( -0.000000000000000000, -1.000000000000000000, -0.000000000000000000 ) ) ;
#52 = ORIENTED_EDGE ( 'NONE', *, *, #135, .T. ) ;
#53 =( NAMED_UNIT ( * ) PLANE_ANGLE_UNIT ( ) SI_UNIT ( $, .RADIAN. ) );
#54 = DIRECTION ( 'NONE',  ( 0.000000000000000000, -0.000000000000000000, 1.000000000000000000 ) ) ;
#55 = SURFACE_STYLE_USAGE ( .BOTH. , #224 ) ;
#56 = PRODUCT_RELATED_PRODUCT_CATEGORY ( 'part', '', ( #25 ) ) ;
#57 = AXIS2_PLACEMENT_3D ( 'NONE', #263, #115, #236 ) ;
#58 = CARTESIAN_POINT ( 'NONE',  ( 0.000000000000000000, 0.000000000000000000, -0.3125000000000000000 ) ) ;
#59 = FACE_OUTER_BOUND ( 'NONE', #85, .T. ) ;
#60 = ORIENTED_EDGE ( 'NONE', *, *, #287, .T. ) ;
#61 = CLOSED_SHELL ( 'NONE', ( #165, #243, #182, #273 ) ) ;
#62 =( GEOMETRIC_REPRESENTATION_CONTEXT ( 3 ) GLOBAL_UNCERTAINTY_ASSIGNED_CONTEXT ( ( #26 ) ) GLOBAL_UNIT_ASSIGNED_CONTEXT ( ( #264, #145, #19 ) ) REPRESENTATION_CONTEXT ( 'NONE', 'WORKASPACE' ) );
#63 = DIRECTION ( 'NONE',  ( -1.000000000000000000, -4.898587196589412459E-17, 0.000000000000000000 ) ) ;
#64 = VERTEX_POINT ( 'NONE', #121 ) ;
#65 =( LENGTH_UNIT ( ) NAMED_UNIT ( * ) SI_UNIT ( $, .METRE. ) );
#66 = ORIENTED_EDGE ( 'NONE', *, *, #139, .F. ) ;
#67 = VECTOR ( 'NONE', #140, 39.37007874015748143 ) ;
#68 = SURFACE_SIDE_STYLE ('',( #260 ) ) ;
#69 = DIRECTION ( 'NONE',  ( -0.000000000000000000, -1.000000000000000000, -0.000000000000000000 ) ) ;
#70 = EDGE_CURVE ( 'NONE', #257, #102, #275, .T. ) ;
#71 = DIRECTION ( 'NONE',  ( 0.000000000000000000, 1.000000000000000000, 0.000000000000000000 ) ) ;
#72 =( GEOMETRIC_REPRESENTATION_CONTEXT ( 3 ) GLOBAL_UNCERTAINTY_ASSIGNED_CONTEXT ( ( #35 ) ) GLOBAL_UNIT_ASSIGNED_CONTEXT ( ( #46, #123, #172 ) ) REPRESENTATION_CONTEXT ( 'NONE', 'WORKASPACE' ) );
#73 = MECHANICAL_DESIGN_GEOMETRIC_PRESENTATION_REPRESENTATION (  '', ( #217 ), #256 ) ;
#74 =( NAMED_UNIT ( * ) SI_UNIT ( $, .STERADIAN. ) SOLID_ANGLE_UNIT ( ) );
#75 = ADVANCED_FACE ( 'NONE', ( #194 ), #291, .T. ) ;
#76 =( CONVERSION_BASED_UNIT ( 'INCH', #124 ) LENGTH_UNIT ( ) NAMED_UNIT ( #247 ) );
#77 = SURFACE_SIDE_STYLE ('',( #246 ) ) ;
#78 = PRESENTATION_STYLE_ASSIGNMENT (( #298 ) ) ;
#79 =( NAMED_UNIT ( * ) SI_UNIT ( $, .STERADIAN. ) SOLID_ANGLE_UNIT ( ) );
#80 = ORIENTED_EDGE ( 'NONE', *, *, #220, .T. ) ;
#81 = CYLINDRICAL_SURFACE ( 'NONE', #177, 0.3125000000000000555 ) ;
#82 = MECHANICAL_DESIGN_GEOMETRIC_PRESENTATION_REPRESENTATION (  '', ( #48 ), #89 ) ;
#83 = AXIS2_PLACEMENT_3D ( 'NONE', #285, #288, #189 ) ;
#84 =( CONVERSION_BASED_UNIT ( 'INCH', #255 ) LENGTH_UNIT ( ) NAMED_UNIT ( #295 ) );
#85 = EDGE_LOOP ( 'NONE', ( #166, #60, #279, #131 ) ) ;
#86 = CARTESIAN_POINT ( 'NONE',  ( 1.516480271171051896E-32, 2.500000000000000000, 0.000000000000000000 ) ) ;
#87 = PRESENTATION_STYLE_ASSIGNMENT (( #237 ) ) ;
#88 = ORIENTED_EDGE ( 'NONE', *, *, #10, .T. ) ;
#89 =( GEOMETRIC_REPRESENTATION_CONTEXT ( 3 ) GLOBAL_UNCERTAINTY_ASSIGNED_CONTEXT ( ( #274 ) ) GLOBAL_UNIT_ASSIGNED_CONTEXT ( ( #76, #53, #249 ) ) REPRESENTATION_CONTEXT ( 'NONE', 'WORKASPACE' ) );
#90 = LINE ( 'NONE', #290, #207 ) ;
#91 = EDGE_LOOP ( 'NONE', ( #259, #309, #168, #266 ) ) ;
#92 = FACE_OUTER_BOUND ( 'NONE', #183, .T. ) ;
#93 = ORIENTED_EDGE ( 'NONE', *, *, #100, .T. ) ;
#94 = PLANE ( 'NONE',  #49 ) ;
#95 = FACE_OUTER_BOUND ( 'NONE', #284, .T. ) ;
#96 = DIMENSIONAL_EXPONENTS ( 1.000000000000000000, 0.000000000000000000, 0.000000000000000000, 0.000000000000000000, 0.000000000000000000, 0.000000000000000000, 0.000000000000000000 ) ;
#97 = FACE_OUTER_BOUND ( 'NONE', #188, .T. ) ;
#98 =( GEOMETRIC_REPRESENTATION_CONTEXT ( 3 ) GLOBAL_UNCERTAINTY_ASSIGNED_CONTEXT ( ( #270 ) ) GLOBAL_UNIT_ASSIGNED_CONTEXT ( ( #15, #228, #79 ) ) REPRESENTATION_CONTEXT ( 'NONE', 'WORKASPACE' ) );
#99 = DIRECTION ( 'NONE',  ( -1.000000000000000000, 0.000000000000000000, 0.000000000000000000 ) ) ;
#100 = EDGE_CURVE ( 'NONE', #64, #5, #105, .T. ) ;
#101 = APPLICATION_PROTOCOL_DEFINITION ( 'draft international standard', 'automotive_design', 1998, #234 ) ;
#102 = VERTEX_POINT ( 'NONE', #126 ) ;
#103 = APPLICATION_CONTEXT ( 'automotive_design' ) ;
#104 =( LENGTH_UNIT ( ) NAMED_UNIT ( * ) SI_UNIT ( $, .METRE. ) );
#105 = CIRCLE ( 'NONE', #244, 0.3125000000000001665 ) ;
#106 = CARTESIAN_POINT ( 'NONE',  ( 0.000000000000000000, 2.500000000000000000, 0.000000000000000000 ) ) ;
#107 = FILL_AREA_STYLE_COLOUR ( '', #18 ) ;
#108 = MECHANICAL_DESIGN_GEOMETRIC_PRESENTATION_REPRESENTATION (  '', ( #29 ), #98 ) ;
#109 = EDGE_CURVE ( 'NONE', #102, #64, #225, .T. ) ;
#110 = CARTESIAN_POINT ( 'NONE',  ( 0.000000000000000000, 2.500000000000000000, 0.000000000000000000 ) ) ;
#111 = MANIFOLD_SOLID_BREP ( 'Revolve - Tool Body (Straight Shanked)', #61 ) ;
#112 = PRODUCT_DEFINITION ( 'UNKNOWN', '', #170, #134 ) ;
#113 = LENGTH_MEASURE_WITH_UNIT ( LENGTH_MEASURE( 0.02539999999999999897 ), #178 );
#114 = MANIFOLD_SOLID_BREP ( 'Revolve - Cutting Edge', #192 ) ;
#115 = DIRECTION ( 'NONE',  ( -0.000000000000000000, -1.000000000000000000, -0.000000000000000000 ) ) ;
#116 = CIRCLE ( 'NONE', #149, 0.3125000000000000000 ) ;
#117 =( CONVERSION_BASED_UNIT ( 'INCH', #185 ) LENGTH_UNIT ( ) NAMED_UNIT ( #144 ) );
#118 = DIRECTION ( 'NONE',  ( 0.000000000000000000, 0.000000000000000000, -1.000000000000000000 ) ) ;
#119 = ORIENTED_EDGE ( 'NONE', *, *, #174, .T. ) ;
#120 = FILL_AREA_STYLE ('',( #167 ) ) ;
#121 = CARTESIAN_POINT ( 'NONE',  ( -0.3125000000000002776, 5.000000000000000000, 0.000000000000000000 ) ) ;
#122 = PRESENTATION_LAYER_ASSIGNMENT (  '', '', ( #29 ) ) ;
#123 =( NAMED_UNIT ( * ) PLANE_ANGLE_UNIT ( ) SI_UNIT ( $, .RADIAN. ) );
#124 = LENGTH_MEASURE_WITH_UNIT ( LENGTH_MEASURE( 0.02539999999999999897 ), #175 );
#125 = PRESENTATION_STYLE_ASSIGNMENT (( #55 ) ) ;
#126 = CARTESIAN_POINT ( 'NONE',  ( -0.3125000000000000000, 2.500000000000000000, 0.000000000000000000 ) ) ;
#127 = UNCERTAINTY_MEASURE_WITH_UNIT (LENGTH_MEASURE( 1.000000000000000082E-05 ), #221, 'distance_accuracy_value', 'NONE');
#128 = DIRECTION ( 'NONE',  ( -4.898587196589413075E-17, 1.000000000000000000, -0.000000000000000000 ) ) ;
#129 = LINE ( 'NONE', #13, #67 ) ;
#130 = COLOUR_RGB ( '',1.000000000000000000, 0.000000000000000000, 0.000000000000000000 ) ;
#131 = ORIENTED_EDGE ( 'NONE', *, *, #220, .F. ) ;
#132 = COLOUR_RGB ( '',1.000000000000000000, 0.000000000000000000, 0.000000000000000000 ) ;
#133 = CYLINDRICAL_SURFACE ( 'NONE', #307, 0.3125000000000000000 ) ;
#134 = PRODUCT_DEFINITION_CONTEXT ( 'detailed design', #234, 'design' ) ;
#135 = EDGE_CURVE ( 'NONE', #5, #64, #142, .T. ) ;
#136 = DIRECTION ( 'NONE',  ( -4.898587196589413075E-17, 1.000000000000000000, -0.000000000000000000 ) ) ;
#137 = DIRECTION ( 'NONE',  ( -4.898587196589413075E-17, 1.000000000000000000, -0.000000000000000000 ) ) ;
#138 = ORIENTED_EDGE ( 'NONE', *, *, #10, .F. ) ;
#139 = EDGE_CURVE ( 'NONE', #44, #227, #283, .T. ) ;
#140 = DIRECTION ( 'NONE',  ( -4.898587196589412459E-17, 1.000000000000000000, -0.000000000000000000 ) ) ;
#141 = EDGE_LOOP ( 'NONE', ( #66, #14 ) ) ;
#142 = CIRCLE ( 'NONE', #297, 0.3125000000000001665 ) ;
#143 = ORIENTED_EDGE ( 'NONE', *, *, #100, .F. ) ;
#144 = DIMENSIONAL_EXPONENTS ( 1.000000000000000000, 0.000000000000000000, 0.000000000000000000, 0.000000000000000000, 0.000000000000000000, 0.000000000000000000, 0.000000000000000000 ) ;
#145 =( NAMED_UNIT ( * ) PLANE_ANGLE_UNIT ( ) SI_UNIT ( $, .RADIAN. ) );
#146 = CARTESIAN_POINT ( 'NONE',  ( 0.000000000000000000, 0.000000000000000000, 0.000000000000000000 ) ) ;
#147 = CARTESIAN_POINT ( 'NONE',  ( 0.000000000000000000, 0.000000000000000000, -0.3125000000000000000 ) ) ;
#148 = ORIENTED_EDGE ( 'NONE', *, *, #287, .F. ) ;
#149 = AXIS2_PLACEMENT_3D ( 'NONE', #86, #136, #230 ) ;
#150 = FILL_AREA_STYLE ('',( #200 ) ) ;
#151 = FILL_AREA_STYLE_COLOUR ( '', #158 ) ;
#152 = CARTESIAN_POINT ( 'NONE',  ( 0.000000000000000000, 0.000000000000000000, 0.000000000000000000 ) ) ;
#153 = SURFACE_SIDE_STYLE ('',( #176 ) ) ;
#154 = DIRECTION ( 'NONE',  ( -0.000000000000000000, -1.000000000000000000, -0.000000000000000000 ) ) ;
#155 = UNCERTAINTY_MEASURE_WITH_UNIT (LENGTH_MEASURE( 1.000000000000000082E-05 ), #84, 'distance_accuracy_value', 'NONE');
#156 = SURFACE_SIDE_STYLE ('',( #160 ) ) ;
#157 = CIRCLE ( 'NONE', #12, 0.3125000000000000000 ) ;
#158 = COLOUR_RGB ( '',0.7921568627450980005, 0.8196078431372548767, 0.9333333333333333481 ) ;
#159 = ADVANCED_FACE ( 'NONE', ( #59 ), #133, .T. ) ;
#160 = SURFACE_STYLE_FILL_AREA ( #302 ) ;
#161 = PRESENTATION_STYLE_ASSIGNMENT (( #203 ) ) ;
#162 =( GEOMETRIC_REPRESENTATION_CONTEXT ( 3 ) GLOBAL_UNCERTAINTY_ASSIGNED_CONTEXT ( ( #127 ) ) GLOBAL_UNIT_ASSIGNED_CONTEXT ( ( #221, #294, #74 ) ) REPRESENTATION_CONTEXT ( 'NONE', 'WORKASPACE' ) );
#163 =( NAMED_UNIT ( * ) SI_UNIT ( $, .STERADIAN. ) SOLID_ANGLE_UNIT ( ) );
#164 = ORIENTED_EDGE ( 'NONE', *, *, #277, .T. ) ;
#165 = ADVANCED_FACE ( 'NONE', ( #229 ), #81, .T. ) ;
#166 = ORIENTED_EDGE ( 'NONE', *, *, #139, .T. ) ;
#167 = FILL_AREA_STYLE_COLOUR ( '', #226 ) ;
#168 = ORIENTED_EDGE ( 'NONE', *, *, #109, .T. ) ;
#169 = VECTOR ( 'NONE', #296, 39.37007874015748143 ) ;
#170 = PRODUCT_DEFINITION_FORMATION_WITH_SPECIFIED_SOURCE ( 'ANY', '', #25, .NOT_KNOWN. ) ;
#171 = CARTESIAN_POINT ( 'NONE',  ( 3.749399456654644447E-34, 2.500000000000000000, 0.000000000000000000 ) ) ;
#172 =( NAMED_UNIT ( * ) SI_UNIT ( $, .STERADIAN. ) SOLID_ANGLE_UNIT ( ) );
#173 = ORIENTED_EDGE ( 'NONE', *, *, #70, .F. ) ;
#174 = EDGE_CURVE ( 'NONE', #102, #257, #116, .T. ) ;
#175 =( LENGTH_UNIT ( ) NAMED_UNIT ( * ) SI_UNIT ( $, .METRE. ) );
#176 = SURFACE_STYLE_FILL_AREA ( #202 ) ;
#177 = AXIS2_PLACEMENT_3D ( 'NONE', #16, #254, #40 ) ;
#178 =( LENGTH_UNIT ( ) NAMED_UNIT ( * ) SI_UNIT ( $, .METRE. ) );
#179 = COLOUR_RGB ( '',1.000000000000000000, 0.000000000000000000, 0.000000000000000000 ) ;
#180 =( NAMED_UNIT ( * ) SI_UNIT ( $, .STERADIAN. ) SOLID_ANGLE_UNIT ( ) );
#181 = FACE_OUTER_BOUND ( 'NONE', #91, .T. ) ;
#182 = ADVANCED_FACE ( 'NONE', ( #181 ), #17, .T. ) ;
#183 = EDGE_LOOP ( 'NONE', ( #93, #52 ) ) ;
#184 = MECHANICAL_DESIGN_GEOMETRIC_PRESENTATION_REPRESENTATION (  '', ( #38 ), #162 ) ;
#185 = LENGTH_MEASURE_WITH_UNIT ( LENGTH_MEASURE( 0.02539999999999999897 ), #23 );
#186 = DIRECTION ( 'NONE',  ( 4.898587196589412459E-17, -1.000000000000000000, 0.000000000000000000 ) ) ;
#187 = ADVANCED_BREP_SHAPE_REPRESENTATION ( '00600', ( #114, #111, #39 ), #62 ) ;
#188 = EDGE_LOOP ( 'NONE', ( #148, #164, #80, #138 ) ) ;
#189 = DIRECTION ( 'NONE',  ( 0.000000000000000000, 0.000000000000000000, -1.000000000000000000 ) ) ;
#190 = PLANE ( 'NONE',  #197 ) ;
#191 = MECHANICAL_DESIGN_GEOMETRIC_PRESENTATION_REPRESENTATION (  '', ( #306 ), #72 ) ;
#192 = CLOSED_SHELL ( 'NONE', ( #159, #75, #268, #32 ) ) ;
#193 = AXIS2_PLACEMENT_3D ( 'NONE', #41, #137, #233 ) ;
#194 = FACE_OUTER_BOUND ( 'NONE', #141, .T. ) ;
#195 = PRESENTATION_STYLE_ASSIGNMENT (( #219 ) ) ;
#196 = SURFACE_STYLE_USAGE ( .BOTH. , #77 ) ;
#197 = AXIS2_PLACEMENT_3D ( 'NONE', #146, #241, #286 ) ;
#198 = PRODUCT_CONTEXT ( 'NONE', #103, 'mechanical' ) ;
#199 = AXIS2_PLACEMENT_3D ( 'NONE', #171, #308, #63 ) ;
#200 = FILL_AREA_STYLE_COLOUR ( '', #179 ) ;
#201 = DIRECTION ( 'NONE',  ( -1.000000000000000000, 0.000000000000000000, 0.000000000000000000 ) ) ;
#202 = FILL_AREA_STYLE ('',( #107 ) ) ;
#203 = SURFACE_STYLE_USAGE ( .BOTH. , #156 ) ;
#204 = ORIENTED_EDGE ( 'NONE', *, *, #174, .F. ) ;
#205 =( NAMED_UNIT ( * ) PLANE_ANGLE_UNIT ( ) SI_UNIT ( $, .RADIAN. ) );
#206 = DIRECTION ( 'NONE',  ( -1.000000000000000000, 0.000000000000000000, 0.000000000000000000 ) ) ;
#207 = VECTOR ( 'NONE', #51, 39.37007874015748143 ) ;
#208 =( LENGTH_UNIT ( ) NAMED_UNIT ( * ) SI_UNIT ( $, .METRE. ) );
#209 = DIRECTION ( 'NONE',  ( -0.000000000000000000, -1.000000000000000000, -0.000000000000000000 ) ) ;
#210 = EDGE_LOOP ( 'NONE', ( #204, #173 ) ) ;
#211 = PRESENTATION_LAYER_ASSIGNMENT (  '', '', ( #38 ) ) ;
#212 = CYLINDRICAL_SURFACE ( 'NONE', #36, 0.3125000000000000000 ) ;
#213 = CARTESIAN_POINT ( 'NONE',  ( 0.000000000000000000, 0.000000000000000000, 0.000000000000000000 ) ) ;
#214 = DIMENSIONAL_EXPONENTS ( 1.000000000000000000, 0.000000000000000000, 0.000000000000000000, 0.000000000000000000, 0.000000000000000000, 0.000000000000000000, 0.000000000000000000 ) ;
#215 = CARTESIAN_POINT ( 'NONE',  ( 0.000000000000000000, 0.000000000000000000, 0.000000000000000000 ) ) ;
#216 = CARTESIAN_POINT ( 'NONE',  ( 1.516480271171051896E-32, 2.500000000000000000, 0.000000000000000000 ) ) ;
#217 = STYLED_ITEM ( 'NONE', ( #161 ), #159 ) ;
#218 = FACE_OUTER_BOUND ( 'NONE', #210, .T. ) ;
#219 = SURFACE_STYLE_USAGE ( .BOTH. , #28 ) ;
#220 = EDGE_CURVE ( 'NONE', #44, #300, #272, .T. ) ;
#221 =( CONVERSION_BASED_UNIT ( 'INCH', #252 ) LENGTH_UNIT ( ) NAMED_UNIT ( #96 ) );
#222 = PRESENTATION_LAYER_ASSIGNMENT (  '', '', ( #48 ) ) ;
#223 = CIRCLE ( 'NONE', #83, 0.3125000000000000000 ) ;
#224 = SURFACE_SIDE_STYLE ('',( #293 ) ) ;
#225 = LINE ( 'NONE', #31, #169 ) ;
#226 = COLOUR_RGB ( '',1.000000000000000000, 0.000000000000000000, 0.000000000000000000 ) ;
#227 = VERTEX_POINT ( 'NONE', #253 ) ;
#228 =( NAMED_UNIT ( * ) PLANE_ANGLE_UNIT ( ) SI_UNIT ( $, .RADIAN. ) );
#229 = FACE_OUTER_BOUND ( 'NONE', #304, .T. ) ;
#230 = DIRECTION ( 'NONE',  ( -1.000000000000000000, 0.000000000000000000, 0.000000000000000000 ) ) ;
#231 = STYLED_ITEM ( 'NONE', ( #87 ), #268 ) ;
#232 = EDGE_CURVE ( 'NONE', #257, #5, #129, .T. ) ;
#233 = DIRECTION ( 'NONE',  ( -1.000000000000000000, 0.000000000000000000, 0.000000000000000000 ) ) ;
#234 = APPLICATION_CONTEXT ( 'automotive_design' ) ;
#235 = CARTESIAN_POINT ( 'NONE',  ( 0.3125000000000000000, 5.000000000000000000, 0.000000000000000000 ) ) ;
#236 = DIRECTION ( 'NONE',  ( 0.000000000000000000, 0.000000000000000000, -1.000000000000000000 ) ) ;
#237 = SURFACE_STYLE_USAGE ( .BOTH. , #68 ) ;
#238 = CARTESIAN_POINT ( 'NONE',  ( 0.3125000000000000000, 5.000000000000000000, 3.827021247335479543E-17 ) ) ;
#239 = DIRECTION ( 'NONE',  ( 1.000000000000000000, 4.898587196589412459E-17, 0.000000000000000000 ) ) ;
#240 = VERTEX_POINT ( 'NONE', #47 ) ;
#241 = DIRECTION ( 'NONE',  ( 0.000000000000000000, -1.000000000000000000, -0.000000000000000000 ) ) ;
#242 = FILL_AREA_STYLE ('',( #261 ) ) ;
#243 = ADVANCED_FACE ( 'NONE', ( #218 ), #262, .F. ) ;
#244 = AXIS2_PLACEMENT_3D ( 'NONE', #33, #250, #201 ) ;
#245 = DIRECTION ( 'NONE',  ( 0.000000000000000000, 0.000000000000000000, 1.000000000000000000 ) ) ;
#246 = SURFACE_STYLE_FILL_AREA ( #150 ) ;
#247 = DIMENSIONAL_EXPONENTS ( 1.000000000000000000, 0.000000000000000000, 0.000000000000000000, 0.000000000000000000, 0.000000000000000000, 0.000000000000000000, 0.000000000000000000 ) ;
#248 = PRODUCT_DEFINITION_SHAPE ( 'NONE', 'NONE',  #112 ) ;
#249 =( NAMED_UNIT ( * ) SI_UNIT ( $, .STERADIAN. ) SOLID_ANGLE_UNIT ( ) );
#250 = DIRECTION ( 'NONE',  ( -4.898587196589413075E-17, 1.000000000000000000, -0.000000000000000000 ) ) ;
#251 = AXIS2_PLACEMENT_3D ( 'NONE', #110, #305, #278 ) ;
#252 = LENGTH_MEASURE_WITH_UNIT ( LENGTH_MEASURE( 0.02539999999999999897 ), #104 );
#253 = CARTESIAN_POINT ( 'NONE',  ( 3.827021247335478926E-17, 2.500000000000000000, 0.3125000000000000000 ) ) ;
#254 = DIRECTION ( 'NONE',  ( -4.898587196589413075E-17, 1.000000000000000000, -0.000000000000000000 ) ) ;
#255 = LENGTH_MEASURE_WITH_UNIT ( LENGTH_MEASURE( 0.02539999999999999897 ), #208 );
#256 =( GEOMETRIC_REPRESENTATION_CONTEXT ( 3 ) GLOBAL_UNCERTAINTY_ASSIGNED_CONTEXT ( ( #155 ) ) GLOBAL_UNIT_ASSIGNED_CONTEXT ( ( #84, #205, #180 ) ) REPRESENTATION_CONTEXT ( 'NONE', 'WORKASPACE' ) );
#257 = VERTEX_POINT ( 'NONE', #1 ) ;
#258 = DIRECTION ( 'NONE',  ( -0.000000000000000000, -1.000000000000000000, -0.000000000000000000 ) ) ;
#259 = ORIENTED_EDGE ( 'NONE', *, *, #232, .F. ) ;
#260 = SURFACE_STYLE_FILL_AREA ( #120 ) ;
#261 = FILL_AREA_STYLE_COLOUR ( '', #130 ) ;
#262 = PLANE ( 'NONE',  #199 ) ;
#263 = CARTESIAN_POINT ( 'NONE',  ( 0.000000000000000000, 0.000000000000000000, 0.000000000000000000 ) ) ;
#264 =( CONVERSION_BASED_UNIT ( 'INCH', #43 ) LENGTH_UNIT ( ) NAMED_UNIT ( #30 ) );
#265 = DIRECTION ( 'NONE',  ( 0.000000000000000000, 0.000000000000000000, -1.000000000000000000 ) ) ;
#266 = ORIENTED_EDGE ( 'NONE', *, *, #135, .F. ) ;
#267 = PRESENTATION_LAYER_ASSIGNMENT (  '', '', ( #231 ) ) ;
#268 = ADVANCED_FACE ( 'NONE', ( #97 ), #212, .T. ) ;
#269 = FILL_AREA_STYLE ('',( #151 ) ) ;
#270 = UNCERTAINTY_MEASURE_WITH_UNIT (LENGTH_MEASURE( 1.000000000000000082E-05 ), #15, 'distance_accuracy_value', 'NONE');
#271 = AXIS2_PLACEMENT_3D ( 'NONE', #106, #71, #54 ) ;
#272 = LINE ( 'NONE', #58, #3 ) ;
#273 = ADVANCED_FACE ( 'NONE', ( #92 ), #94, .F. ) ;
#274 = UNCERTAINTY_MEASURE_WITH_UNIT (LENGTH_MEASURE( 1.000000000000000082E-05 ), #76, 'distance_accuracy_value', 'NONE');
#275 = CIRCLE ( 'NONE', #8, 0.3125000000000000000 ) ;
#276 = PRESENTATION_LAYER_ASSIGNMENT (  '', '', ( #217 ) ) ;
#277 = EDGE_CURVE ( 'NONE', #227, #44, #223, .T. ) ;
#278 = DIRECTION ( 'NONE',  ( 0.000000000000000000, 0.000000000000000000, -1.000000000000000000 ) ) ;
#279 = ORIENTED_EDGE ( 'NONE', *, *, #24, .F. ) ;
#280 = FILL_AREA_STYLE_COLOUR ( '', #132 ) ;
#281 = ORIENTED_EDGE ( 'NONE', *, *, #232, .T. ) ;
#282 = CIRCLE ( 'NONE', #57, 0.3125000000000000000 ) ;
#283 = CIRCLE ( 'NONE', #251, 0.3125000000000000000 ) ;
#284 = EDGE_LOOP ( 'NONE', ( #50, #88 ) ) ;
#285 = CARTESIAN_POINT ( 'NONE',  ( 0.000000000000000000, 2.500000000000000000, 0.000000000000000000 ) ) ;
#286 = DIRECTION ( 'NONE',  ( 0.000000000000000000, 0.000000000000000000, -1.000000000000000000 ) ) ;
#287 = EDGE_CURVE ( 'NONE', #227, #240, #90, .T. ) ;
#288 = DIRECTION ( 'NONE',  ( -0.000000000000000000, -1.000000000000000000, -0.000000000000000000 ) ) ;
#289 =( LENGTH_UNIT ( ) NAMED_UNIT ( * ) SI_UNIT ( $, .METRE. ) );
#290 = CARTESIAN_POINT ( 'NONE',  ( 3.827021247335478926E-17, 0.000000000000000000, 0.3125000000000000000 ) ) ;
#291 = PLANE ( 'NONE',  #271 ) ;
#292 = SHAPE_DEFINITION_REPRESENTATION ( #248, #187 ) ;
#293 = SURFACE_STYLE_FILL_AREA ( #269 ) ;
#294 =( NAMED_UNIT ( * ) PLANE_ANGLE_UNIT ( ) SI_UNIT ( $, .RADIAN. ) );
#295 = DIMENSIONAL_EXPONENTS ( 1.000000000000000000, 0.000000000000000000, 0.000000000000000000, 0.000000000000000000, 0.000000000000000000, 0.000000000000000000, 0.000000000000000000 ) ;
#296 = DIRECTION ( 'NONE',  ( -4.898587196589412459E-17, 1.000000000000000000, -0.000000000000000000 ) ) ;
#297 = AXIS2_PLACEMENT_3D ( 'NONE', #11, #128, #206 ) ;
#298 = SURFACE_STYLE_USAGE ( .BOTH. , #153 ) ;
#299 = DIRECTION ( 'NONE',  ( 0.000000000000000000, 0.000000000000000000, -1.000000000000000000 ) ) ;
#300 = VERTEX_POINT ( 'NONE', #147 ) ;
#301 = CARTESIAN_POINT ( 'NONE',  ( 0.000000000000000000, 0.000000000000000000, 0.000000000000000000 ) ) ;
#302 = FILL_AREA_STYLE ('',( #280 ) ) ;
#303 = MECHANICAL_DESIGN_GEOMETRIC_PRESENTATION_REPRESENTATION (  '', ( #231 ), #9 ) ;
#304 = EDGE_LOOP ( 'NONE', ( #119, #281, #143, #42 ) ) ;
#305 = DIRECTION ( 'NONE',  ( -0.000000000000000000, -1.000000000000000000, -0.000000000000000000 ) ) ;
#306 = STYLED_ITEM ( 'NONE', ( #195 ), #32 ) ;
#307 = AXIS2_PLACEMENT_3D ( 'NONE', #301, #209, #299 ) ;
#308 = DIRECTION ( 'NONE',  ( -4.898587196589412459E-17, 1.000000000000000000, 0.000000000000000000 ) ) ;
#309 = ORIENTED_EDGE ( 'NONE', *, *, #70, .T. ) ;
ENDSEC;
END-ISO-10303-21;
