ISO-10303-21;
HEADER;
FILE_DESCRIPTION (( 'STEP AP214' ),
    '1' );
FILE_NAME ('Micro_SFAM-020020.STEP',
    '2021-09-02T04:07:51',
    ( '' ),
    ( '' ),
    'SwSTEP 2.0',
    'SolidWorks 2020',
    '' );
FILE_SCHEMA (( 'AUTOMOTIVE_DESIGN' ));
ENDSEC;

DATA;
#1 = SURFACE_STYLE_FILL_AREA ( #30 ) ;
#2 = CIRCLE ( 'NONE', #166, 0.1181100000000000066 ) ;
#3 = UNCERTAINTY_MEASURE_WITH_UNIT (LENGTH_MEASURE( 1.000000000000000082E-05 ), #124, 'distance_accuracy_value', 'NONE');
#4 = CARTESIAN_POINT ( 'NONE',  ( 0.1031100000000002570, 1.262733314600838667E-17, 2.244094000000000033 ) ) ;
#5 = EDGE_CURVE ( 'NONE', #14, #225, #212, .T. ) ;
#6 = AXIS2_PLACEMENT_3D ( 'NONE', #149, #239, #169 ) ;
#7 = ORIENTED_EDGE ( 'NONE', *, *, #287, .F. ) ;
#8 = DIRECTION ( 'NONE',  ( 1.000000000000000000, 0.0000000000000000000, 0.0000000000000000000 ) ) ;
#9 = CARTESIAN_POINT ( 'NONE',  ( -0.1031100000000002570, 0.0000000000000000000, 2.244094000000000033 ) ) ;
#10 = CARTESIAN_POINT ( 'NONE',  ( 0.03933063000000004000, 0.0000000000000000000, 0.2362200000000000688 ) ) ;
#11 = ORIENTED_EDGE ( 'NONE', *, *, #273, .T. ) ;
#12 = CARTESIAN_POINT ( 'NONE',  ( 0.0000000000000000000, 0.0000000000000000000, 2.229093999999999465 ) ) ;
#13 = ADVANCED_BREP_SHAPE_REPRESENTATION ( 'Micro_SFAM-020020', ( #267, #259 ), #274 ) ;
#14 = VERTEX_POINT ( 'NONE', #36 ) ;
#15 = SURFACE_SIDE_STYLE ('',( #96 ) ) ;
#16 = VECTOR ( 'NONE', #196, 39.37007874015748854 ) ;
#17 = ADVANCED_FACE ( 'NONE', ( #34 ), #242, .T. ) ;
#18 = DIRECTION ( 'NONE',  ( 0.0000000000000000000, 0.0000000000000000000, 1.000000000000000000 ) ) ;
#19 = FACE_OUTER_BOUND ( 'NONE', #142, .T. ) ;
#20 = APPLICATION_PROTOCOL_DEFINITION ( 'draft international standard', 'automotive_design', 1998, #165 ) ;
#21 = CARTESIAN_POINT ( 'NONE',  ( 0.0000000000000000000, 0.0000000000000000000, 0.0000000000000000000 ) ) ;
#22 = AXIS2_PLACEMENT_3D ( 'NONE', #160, #179, #67 ) ;
#23 = VERTEX_POINT ( 'NONE', #260 ) ;
#24 = LINE ( 'NONE', #102, #137 ) ;
#25 = ORIENTED_EDGE ( 'NONE', *, *, #5, .F. ) ;
#26 = DIRECTION ( 'NONE',  ( -0.7071067811865358044, 0.0000000000000000000, -0.7071067811865590080 ) ) ;
#27 = VERTEX_POINT ( 'NONE', #155 ) ;
#28 = VERTEX_POINT ( 'NONE', #9 ) ;
#29 = CIRCLE ( 'NONE', #148, 0.1031100000000002570 ) ;
#30 = FILL_AREA_STYLE ('',( #126 ) ) ;
#31 =( NAMED_UNIT ( * ) PLANE_ANGLE_UNIT ( ) SI_UNIT ( $, .RADIAN. ) );
#32 = ADVANCED_FACE ( 'NONE', ( #114 ), #44, .T. ) ;
#33 = AXIS2_PLACEMENT_3D ( 'NONE', #199, #270, #293 ) ;
#34 = FACE_OUTER_BOUND ( 'NONE', #251, .T. ) ;
#35 = EDGE_LOOP ( 'NONE', ( #191, #283, #261, #59 ) ) ;
#36 = CARTESIAN_POINT ( 'NONE',  ( 0.03933063000000004000, 0.0000000000000000000, 0.2362200000000000688 ) ) ;
#37 = ORIENTED_EDGE ( 'NONE', *, *, #253, .F. ) ;
#38 = CONICAL_SURFACE ( 'NONE', #188, 0.03933063000000001225, 0.1745329251994339192 ) ;
#39 = DIRECTION ( 'NONE',  ( -1.224646799147353207E-16, -0.0000000000000000000, -1.000000000000000000 ) ) ;
#40 = ORIENTED_EDGE ( 'NONE', *, *, #66, .T. ) ;
#41 = LINE ( 'NONE', #147, #205 ) ;
#42 = CARTESIAN_POINT ( 'NONE',  ( 2.892860668945878169E-17, 0.0000000000000000000, 0.2362200000000000688 ) ) ;
#43 = DIRECTION ( 'NONE',  ( -1.224646799147353207E-16, -0.0000000000000000000, -1.000000000000000000 ) ) ;
#44 = CONICAL_SURFACE ( 'NONE', #123, 0.03933063000000001225, 0.1745329251994339192 ) ;
#45 = EDGE_CURVE ( 'NONE', #23, #225, #240, .T. ) ;
#46 = DIRECTION ( 'NONE',  ( -1.000000000000000000, 0.0000000000000000000, 1.224646799147353207E-16 ) ) ;
#47 = ORIENTED_EDGE ( 'NONE', *, *, #109, .T. ) ;
#48 = EDGE_CURVE ( 'NONE', #238, #27, #158, .T. ) ;
#49 =( LENGTH_UNIT ( ) NAMED_UNIT ( * ) SI_UNIT ( $, .METRE. ) );
#50 = VECTOR ( 'NONE', #26, 39.37007874015748854 ) ;
#51 = ORIENTED_EDGE ( 'NONE', *, *, #89, .F. ) ;
#52 = DIRECTION ( 'NONE',  ( -1.224646799147353207E-16, -0.0000000000000000000, -1.000000000000000000 ) ) ;
#53 = DIRECTION ( 'NONE',  ( -0.1736481776669312194, 2.126576849575783625E-17, 0.9848077530122080203 ) ) ;
#54 = PRESENTATION_LAYER_ASSIGNMENT (  '', '', ( #106 ) ) ;
#55 =( NAMED_UNIT ( * ) SI_UNIT ( $, .STERADIAN. ) SOLID_ANGLE_UNIT ( ) );
#56 = ADVANCED_FACE ( 'NONE', ( #198 ), #57, .T. ) ;
#57 = CONICAL_SURFACE ( 'NONE', #226, 0.1031100000000002570, 0.7853981633974318477 ) ;
#58 = DIRECTION ( 'NONE',  ( 1.000000000000000000, 0.0000000000000000000, 0.0000000000000000000 ) ) ;
#59 = ORIENTED_EDGE ( 'NONE', *, *, #273, .F. ) ;
#60 = DIRECTION ( 'NONE',  ( -1.000000000000000000, 0.0000000000000000000, 0.0000000000000000000 ) ) ;
#61 = EDGE_CURVE ( 'NONE', #28, #119, #29, .T. ) ;
#62 = CARTESIAN_POINT ( 'NONE',  ( -0.03933062999999998449, 4.816613013794887743E-18, 0.2362200000000000688 ) ) ;
#63 = EDGE_CURVE ( 'NONE', #225, #23, #2, .T. ) ;
#64 = COLOUR_RGB ( '',0.7921568627450980005, 0.8196078431372548767, 0.9333333333333333481 ) ;
#65 = DIRECTION ( 'NONE',  ( -1.224646799147353207E-16, -0.0000000000000000000, -1.000000000000000000 ) ) ;
#66 = EDGE_CURVE ( 'NONE', #83, #72, #245, .T. ) ;
#67 = DIRECTION ( 'NONE',  ( -1.000000000000000000, 0.0000000000000000000, 0.0000000000000000000 ) ) ;
#68 = APPLICATION_CONTEXT ( 'automotive_design' ) ;
#69 = FILL_AREA_STYLE ('',( #243 ) ) ;
#70 = PRODUCT_RELATED_PRODUCT_CATEGORY ( 'part', '', ( #278 ) ) ;
#71 = CARTESIAN_POINT ( 'NONE',  ( 0.03933063000000000531, 4.816613013794886973E-18, -4.816613013794886973E-18 ) ) ;
#72 = VERTEX_POINT ( 'NONE', #237 ) ;
#73 = DIRECTION ( 'NONE',  ( 0.0000000000000000000, 0.0000000000000000000, 1.000000000000000000 ) ) ;
#74 = EDGE_CURVE ( 'NONE', #103, #238, #41, .T. ) ;
#75 = FACE_OUTER_BOUND ( 'NONE', #35, .T. ) ;
#76 = EDGE_LOOP ( 'NONE', ( #37, #213, #295, #153 ) ) ;
#77 = ORIENTED_EDGE ( 'NONE', *, *, #97, .F. ) ;
#78 = PRODUCT_DEFINITION_FORMATION_WITH_SPECIFIED_SOURCE ( 'ANY', '', #278, .NOT_KNOWN. ) ;
#79 = ADVANCED_FACE ( 'NONE', ( #265 ), #87, .T. ) ;
#80 = CARTESIAN_POINT ( 'NONE',  ( -0.1031100000000002570, 0.0000000000000000000, 2.244094000000000033 ) ) ;
#81 = CARTESIAN_POINT ( 'NONE',  ( 2.892860668945878169E-17, 0.0000000000000000000, 0.2362200000000000688 ) ) ;
#82 = AXIS2_PLACEMENT_3D ( 'NONE', #218, #18, #159 ) ;
#83 = VERTEX_POINT ( 'NONE', #192 ) ;
#84 = CARTESIAN_POINT ( 'NONE',  ( -0.03933062999999998449, 9.640458179262138138E-18, 0.2362200000000000688 ) ) ;
#85 = AXIS2_PLACEMENT_3D ( 'NONE', #115, #130, #128 ) ;
#86 = CARTESIAN_POINT ( 'NONE',  ( 0.0000000000000000000, 0.0000000000000000000, 2.244094000000000033 ) ) ;
#87 = CYLINDRICAL_SURFACE ( 'NONE', #266, 0.1181100000000000066 ) ;
#88 = DIRECTION ( 'NONE',  ( -1.000000000000000000, 0.0000000000000000000, 0.0000000000000000000 ) ) ;
#89 = EDGE_CURVE ( 'NONE', #119, #72, #214, .T. ) ;
#90 = CYLINDRICAL_SURFACE ( 'NONE', #93, 0.1181100000000000066 ) ;
#91 = CYLINDRICAL_SURFACE ( 'NONE', #215, 0.03933063000000000531 ) ;
#92 = ORIENTED_EDGE ( 'NONE', *, *, #61, .T. ) ;
#93 = AXIS2_PLACEMENT_3D ( 'NONE', #250, #156, #269 ) ;
#94 = COLOUR_RGB ( '',0.7921568627450980005, 0.8196078431372548767, 0.9333333333333333481 ) ;
#95 = ORIENTED_EDGE ( 'NONE', *, *, #109, .F. ) ;
#96 = SURFACE_STYLE_FILL_AREA ( #69 ) ;
#97 = EDGE_CURVE ( 'NONE', #72, #83, #219, .T. ) ;
#98 = ORIENTED_EDGE ( 'NONE', *, *, #45, .F. ) ;
#99 = DIRECTION ( 'NONE',  ( -0.0000000000000000000, -0.0000000000000000000, -1.000000000000000000 ) ) ;
#100 = AXIS2_PLACEMENT_3D ( 'NONE', #224, #52, #186 ) ;
#101 = EDGE_CURVE ( 'NONE', #103, #23, #264, .T. ) ;
#102 = CARTESIAN_POINT ( 'NONE',  ( 0.1181100000000000066, 1.446430334472939084E-17, 2.244094000000000033 ) ) ;
#103 = VERTEX_POINT ( 'NONE', #84 ) ;
#104 = DIMENSIONAL_EXPONENTS ( 1.000000000000000000, 0.0000000000000000000, 0.0000000000000000000, 0.0000000000000000000, 0.0000000000000000000, 0.0000000000000000000, 0.0000000000000000000 ) ;
#105 = EDGE_CURVE ( 'NONE', #14, #103, #154, .T. ) ;
#106 = STYLED_ITEM ( 'NONE', ( #292 ), #267 ) ;
#107 = ORIENTED_EDGE ( 'NONE', *, *, #287, .T. ) ;
#108 = DIRECTION ( 'NONE',  ( -0.0000000000000000000, -0.0000000000000000000, -1.000000000000000000 ) ) ;
#109 = EDGE_CURVE ( 'NONE', #103, #14, #220, .T. ) ;
#110 = ORIENTED_EDGE ( 'NONE', *, *, #206, .T. ) ;
#111 = DIRECTION ( 'NONE',  ( 1.224646799147353207E-16, 0.0000000000000000000, 1.000000000000000000 ) ) ;
#112 = AXIS2_PLACEMENT_3D ( 'NONE', #276, #193, #58 ) ;
#113 = EDGE_LOOP ( 'NONE', ( #95, #263, #184, #25 ) ) ;
#114 = FACE_OUTER_BOUND ( 'NONE', #113, .T. ) ;
#115 = CARTESIAN_POINT ( 'NONE',  ( 0.0000000000000000000, 0.0000000000000000000, 0.0000000000000000000 ) ) ;
#116 = DIRECTION ( 'NONE',  ( 1.000000000000000000, 0.0000000000000000000, 0.0000000000000000000 ) ) ;
#117 =( GEOMETRIC_REPRESENTATION_CONTEXT ( 3 ) GLOBAL_UNCERTAINTY_ASSIGNED_CONTEXT ( ( #230 ) ) GLOBAL_UNIT_ASSIGNED_CONTEXT ( ( #291, #164, #55 ) ) REPRESENTATION_CONTEXT ( 'NONE', 'WORKASPACE' ) );
#118 = DIRECTION ( 'NONE',  ( 0.0000000000000000000, 0.0000000000000000000, 1.000000000000000000 ) ) ;
#119 = VERTEX_POINT ( 'NONE', #246 ) ;
#120 = CARTESIAN_POINT ( 'NONE',  ( -0.03933063000000000531, 0.0000000000000000000, 9.633226027589773945E-18 ) ) ;
#121 = DIRECTION ( 'NONE',  ( -1.000000000000000000, 0.0000000000000000000, 0.0000000000000000000 ) ) ;
#122 = ORIENTED_EDGE ( 'NONE', *, *, #74, .F. ) ;
#123 = AXIS2_PLACEMENT_3D ( 'NONE', #81, #111, #176 ) ;
#124 =( CONVERSION_BASED_UNIT ( 'INCH', #207 ) LENGTH_UNIT ( ) NAMED_UNIT ( #254 ) );
#125 = ORIENTED_EDGE ( 'NONE', *, *, #5, .T. ) ;
#126 = FILL_AREA_STYLE_COLOUR ( '', #94 ) ;
#127 = ORIENTED_EDGE ( 'NONE', *, *, #63, .F. ) ;
#128 = DIRECTION ( 'NONE',  ( -1.000000000000000000, 0.0000000000000000000, 1.224646799147353207E-16 ) ) ;
#129 = ADVANCED_FACE ( 'NONE', ( #75 ), #91, .T. ) ;
#130 = DIRECTION ( 'NONE',  ( -1.224646799147353207E-16, -0.0000000000000000000, -1.000000000000000000 ) ) ;
#131 = DIRECTION ( 'NONE',  ( -1.224646799147353207E-16, -0.0000000000000000000, -1.000000000000000000 ) ) ;
#132 = AXIS2_PLACEMENT_3D ( 'NONE', #42, #268, #121 ) ;
#133 = EDGE_LOOP ( 'NONE', ( #51, #258, #271, #77 ) ) ;
#134 = CARTESIAN_POINT ( 'NONE',  ( 8.364337746458886977E-17, 0.0000000000000000000, 0.6830000088419342363 ) ) ;
#135 = PRODUCT_DEFINITION ( 'UNKNOWN', '', #78, #152 ) ;
#136 = CARTESIAN_POINT ( 'NONE',  ( 0.1181100000000000899, 1.446430334472940009E-17, 0.6830000088419342363 ) ) ;
#137 = VECTOR ( 'NONE', #99, 39.37007874015748143 ) ;
#138 = DIRECTION ( 'NONE',  ( 1.224646799147353207E-16, 0.0000000000000000000, 1.000000000000000000 ) ) ;
#139 = ORIENTED_EDGE ( 'NONE', *, *, #48, .F. ) ;
#140 = DIRECTION ( 'NONE',  ( 1.000000000000000000, 0.0000000000000000000, 0.0000000000000000000 ) ) ;
#141 = CARTESIAN_POINT ( 'NONE',  ( -0.1181100000000000066, 0.0000000000000000000, 2.244094000000000033 ) ) ;
#142 = EDGE_LOOP ( 'NONE', ( #285, #11 ) ) ;
#143 = MECHANICAL_DESIGN_GEOMETRIC_PRESENTATION_REPRESENTATION (  '', ( #106 ), #117 ) ;
#144 = SURFACE_SIDE_STYLE ('',( #1 ) ) ;
#145 = LINE ( 'NONE', #80, #50 ) ;
#146 =( LENGTH_UNIT ( ) NAMED_UNIT ( * ) SI_UNIT ( $, .METRE. ) );
#147 = CARTESIAN_POINT ( 'NONE',  ( -0.03933063000000000531, 0.0000000000000000000, 4.816613013794886973E-18 ) ) ;
#148 = AXIS2_PLACEMENT_3D ( 'NONE', #234, #172, #255 ) ;
#149 = CARTESIAN_POINT ( 'NONE',  ( 2.892860668945878169E-17, 0.0000000000000000000, 0.2362200000000000688 ) ) ;
#150 = ORIENTED_EDGE ( 'NONE', *, *, #167, .F. ) ;
#151 = DIRECTION ( 'NONE',  ( 0.1736481776669314137, 0.0000000000000000000, 0.9848077530122077983 ) ) ;
#152 = PRODUCT_DEFINITION_CONTEXT ( 'detailed design', #165, 'design' ) ;
#153 = ORIENTED_EDGE ( 'NONE', *, *, #298, .F. ) ;
#154 = CIRCLE ( 'NONE', #6, 0.03933063000000001225 ) ;
#155 = CARTESIAN_POINT ( 'NONE',  ( 0.03933063000000000531, 4.816613013794886973E-18, 0.0000000000000000000 ) ) ;
#156 = DIRECTION ( 'NONE',  ( -0.0000000000000000000, -0.0000000000000000000, -1.000000000000000000 ) ) ;
#157 = ADVANCED_FACE ( 'NONE', ( #222 ), #294, .T. ) ;
#158 = CIRCLE ( 'NONE', #208, 0.03933063000000000531 ) ;
#159 = DIRECTION ( 'NONE',  ( 1.000000000000000000, 0.0000000000000000000, 0.0000000000000000000 ) ) ;
#160 = CARTESIAN_POINT ( 'NONE',  ( 0.0000000000000000000, 0.0000000000000000000, 2.244094000000000033 ) ) ;
#161 = CIRCLE ( 'NONE', #100, 0.03933063000000000531 ) ;
#162 =( NAMED_UNIT ( * ) SI_UNIT ( $, .STERADIAN. ) SOLID_ANGLE_UNIT ( ) );
#163 = CARTESIAN_POINT ( 'NONE',  ( 0.0000000000000000000, 0.0000000000000000000, 2.244094000000000033 ) ) ;
#164 =( NAMED_UNIT ( * ) PLANE_ANGLE_UNIT ( ) SI_UNIT ( $, .RADIAN. ) );
#165 = APPLICATION_CONTEXT ( 'automotive_design' ) ;
#166 = AXIS2_PLACEMENT_3D ( 'NONE', #134, #65, #8 ) ;
#167 = EDGE_CURVE ( 'NONE', #83, #23, #248, .T. ) ;
#168 = ORIENTED_EDGE ( 'NONE', *, *, #253, .T. ) ;
#169 = DIRECTION ( 'NONE',  ( -1.000000000000000000, 0.0000000000000000000, 0.0000000000000000000 ) ) ;
#170 = VECTOR ( 'NONE', #289, 39.37007874015748143 ) ;
#171 = STYLED_ITEM ( 'NONE', ( #277 ), #13 ) ;
#172 = DIRECTION ( 'NONE',  ( 0.0000000000000000000, 0.0000000000000000000, 1.000000000000000000 ) ) ;
#173 = ORIENTED_EDGE ( 'NONE', *, *, #63, .T. ) ;
#174 = CARTESIAN_POINT ( 'NONE',  ( 0.0000000000000000000, 0.0000000000000000000, 2.229093999999999465 ) ) ;
#175 = EDGE_LOOP ( 'NONE', ( #92, #168 ) ) ;
#176 = DIRECTION ( 'NONE',  ( 1.000000000000000000, 0.0000000000000000000, 0.0000000000000000000 ) ) ;
#177 = PLANE ( 'NONE',  #281 ) ;
#178 = APPLICATION_PROTOCOL_DEFINITION ( 'draft international standard', 'automotive_design', 1998, #68 ) ;
#179 = DIRECTION ( 'NONE',  ( 0.0000000000000000000, 0.0000000000000000000, -1.000000000000000000 ) ) ;
#180 = CARTESIAN_POINT ( 'NONE',  ( 2.892860668945878169E-17, 0.0000000000000000000, 0.2362200000000000688 ) ) ;
#181 = FACE_OUTER_BOUND ( 'NONE', #227, .T. ) ;
#182 = SHAPE_DEFINITION_REPRESENTATION ( #190, #13 ) ;
#183 = SURFACE_STYLE_USAGE ( .BOTH. , #15 ) ;
#184 = ORIENTED_EDGE ( 'NONE', *, *, #45, .T. ) ;
#185 = AXIS2_PLACEMENT_3D ( 'NONE', #174, #284, #280 ) ;
#186 = DIRECTION ( 'NONE',  ( -1.000000000000000000, 0.0000000000000000000, 1.224646799147353207E-16 ) ) ;
#187 = SURFACE_STYLE_USAGE ( .BOTH. , #144 ) ;
#188 = AXIS2_PLACEMENT_3D ( 'NONE', #180, #138, #116 ) ;
#189 = ADVANCED_FACE ( 'NONE', ( #181 ), #90, .T. ) ;
#190 = PRODUCT_DEFINITION_SHAPE ( 'NONE', 'NONE',  #135 ) ;
#191 = ORIENTED_EDGE ( 'NONE', *, *, #206, .F. ) ;
#192 = CARTESIAN_POINT ( 'NONE',  ( -0.1181100000000000066, 0.0000000000000000000, 2.229093999999999465 ) ) ;
#193 = DIRECTION ( 'NONE',  ( -1.224646799147353207E-16, -0.0000000000000000000, -1.000000000000000000 ) ) ;
#194 = CIRCLE ( 'NONE', #82, 0.1031100000000002570 ) ;
#195 = ORIENTED_EDGE ( 'NONE', *, *, #167, .T. ) ;
#196 = DIRECTION ( 'NONE',  ( 0.7071067811865358044, 8.659560562354788645E-17, -0.7071067811865590080 ) ) ;
#197 = ORIENTED_EDGE ( 'NONE', *, *, #97, .T. ) ;
#198 = FACE_OUTER_BOUND ( 'NONE', #133, .T. ) ;
#199 = CARTESIAN_POINT ( 'NONE',  ( 0.0000000000000000000, 0.0000000000000000000, 2.244094000000000033 ) ) ;
#200 = VECTOR ( 'NONE', #151, 39.37007874015748143 ) ;
#201 = PRODUCT_CONTEXT ( 'NONE', #68, 'mechanical' ) ;
#202 = LENGTH_MEASURE_WITH_UNIT ( LENGTH_MEASURE( 0.02539999999999999897 ), #49 );
#203 = CARTESIAN_POINT ( 'NONE',  ( 0.0000000000000000000, 0.0000000000000000000, 0.0000000000000000000 ) ) ;
#204 = DIRECTION ( 'NONE',  ( 1.000000000000000000, 0.0000000000000000000, -0.0000000000000000000 ) ) ;
#205 = VECTOR ( 'NONE', #131, 39.37007874015748143 ) ;
#206 = EDGE_CURVE ( 'NONE', #14, #27, #244, .T. ) ;
#207 = LENGTH_MEASURE_WITH_UNIT ( LENGTH_MEASURE( 0.02539999999999999897 ), #231 );
#208 = AXIS2_PLACEMENT_3D ( 'NONE', #286, #39, #282 ) ;
#209 = ORIENTED_EDGE ( 'NONE', *, *, #105, .F. ) ;
#210 = DIRECTION ( 'NONE',  ( 0.0000000000000000000, 0.0000000000000000000, -1.000000000000000000 ) ) ;
#211 = UNCERTAINTY_MEASURE_WITH_UNIT (LENGTH_MEASURE( 1.000000000000000082E-05 ), #252, 'distance_accuracy_value', 'NONE');
#212 = LINE ( 'NONE', #10, #200 ) ;
#213 = ORIENTED_EDGE ( 'NONE', *, *, #89, .T. ) ;
#214 = LINE ( 'NONE', #4, #16 ) ;
#215 = AXIS2_PLACEMENT_3D ( 'NONE', #21, #43, #46 ) ;
#216 = EDGE_LOOP ( 'NONE', ( #236, #209, #125, #173 ) ) ;
#217 = FACE_OUTER_BOUND ( 'NONE', #216, .T. ) ;
#218 = CARTESIAN_POINT ( 'NONE',  ( 0.0000000000000000000, 0.0000000000000000000, 2.244094000000000033 ) ) ;
#219 = CIRCLE ( 'NONE', #185, 0.1181100000000000066 ) ;
#220 = CIRCLE ( 'NONE', #132, 0.03933063000000001225 ) ;
#221 = PLANE ( 'NONE',  #33 ) ;
#222 = FACE_OUTER_BOUND ( 'NONE', #76, .T. ) ;
#223 = CARTESIAN_POINT ( 'NONE',  ( 0.0000000000000000000, 0.0000000000000000000, 0.0000000000000000000 ) ) ;
#224 = CARTESIAN_POINT ( 'NONE',  ( 5.898649710075394597E-34, 0.0000000000000000000, 4.816613013794886973E-18 ) ) ;
#225 = VERTEX_POINT ( 'NONE', #136 ) ;
#226 = AXIS2_PLACEMENT_3D ( 'NONE', #86, #210, #60 ) ;
#227 = EDGE_LOOP ( 'NONE', ( #40, #107, #98, #150 ) ) ;
#228 = DIMENSIONAL_EXPONENTS ( 1.000000000000000000, 0.0000000000000000000, 0.0000000000000000000, 0.0000000000000000000, 0.0000000000000000000, 0.0000000000000000000, 0.0000000000000000000 ) ;
#229 = ADVANCED_FACE ( 'NONE', ( #217 ), #38, .T. ) ;
#230 = UNCERTAINTY_MEASURE_WITH_UNIT (LENGTH_MEASURE( 1.000000000000000082E-05 ), #291, 'distance_accuracy_value', 'NONE');
#231 =( LENGTH_UNIT ( ) NAMED_UNIT ( * ) SI_UNIT ( $, .METRE. ) );
#232 = ADVANCED_FACE ( 'NONE', ( #297 ), #221, .T. ) ;
#233 = VECTOR ( 'NONE', #53, 39.37007874015747433 ) ;
#234 = CARTESIAN_POINT ( 'NONE',  ( 0.0000000000000000000, 0.0000000000000000000, 2.244094000000000033 ) ) ;
#235 = DIRECTION ( 'NONE',  ( 0.0000000000000000000, 0.0000000000000000000, -1.000000000000000000 ) ) ;
#236 = ORIENTED_EDGE ( 'NONE', *, *, #101, .F. ) ;
#237 = CARTESIAN_POINT ( 'NONE',  ( 0.1181100000000000066, 1.446430334472939084E-17, 2.229093999999999465 ) ) ;
#238 = VERTEX_POINT ( 'NONE', #120 ) ;
#239 = DIRECTION ( 'NONE',  ( -1.224646799147353207E-16, -0.0000000000000000000, -1.000000000000000000 ) ) ;
#240 = CIRCLE ( 'NONE', #112, 0.1181100000000000066 ) ;
#241 = MECHANICAL_DESIGN_GEOMETRIC_PRESENTATION_REPRESENTATION (  '', ( #171 ), #296 ) ;
#242 = CYLINDRICAL_SURFACE ( 'NONE', #85, 0.03933063000000000531 ) ;
#243 = FILL_AREA_STYLE_COLOUR ( '', #64 ) ;
#244 = LINE ( 'NONE', #71, #290 ) ;
#245 = CIRCLE ( 'NONE', #256, 0.1181100000000000066 ) ;
#246 = CARTESIAN_POINT ( 'NONE',  ( 0.1031100000000002570, 1.354581824536888722E-17, 2.244094000000000033 ) ) ;
#247 = EDGE_LOOP ( 'NONE', ( #7, #197, #195, #127 ) ) ;
#248 = LINE ( 'NONE', #141, #170 ) ;
#249 = ADVANCED_FACE ( 'NONE', ( #19 ), #177, .F. ) ;
#250 = CARTESIAN_POINT ( 'NONE',  ( 0.0000000000000000000, 0.0000000000000000000, 2.244094000000000033 ) ) ;
#251 = EDGE_LOOP ( 'NONE', ( #47, #110, #139, #122 ) ) ;
#252 =( CONVERSION_BASED_UNIT ( 'INCH', #279 ) LENGTH_UNIT ( ) NAMED_UNIT ( #104 ) );
#253 = EDGE_CURVE ( 'NONE', #119, #28, #194, .T. ) ;
#254 = DIMENSIONAL_EXPONENTS ( 1.000000000000000000, 0.0000000000000000000, 0.0000000000000000000, 0.0000000000000000000, 0.0000000000000000000, 0.0000000000000000000, 0.0000000000000000000 ) ;
#255 = DIRECTION ( 'NONE',  ( 1.000000000000000000, 0.0000000000000000000, 0.0000000000000000000 ) ) ;
#256 = AXIS2_PLACEMENT_3D ( 'NONE', #12, #235, #262 ) ;
#257 =( NAMED_UNIT ( * ) PLANE_ANGLE_UNIT ( ) SI_UNIT ( $, .RADIAN. ) );
#258 = ORIENTED_EDGE ( 'NONE', *, *, #61, .F. ) ;
#259 = AXIS2_PLACEMENT_3D ( 'NONE', #223, #118, #140 ) ;
#260 = CARTESIAN_POINT ( 'NONE',  ( -0.1181099999999999234, 0.0000000000000000000, 0.6830000088419342363 ) ) ;
#261 = ORIENTED_EDGE ( 'NONE', *, *, #74, .T. ) ;
#262 = DIRECTION ( 'NONE',  ( 1.000000000000000000, 0.0000000000000000000, 0.0000000000000000000 ) ) ;
#263 = ORIENTED_EDGE ( 'NONE', *, *, #101, .T. ) ;
#264 = LINE ( 'NONE', #62, #233 ) ;
#265 = FACE_OUTER_BOUND ( 'NONE', #247, .T. ) ;
#266 = AXIS2_PLACEMENT_3D ( 'NONE', #163, #108, #88 ) ;
#267 = MANIFOLD_SOLID_BREP ( 'Cut-Revolve1', #288 ) ;
#268 = DIRECTION ( 'NONE',  ( -1.224646799147353207E-16, -0.0000000000000000000, -1.000000000000000000 ) ) ;
#269 = DIRECTION ( 'NONE',  ( -1.000000000000000000, 0.0000000000000000000, 0.0000000000000000000 ) ) ;
#270 = DIRECTION ( 'NONE',  ( 0.0000000000000000000, 0.0000000000000000000, 1.000000000000000000 ) ) ;
#271 = ORIENTED_EDGE ( 'NONE', *, *, #298, .T. ) ;
#272 = DIRECTION ( 'NONE',  ( -1.224646799147353207E-16, -0.0000000000000000000, -1.000000000000000000 ) ) ;
#273 = EDGE_CURVE ( 'NONE', #27, #238, #161, .T. ) ;
#274 =( GEOMETRIC_REPRESENTATION_CONTEXT ( 3 ) GLOBAL_UNCERTAINTY_ASSIGNED_CONTEXT ( ( #211 ) ) GLOBAL_UNIT_ASSIGNED_CONTEXT ( ( #252, #31, #162 ) ) REPRESENTATION_CONTEXT ( 'NONE', 'WORKASPACE' ) );
#275 = PRESENTATION_LAYER_ASSIGNMENT (  '', '', ( #171 ) ) ;
#276 = CARTESIAN_POINT ( 'NONE',  ( 8.364337746458886977E-17, 0.0000000000000000000, 0.6830000088419342363 ) ) ;
#277 = PRESENTATION_STYLE_ASSIGNMENT (( #187 ) ) ;
#278 = PRODUCT ( 'Micro_SFAM-020020', 'Micro_SFAM-020020', '', ( #201 ) ) ;
#279 = LENGTH_MEASURE_WITH_UNIT ( LENGTH_MEASURE( 0.02539999999999999897 ), #146 );
#280 = DIRECTION ( 'NONE',  ( 1.000000000000000000, 0.0000000000000000000, 0.0000000000000000000 ) ) ;
#281 = AXIS2_PLACEMENT_3D ( 'NONE', #203, #73, #204 ) ;
#282 = DIRECTION ( 'NONE',  ( -1.000000000000000000, 0.0000000000000000000, 1.224646799147353207E-16 ) ) ;
#283 = ORIENTED_EDGE ( 'NONE', *, *, #105, .T. ) ;
#284 = DIRECTION ( 'NONE',  ( 0.0000000000000000000, 0.0000000000000000000, -1.000000000000000000 ) ) ;
#285 = ORIENTED_EDGE ( 'NONE', *, *, #48, .T. ) ;
#286 = CARTESIAN_POINT ( 'NONE',  ( 5.898649710075394597E-34, 0.0000000000000000000, 4.816613013794886973E-18 ) ) ;
#287 = EDGE_CURVE ( 'NONE', #72, #225, #24, .T. ) ;
#288 = CLOSED_SHELL ( 'NONE', ( #17, #32, #157, #189, #79, #232, #56, #229, #129, #249 ) ) ;
#289 = DIRECTION ( 'NONE',  ( -0.0000000000000000000, -0.0000000000000000000, -1.000000000000000000 ) ) ;
#290 = VECTOR ( 'NONE', #272, 39.37007874015748143 ) ;
#291 =( CONVERSION_BASED_UNIT ( 'INCH', #202 ) LENGTH_UNIT ( ) NAMED_UNIT ( #228 ) );
#292 = PRESENTATION_STYLE_ASSIGNMENT (( #183 ) ) ;
#293 = DIRECTION ( 'NONE',  ( 1.000000000000000000, 0.0000000000000000000, -0.0000000000000000000 ) ) ;
#294 = CONICAL_SURFACE ( 'NONE', #22, 0.1031100000000002570, 0.7853981633974318477 ) ;
#295 = ORIENTED_EDGE ( 'NONE', *, *, #66, .F. ) ;
#296 =( GEOMETRIC_REPRESENTATION_CONTEXT ( 3 ) GLOBAL_UNCERTAINTY_ASSIGNED_CONTEXT ( ( #3 ) ) GLOBAL_UNIT_ASSIGNED_CONTEXT ( ( #124, #257, #299 ) ) REPRESENTATION_CONTEXT ( 'NONE', 'WORKASPACE' ) );
#297 = FACE_OUTER_BOUND ( 'NONE', #175, .T. ) ;
#298 = EDGE_CURVE ( 'NONE', #28, #83, #145, .T. ) ;
#299 =( NAMED_UNIT ( * ) SI_UNIT ( $, .STERADIAN. ) SOLID_ANGLE_UNIT ( ) );
ENDSEC;
END-ISO-10303-21;
