ISO-10303-21;
HEADER;
FILE_DESCRIPTION (( 'STEP AP214' ),
    '1' );
FILE_NAME ('Micro_RSCM-060-2.STEP',
    '2021-09-03T17:58:46',
    ( '' ),
    ( '' ),
    'SwSTEP 2.0',
    'SolidWorks 2020',
    '' );
FILE_SCHEMA (( 'AUTOMOTIVE_DESIGN' ));
ENDSEC;

DATA;
#1 = FILL_AREA_STYLE_COLOUR ( '', #184 ) ;
#2 = VECTOR ( 'NONE', #64, 39.37007874015748854 ) ;
#3 = CARTESIAN_POINT ( 'NONE',  ( 0.1181100000000000066, 1.446430334472939084E-17, 2.244094000000000033 ) ) ;
#4 = EDGE_LOOP ( 'NONE', ( #91, #200, #236, #111 ) ) ;
#5 =( NAMED_UNIT ( * ) PLANE_ANGLE_UNIT ( ) SI_UNIT ( $, .RADIAN. ) );
#6 = ORIENTED_EDGE ( 'NONE', *, *, #208, .F. ) ;
#7 = CARTESIAN_POINT ( 'NONE',  ( 0.0000000000000000000, 0.0000000000000000000, 2.244094000000000033 ) ) ;
#8 = EDGE_CURVE ( 'NONE', #181, #223, #159, .T. ) ;
#9 = ORIENTED_EDGE ( 'NONE', *, *, #168, .T. ) ;
#10 = ORIENTED_EDGE ( 'NONE', *, *, #119, .F. ) ;
#11 =( NAMED_UNIT ( * ) PLANE_ANGLE_UNIT ( ) SI_UNIT ( $, .RADIAN. ) );
#12 = FILL_AREA_STYLE ('',( #240 ) ) ;
#13 = DIRECTION ( 'NONE',  ( -0.0000000000000000000, -0.0000000000000000000, -1.000000000000000000 ) ) ;
#14 = CARTESIAN_POINT ( 'NONE',  ( 0.0000000000000000000, 0.0000000000000000000, 0.1977534368525607211 ) ) ;
#15 =( LENGTH_UNIT ( ) NAMED_UNIT ( * ) SI_UNIT ( $, .METRE. ) );
#16 = MANIFOLD_SOLID_BREP ( 'Mirror1', #115 ) ;
#17 = COLOUR_RGB ( '',0.7921568627450980005, 0.8196078431372548767, 0.9333333333333333481 ) ;
#18 = VECTOR ( 'NONE', #13, 39.37007874015748143 ) ;
#19 = DIRECTION ( 'NONE',  ( 0.0000000000000000000, 0.0000000000000000000, 1.000000000000000000 ) ) ;
#20 = EDGE_CURVE ( 'NONE', #107, #123, #39, .T. ) ;
#21 = CARTESIAN_POINT ( 'NONE',  ( 0.0000000000000000000, 0.0000000000000000000, 2.244094000000000033 ) ) ;
#22 = DIRECTION ( 'NONE',  ( 1.000000000000000000, 0.0000000000000000000, 0.0000000000000000000 ) ) ;
#23 = FACE_OUTER_BOUND ( 'NONE', #89, .T. ) ;
#24 = EDGE_CURVE ( 'NONE', #223, #104, #67, .T. ) ;
#25 = PRESENTATION_LAYER_ASSIGNMENT (  '', '', ( #146 ) ) ;
#26 = AXIS2_PLACEMENT_3D ( 'NONE', #56, #210, #174 ) ;
#27 = PRESENTATION_STYLE_ASSIGNMENT (( #43 ) ) ;
#28 = FILL_AREA_STYLE ('',( #1 ) ) ;
#29 = ORIENTED_EDGE ( 'NONE', *, *, #69, .F. ) ;
#30 = DIRECTION ( 'NONE',  ( 0.0000000000000000000, 0.0000000000000000000, -1.000000000000000000 ) ) ;
#31 = ORIENTED_EDGE ( 'NONE', *, *, #45, .F. ) ;
#32 = APPLICATION_PROTOCOL_DEFINITION ( 'draft international standard', 'automotive_design', 1998, #62 ) ;
#33 = SURFACE_STYLE_USAGE ( .BOTH. , #127 ) ;
#34 = LENGTH_MEASURE_WITH_UNIT ( LENGTH_MEASURE( 0.02539999999999999897 ), #15 );
#35 = CONICAL_SURFACE ( 'NONE', #26, 0.003936999999999995191, 0.5235987755983005920 ) ;
#36 = DIRECTION ( 'NONE',  ( 0.0000000000000000000, 0.0000000000000000000, -1.000000000000000000 ) ) ;
#37 = ADVANCED_FACE ( 'NONE', ( #248 ), #50, .T. ) ;
#38 = AXIS2_PLACEMENT_3D ( 'NONE', #134, #71, #212 ) ;
#39 = LINE ( 'NONE', #96, #128 ) ;
#40 = CARTESIAN_POINT ( 'NONE',  ( 0.0000000000000000000, 0.0000000000000000000, 2.046340563147439173 ) ) ;
#41 = LINE ( 'NONE', #121, #2 ) ;
#42 = DIRECTION ( 'NONE',  ( -0.0000000000000000000, -0.0000000000000000000, -1.000000000000000000 ) ) ;
#43 = SURFACE_STYLE_USAGE ( .BOTH. , #101 ) ;
#44 = AXIS2_PLACEMENT_3D ( 'NONE', #87, #201, #183 ) ;
#45 = EDGE_CURVE ( 'NONE', #104, #123, #178, .T. ) ;
#46 = ORIENTED_EDGE ( 'NONE', *, *, #20, .T. ) ;
#47 = CARTESIAN_POINT ( 'NONE',  ( 0.0000000000000000000, 0.0000000000000000000, 2.244094000000000033 ) ) ;
#48 = SHAPE_DEFINITION_REPRESENTATION ( #237, #176 ) ;
#49 = ORIENTED_EDGE ( 'NONE', *, *, #24, .F. ) ;
#50 = CONICAL_SURFACE ( 'NONE', #243, 0.003936999999999995191, 0.5235987755983005920 ) ;
#51 = ORIENTED_EDGE ( 'NONE', *, *, #8, .T. ) ;
#52 = VERTEX_POINT ( 'NONE', #192 ) ;
#53 = PRODUCT_DEFINITION_CONTEXT ( 'detailed design', #62, 'design' ) ;
#54 = PRODUCT_CONTEXT ( 'NONE', #137, 'mechanical' ) ;
#55 = UNCERTAINTY_MEASURE_WITH_UNIT (LENGTH_MEASURE( 1.000000000000000082E-05 ), #169, 'distance_accuracy_value', 'NONE');
#56 = CARTESIAN_POINT ( 'NONE',  ( 0.0000000000000000000, 0.0000000000000000000, 0.0000000000000000000 ) ) ;
#57 = AXIS2_PLACEMENT_3D ( 'NONE', #47, #235, #124 ) ;
#58 = CARTESIAN_POINT ( 'NONE',  ( 0.1181100000000000066, 1.446430334472939084E-17, 2.046340563147439173 ) ) ;
#59 = DIRECTION ( 'NONE',  ( -1.000000000000000000, 0.0000000000000000000, 0.0000000000000000000 ) ) ;
#60 =( NAMED_UNIT ( * ) PLANE_ANGLE_UNIT ( ) SI_UNIT ( $, .RADIAN. ) );
#61 = ADVANCED_FACE ( 'NONE', ( #76 ), #136, .T. ) ;
#62 = APPLICATION_CONTEXT ( 'automotive_design' ) ;
#63 = FACE_OUTER_BOUND ( 'NONE', #144, .T. ) ;
#64 = DIRECTION ( 'NONE',  ( -0.5000000000000013323, 6.123233995736782060E-17, 0.8660254037844377084 ) ) ;
#65 = PRODUCT ( 'Micro_RSCM-060-2', 'Micro_RSCM-060-2', '', ( #54 ) ) ;
#66 = ORIENTED_EDGE ( 'NONE', *, *, #168, .F. ) ;
#67 = LINE ( 'NONE', #133, #18 ) ;
#68 = EDGE_LOOP ( 'NONE', ( #164, #242 ) ) ;
#69 = EDGE_CURVE ( 'NONE', #107, #217, #86, .T. ) ;
#70 = ORIENTED_EDGE ( 'NONE', *, *, #119, .T. ) ;
#71 = DIRECTION ( 'NONE',  ( -0.0000000000000000000, -0.0000000000000000000, -1.000000000000000000 ) ) ;
#72 = AXIS2_PLACEMENT_3D ( 'NONE', #211, #74, #59 ) ;
#73 = DIRECTION ( 'NONE',  ( -1.000000000000000000, 0.0000000000000000000, 0.0000000000000000000 ) ) ;
#74 = DIRECTION ( 'NONE',  ( -0.0000000000000000000, -0.0000000000000000000, -1.000000000000000000 ) ) ;
#75 =( GEOMETRIC_REPRESENTATION_CONTEXT ( 3 ) GLOBAL_UNCERTAINTY_ASSIGNED_CONTEXT ( ( #55 ) ) GLOBAL_UNIT_ASSIGNED_CONTEXT ( ( #169, #11, #188 ) ) REPRESENTATION_CONTEXT ( 'NONE', 'WORKASPACE' ) );
#76 = FACE_OUTER_BOUND ( 'NONE', #83, .T. ) ;
#77 = FACE_OUTER_BOUND ( 'NONE', #4, .T. ) ;
#78 = FACE_OUTER_BOUND ( 'NONE', #68, .T. ) ;
#79 = CIRCLE ( 'NONE', #147, 0.1181100000000000066 ) ;
#80 = CARTESIAN_POINT ( 'NONE',  ( -0.003936999999999995191, 7.473223394776852656E-18, 0.0000000000000000000 ) ) ;
#81 = PRODUCT_RELATED_PRODUCT_CATEGORY ( 'part', '', ( #65 ) ) ;
#82 =( CONVERSION_BASED_UNIT ( 'INCH', #157 ) LENGTH_UNIT ( ) NAMED_UNIT ( #215 ) );
#83 = EDGE_LOOP ( 'NONE', ( #9, #163, #202, #167 ) ) ;
#84 = SURFACE_STYLE_FILL_AREA ( #28 ) ;
#85 = ORIENTED_EDGE ( 'NONE', *, *, #150, .F. ) ;
#86 = CIRCLE ( 'NONE', #38, 0.003936999999999995191 ) ;
#87 = CARTESIAN_POINT ( 'NONE',  ( 0.0000000000000000000, 0.0000000000000000000, 0.0000000000000000000 ) ) ;
#88 = DIMENSIONAL_EXPONENTS ( 1.000000000000000000, 0.0000000000000000000, 0.0000000000000000000, 0.0000000000000000000, 0.0000000000000000000, 0.0000000000000000000, 0.0000000000000000000 ) ;
#89 = EDGE_LOOP ( 'NONE', ( #66, #6 ) ) ;
#90 = PRODUCT_DEFINITION ( 'UNKNOWN', '', #140, #53 ) ;
#91 = ORIENTED_EDGE ( 'NONE', *, *, #126, .F. ) ;
#92 = CARTESIAN_POINT ( 'NONE',  ( 0.0000000000000000000, 0.0000000000000000000, 0.0000000000000000000 ) ) ;
#93 = DIRECTION ( 'NONE',  ( -1.000000000000000000, 0.0000000000000000000, 0.0000000000000000000 ) ) ;
#94 = AXIS2_PLACEMENT_3D ( 'NONE', #100, #246, #73 ) ;
#95 = DIRECTION ( 'NONE',  ( 1.000000000000000000, 0.0000000000000000000, 0.0000000000000000000 ) ) ;
#96 = CARTESIAN_POINT ( 'NONE',  ( 0.003936999999999995191, 0.0000000000000000000, 0.0000000000000000000 ) ) ;
#97 = DIRECTION ( 'NONE',  ( -1.000000000000000000, 0.0000000000000000000, 0.0000000000000000000 ) ) ;
#98 = DIRECTION ( 'NONE',  ( 1.000000000000000000, 0.0000000000000000000, 0.0000000000000000000 ) ) ;
#99 = VECTOR ( 'NONE', #148, 39.37007874015748854 ) ;
#100 = CARTESIAN_POINT ( 'NONE',  ( 0.0000000000000000000, 0.0000000000000000000, 0.0000000000000000000 ) ) ;
#101 = SURFACE_SIDE_STYLE ('',( #84 ) ) ;
#102 = DIMENSIONAL_EXPONENTS ( 1.000000000000000000, 0.0000000000000000000, 0.0000000000000000000, 0.0000000000000000000, 0.0000000000000000000, 0.0000000000000000000, 0.0000000000000000000 ) ;
#103 = STYLED_ITEM ( 'NONE', ( #27 ), #176 ) ;
#104 = VERTEX_POINT ( 'NONE', #175 ) ;
#105 = ADVANCED_FACE ( 'NONE', ( #77 ), #149, .T. ) ;
#106 = CYLINDRICAL_SURFACE ( 'NONE', #57, 0.1181100000000000066 ) ;
#107 = VERTEX_POINT ( 'NONE', #113 ) ;
#108 = DIRECTION ( 'NONE',  ( -1.000000000000000000, 0.0000000000000000000, 0.0000000000000000000 ) ) ;
#109 = EDGE_LOOP ( 'NONE', ( #85, #204, #187, #207 ) ) ;
#110 = CIRCLE ( 'NONE', #94, 0.003936999999999995191 ) ;
#111 = ORIENTED_EDGE ( 'NONE', *, *, #20, .F. ) ;
#112 = PRESENTATION_STYLE_ASSIGNMENT (( #33 ) ) ;
#113 = CARTESIAN_POINT ( 'NONE',  ( 0.003936999999999995191, 0.0000000000000000000, 0.0000000000000000000 ) ) ;
#114 = EDGE_CURVE ( 'NONE', #223, #181, #132, .T. ) ;
#115 = CLOSED_SHELL ( 'NONE', ( #61, #105, #224, #205, #158, #186, #37, #245 ) ) ;
#116 = AXIS2_PLACEMENT_3D ( 'NONE', #92, #241, #171 ) ;
#117 = DIRECTION ( 'NONE',  ( 0.0000000000000000000, 0.0000000000000000000, -1.000000000000000000 ) ) ;
#118 = UNCERTAINTY_MEASURE_WITH_UNIT (LENGTH_MEASURE( 1.000000000000000082E-05 ), #152, 'distance_accuracy_value', 'NONE');
#119 = EDGE_CURVE ( 'NONE', #123, #104, #79, .T. ) ;
#120 = CARTESIAN_POINT ( 'NONE',  ( 0.0000000000000000000, 0.0000000000000000000, 0.0000000000000000000 ) ) ;
#121 = CARTESIAN_POINT ( 'NONE',  ( -0.003936999999999995191, 4.821434448243123477E-19, 0.0000000000000000000 ) ) ;
#122 = CIRCLE ( 'NONE', #189, 0.003936999999999995191 ) ;
#123 = VERTEX_POINT ( 'NONE', #194 ) ;
#124 = DIRECTION ( 'NONE',  ( -1.000000000000000000, 0.0000000000000000000, 0.0000000000000000000 ) ) ;
#125 = EDGE_LOOP ( 'NONE', ( #222, #29, #46, #70 ) ) ;
#126 = EDGE_CURVE ( 'NONE', #217, #107, #110, .T. ) ;
#127 = SURFACE_SIDE_STYLE ('',( #206 ) ) ;
#128 = VECTOR ( 'NONE', #244, 39.37007874015748854 ) ;
#129 = CARTESIAN_POINT ( 'NONE',  ( 0.0000000000000000000, 0.0000000000000000000, 2.046340563147439173 ) ) ;
#130 = ORIENTED_EDGE ( 'NONE', *, *, #24, .T. ) ;
#131 = AXIS2_PLACEMENT_3D ( 'NONE', #129, #30, #93 ) ;
#132 = CIRCLE ( 'NONE', #228, 0.1181100000000000066 ) ;
#133 = CARTESIAN_POINT ( 'NONE',  ( -0.1181100000000000066, 0.0000000000000000000, 2.244094000000000033 ) ) ;
#134 = CARTESIAN_POINT ( 'NONE',  ( 0.0000000000000000000, 0.0000000000000000000, 0.0000000000000000000 ) ) ;
#135 =( NAMED_UNIT ( * ) SI_UNIT ( $, .STERADIAN. ) SOLID_ANGLE_UNIT ( ) );
#136 = CONICAL_SURFACE ( 'NONE', #221, 0.003936999999999995191, 0.5235987755983005920 ) ;
#137 = APPLICATION_CONTEXT ( 'automotive_design' ) ;
#138 = CARTESIAN_POINT ( 'NONE',  ( 0.003936999999999995191, 0.0000000000000000000, 2.244094000000000033 ) ) ;
#139 =( NAMED_UNIT ( * ) SI_UNIT ( $, .STERADIAN. ) SOLID_ANGLE_UNIT ( ) );
#140 = PRODUCT_DEFINITION_FORMATION_WITH_SPECIFIED_SOURCE ( 'ANY', '', #65, .NOT_KNOWN. ) ;
#141 = DIRECTION ( 'NONE',  ( -0.0000000000000000000, -0.0000000000000000000, -1.000000000000000000 ) ) ;
#142 = AXIS2_PLACEMENT_3D ( 'NONE', #247, #151, #229 ) ;
#143 = ORIENTED_EDGE ( 'NONE', *, *, #233, .T. ) ;
#144 = EDGE_LOOP ( 'NONE', ( #161, #51, #130, #10 ) ) ;
#145 = LENGTH_MEASURE_WITH_UNIT ( LENGTH_MEASURE( 0.02539999999999999897 ), #170 );
#146 = STYLED_ITEM ( 'NONE', ( #112 ), #16 ) ;
#147 = AXIS2_PLACEMENT_3D ( 'NONE', #14, #173, #97 ) ;
#148 = DIRECTION ( 'NONE',  ( -0.5000000000000013323, -6.123233995736782060E-17, -0.8660254037844377084 ) ) ;
#149 = CONICAL_SURFACE ( 'NONE', #191, 0.003936999999999995191, 0.5235987755983005920 ) ;
#150 = EDGE_CURVE ( 'NONE', #219, #223, #153, .T. ) ;
#151 = DIRECTION ( 'NONE',  ( 0.0000000000000000000, 0.0000000000000000000, -1.000000000000000000 ) ) ;
#152 =( CONVERSION_BASED_UNIT ( 'INCH', #145 ) LENGTH_UNIT ( ) NAMED_UNIT ( #88 ) );
#153 = LINE ( 'NONE', #230, #99 ) ;
#154 = CARTESIAN_POINT ( 'NONE',  ( -0.1181100000000000066, 0.0000000000000000000, 2.046340563147439173 ) ) ;
#155 = CARTESIAN_POINT ( 'NONE',  ( 0.0000000000000000000, 0.0000000000000000000, 2.244094000000000033 ) ) ;
#156 = PLANE ( 'NONE',  #44 ) ;
#157 = LENGTH_MEASURE_WITH_UNIT ( LENGTH_MEASURE( 0.02539999999999999897 ), #232 );
#158 = ADVANCED_FACE ( 'NONE', ( #227 ), #35, .T. ) ;
#159 = CIRCLE ( 'NONE', #131, 0.1181100000000000066 ) ;
#160 = CIRCLE ( 'NONE', #142, 0.003936999999999995191 ) ;
#161 = ORIENTED_EDGE ( 'NONE', *, *, #233, .F. ) ;
#162 = DIRECTION ( 'NONE',  ( 0.0000000000000000000, 0.0000000000000000000, -1.000000000000000000 ) ) ;
#163 = ORIENTED_EDGE ( 'NONE', *, *, #150, .T. ) ;
#164 = ORIENTED_EDGE ( 'NONE', *, *, #69, .T. ) ;
#165 = MECHANICAL_DESIGN_GEOMETRIC_PRESENTATION_REPRESENTATION (  '', ( #146 ), #231 ) ;
#166 = PRESENTATION_LAYER_ASSIGNMENT (  '', '', ( #103 ) ) ;
#167 = ORIENTED_EDGE ( 'NONE', *, *, #239, .F. ) ;
#168 = EDGE_CURVE ( 'NONE', #52, #219, #160, .T. ) ;
#169 =( CONVERSION_BASED_UNIT ( 'INCH', #34 ) LENGTH_UNIT ( ) NAMED_UNIT ( #102 ) );
#170 =( LENGTH_UNIT ( ) NAMED_UNIT ( * ) SI_UNIT ( $, .METRE. ) );
#171 = DIRECTION ( 'NONE',  ( 1.000000000000000000, 0.0000000000000000000, 0.0000000000000000000 ) ) ;
#172 = AXIS2_PLACEMENT_3D ( 'NONE', #196, #42, #108 ) ;
#173 = DIRECTION ( 'NONE',  ( -0.0000000000000000000, -0.0000000000000000000, -1.000000000000000000 ) ) ;
#174 = DIRECTION ( 'NONE',  ( 1.000000000000000000, 0.0000000000000000000, 0.0000000000000000000 ) ) ;
#175 = CARTESIAN_POINT ( 'NONE',  ( -0.1181100000000000066, 0.0000000000000000000, 0.1977534368525607211 ) ) ;
#176 = ADVANCED_BREP_SHAPE_REPRESENTATION ( 'Micro_RSCM-060-2', ( #16, #116 ), #203 ) ;
#177 = LINE ( 'NONE', #3, #193 ) ;
#178 = CIRCLE ( 'NONE', #72, 0.1181100000000000066 ) ;
#179 = FACE_OUTER_BOUND ( 'NONE', #185, .T. ) ;
#180 = LINE ( 'NONE', #138, #213 ) ;
#181 = VERTEX_POINT ( 'NONE', #58 ) ;
#182 = DIRECTION ( 'NONE',  ( 0.0000000000000000000, 0.0000000000000000000, 1.000000000000000000 ) ) ;
#183 = DIRECTION ( 'NONE',  ( 1.000000000000000000, 0.0000000000000000000, -0.0000000000000000000 ) ) ;
#184 = COLOUR_RGB ( '',0.7921568627450980005, 0.8196078431372548767, 0.9333333333333333481 ) ;
#185 = EDGE_LOOP ( 'NONE', ( #220, #143, #31, #49 ) ) ;
#186 = ADVANCED_FACE ( 'NONE', ( #78 ), #156, .F. ) ;
#187 = ORIENTED_EDGE ( 'NONE', *, *, #239, .T. ) ;
#188 =( NAMED_UNIT ( * ) SI_UNIT ( $, .STERADIAN. ) SOLID_ANGLE_UNIT ( ) );
#189 = AXIS2_PLACEMENT_3D ( 'NONE', #7, #162, #234 ) ;
#190 = DIRECTION ( 'NONE',  ( -1.000000000000000000, 0.0000000000000000000, 0.0000000000000000000 ) ) ;
#191 = AXIS2_PLACEMENT_3D ( 'NONE', #120, #19, #95 ) ;
#192 = CARTESIAN_POINT ( 'NONE',  ( 0.003936999999999995191, 0.0000000000000000000, 2.244094000000000033 ) ) ;
#193 = VECTOR ( 'NONE', #141, 39.37007874015748143 ) ;
#194 = CARTESIAN_POINT ( 'NONE',  ( 0.1181100000000000066, 1.446430334472939084E-17, 0.1977534368525607211 ) ) ;
#195 = EDGE_CURVE ( 'NONE', #217, #104, #41, .T. ) ;
#196 = CARTESIAN_POINT ( 'NONE',  ( 0.0000000000000000000, 0.0000000000000000000, 2.244094000000000033 ) ) ;
#197 = APPLICATION_PROTOCOL_DEFINITION ( 'draft international standard', 'automotive_design', 1998, #137 ) ;
#198 = MECHANICAL_DESIGN_GEOMETRIC_PRESENTATION_REPRESENTATION (  '', ( #103 ), #75 ) ;
#199 = PLANE ( 'NONE',  #209 ) ;
#200 = ORIENTED_EDGE ( 'NONE', *, *, #195, .T. ) ;
#201 = DIRECTION ( 'NONE',  ( 0.0000000000000000000, 0.0000000000000000000, 1.000000000000000000 ) ) ;
#202 = ORIENTED_EDGE ( 'NONE', *, *, #8, .F. ) ;
#203 =( GEOMETRIC_REPRESENTATION_CONTEXT ( 3 ) GLOBAL_UNCERTAINTY_ASSIGNED_CONTEXT ( ( #226 ) ) GLOBAL_UNIT_ASSIGNED_CONTEXT ( ( #82, #5, #139 ) ) REPRESENTATION_CONTEXT ( 'NONE', 'WORKASPACE' ) );
#204 = ORIENTED_EDGE ( 'NONE', *, *, #208, .T. ) ;
#205 = ADVANCED_FACE ( 'NONE', ( #63 ), #216, .T. ) ;
#206 = SURFACE_STYLE_FILL_AREA ( #12 ) ;
#207 = ORIENTED_EDGE ( 'NONE', *, *, #114, .F. ) ;
#208 = EDGE_CURVE ( 'NONE', #219, #52, #122, .T. ) ;
#209 = AXIS2_PLACEMENT_3D ( 'NONE', #155, #182, #218 ) ;
#210 = DIRECTION ( 'NONE',  ( 0.0000000000000000000, 0.0000000000000000000, 1.000000000000000000 ) ) ;
#211 = CARTESIAN_POINT ( 'NONE',  ( 0.0000000000000000000, 0.0000000000000000000, 0.1977534368525607211 ) ) ;
#212 = DIRECTION ( 'NONE',  ( -1.000000000000000000, 0.0000000000000000000, 0.0000000000000000000 ) ) ;
#213 = VECTOR ( 'NONE', #214, 39.37007874015748854 ) ;
#214 = DIRECTION ( 'NONE',  ( 0.5000000000000013323, 0.0000000000000000000, -0.8660254037844377084 ) ) ;
#215 = DIMENSIONAL_EXPONENTS ( 1.000000000000000000, 0.0000000000000000000, 0.0000000000000000000, 0.0000000000000000000, 0.0000000000000000000, 0.0000000000000000000, 0.0000000000000000000 ) ;
#216 = CYLINDRICAL_SURFACE ( 'NONE', #172, 0.1181100000000000066 ) ;
#217 = VERTEX_POINT ( 'NONE', #80 ) ;
#218 = DIRECTION ( 'NONE',  ( 1.000000000000000000, 0.0000000000000000000, -0.0000000000000000000 ) ) ;
#219 = VERTEX_POINT ( 'NONE', #238 ) ;
#220 = ORIENTED_EDGE ( 'NONE', *, *, #114, .T. ) ;
#221 = AXIS2_PLACEMENT_3D ( 'NONE', #21, #36, #98 ) ;
#222 = ORIENTED_EDGE ( 'NONE', *, *, #195, .F. ) ;
#223 = VERTEX_POINT ( 'NONE', #154 ) ;
#224 = ADVANCED_FACE ( 'NONE', ( #179 ), #106, .T. ) ;
#225 = CARTESIAN_POINT ( 'NONE',  ( 0.0000000000000000000, 0.0000000000000000000, 2.244094000000000033 ) ) ;
#226 = UNCERTAINTY_MEASURE_WITH_UNIT (LENGTH_MEASURE( 1.000000000000000082E-05 ), #82, 'distance_accuracy_value', 'NONE');
#227 = FACE_OUTER_BOUND ( 'NONE', #125, .T. ) ;
#228 = AXIS2_PLACEMENT_3D ( 'NONE', #40, #117, #190 ) ;
#229 = DIRECTION ( 'NONE',  ( -1.000000000000000000, 0.0000000000000000000, 0.0000000000000000000 ) ) ;
#230 = CARTESIAN_POINT ( 'NONE',  ( -0.003936999999999995191, -4.821434448243123477E-19, 2.244094000000000033 ) ) ;
#231 =( GEOMETRIC_REPRESENTATION_CONTEXT ( 3 ) GLOBAL_UNCERTAINTY_ASSIGNED_CONTEXT ( ( #118 ) ) GLOBAL_UNIT_ASSIGNED_CONTEXT ( ( #152, #60, #135 ) ) REPRESENTATION_CONTEXT ( 'NONE', 'WORKASPACE' ) );
#232 =( LENGTH_UNIT ( ) NAMED_UNIT ( * ) SI_UNIT ( $, .METRE. ) );
#233 = EDGE_CURVE ( 'NONE', #181, #123, #177, .T. ) ;
#234 = DIRECTION ( 'NONE',  ( -1.000000000000000000, 0.0000000000000000000, 0.0000000000000000000 ) ) ;
#235 = DIRECTION ( 'NONE',  ( -0.0000000000000000000, -0.0000000000000000000, -1.000000000000000000 ) ) ;
#236 = ORIENTED_EDGE ( 'NONE', *, *, #45, .T. ) ;
#237 = PRODUCT_DEFINITION_SHAPE ( 'NONE', 'NONE',  #90 ) ;
#238 = CARTESIAN_POINT ( 'NONE',  ( -0.003936999999999995191, -7.473223394776848033E-18, 2.244094000000000033 ) ) ;
#239 = EDGE_CURVE ( 'NONE', #52, #181, #180, .T. ) ;
#240 = FILL_AREA_STYLE_COLOUR ( '', #17 ) ;
#241 = DIRECTION ( 'NONE',  ( 0.0000000000000000000, 0.0000000000000000000, 1.000000000000000000 ) ) ;
#242 = ORIENTED_EDGE ( 'NONE', *, *, #126, .T. ) ;
#243 = AXIS2_PLACEMENT_3D ( 'NONE', #225, #249, #22 ) ;
#244 = DIRECTION ( 'NONE',  ( 0.5000000000000013323, 0.0000000000000000000, 0.8660254037844377084 ) ) ;
#245 = ADVANCED_FACE ( 'NONE', ( #23 ), #199, .T. ) ;
#246 = DIRECTION ( 'NONE',  ( -0.0000000000000000000, -0.0000000000000000000, -1.000000000000000000 ) ) ;
#247 = CARTESIAN_POINT ( 'NONE',  ( 0.0000000000000000000, 0.0000000000000000000, 2.244094000000000033 ) ) ;
#248 = FACE_OUTER_BOUND ( 'NONE', #109, .T. ) ;
#249 = DIRECTION ( 'NONE',  ( 0.0000000000000000000, 0.0000000000000000000, -1.000000000000000000 ) ) ;
ENDSEC;
END-ISO-10303-21;
