ISO-10303-21;
HEADER;
FILE_DESCRIPTION (( 'STEP AP214' ),
    '1' );
FILE_NAME ('03242.STEP',
    '2023-06-22T15:04:43',
    ( '' ),
    ( '' ),
    'SwSTEP 2.0',
    'SolidWorks 2023',
    '' );
FILE_SCHEMA (( 'AUTOMOTIVE_DESIGN' ));
ENDSEC;

DATA;
#1 = SURFACE_STYLE_USAGE ( .BOTH. , #289 ) ;
#2 = ADVANCED_FACE ( 'NONE', ( #168 ), #267, .F. ) ;
#3 = FILL_AREA_STYLE_COLOUR ( '', #116 ) ;
#4 = SURFACE_STYLE_FILL_AREA ( #146 ) ;
#5 = AXIS2_PLACEMENT_3D ( 'NONE', #120, #287, #217 ) ;
#6 = AXIS2_PLACEMENT_3D ( 'NONE', #200, #132, #65 ) ;
#7 = DIRECTION ( 'NONE',  ( 0.000000000000000000, 0.000000000000000000, -1.000000000000000000 ) ) ;
#8 = CARTESIAN_POINT ( 'NONE',  ( 0.000000000000000000, 0.4374999999999998890, 0.000000000000000000 ) ) ;
#9 = FACE_OUTER_BOUND ( 'NONE', #233, .T. ) ;
#10 = LINE ( 'NONE', #221, #159 ) ;
#11 =( NAMED_UNIT ( * ) SI_UNIT ( $, .STERADIAN. ) SOLID_ANGLE_UNIT ( ) );
#12 = ADVANCED_BREP_SHAPE_REPRESENTATION ( '03242', ( #85, #80, #184 ), #27 ) ;
#13 = ORIENTED_EDGE ( 'NONE', *, *, #127, .F. ) ;
#14 = PLANE ( 'NONE',  #99 ) ;
#15 = EDGE_CURVE ( 'NONE', #115, #180, #165, .T. ) ;
#16 =( NAMED_UNIT ( * ) PLANE_ANGLE_UNIT ( ) SI_UNIT ( $, .RADIAN. ) );
#17 = ORIENTED_EDGE ( 'NONE', *, *, #164, .F. ) ;
#18 = PRODUCT_DEFINITION_SHAPE ( 'NONE', 'NONE',  #76 ) ;
#19 = FILL_AREA_STYLE ('',( #237 ) ) ;
#20 = CIRCLE ( 'NONE', #5, 0.1562499999999997780 ) ;
#21 = AXIS2_PLACEMENT_3D ( 'NONE', #103, #83, #7 ) ;
#22 = ORIENTED_EDGE ( 'NONE', *, *, #91, .F. ) ;
#23 = ORIENTED_EDGE ( 'NONE', *, *, #66, .F. ) ;
#24 =( NAMED_UNIT ( * ) SI_UNIT ( $, .STERADIAN. ) SOLID_ANGLE_UNIT ( ) );
#25 = PRODUCT_RELATED_PRODUCT_CATEGORY ( 'part', '', ( #299 ) ) ;
#26 = VECTOR ( 'NONE', #295, 39.37007874015748143 ) ;
#27 =( GEOMETRIC_REPRESENTATION_CONTEXT ( 3 ) GLOBAL_UNCERTAINTY_ASSIGNED_CONTEXT ( ( #128 ) ) GLOBAL_UNIT_ASSIGNED_CONTEXT ( ( #197, #246, #11 ) ) REPRESENTATION_CONTEXT ( 'NONE', 'WORKASPACE' ) );
#28 = DIRECTION ( 'NONE',  ( 1.567547902908612085E-16, 1.000000000000000000, -0.000000000000000000 ) ) ;
#29 = DIRECTION ( 'NONE',  ( -1.000000000000000000, 0.000000000000000000, 0.000000000000000000 ) ) ;
#30 = CARTESIAN_POINT ( 'NONE',  ( 0.000000000000000000, 0.4374999999999998890, 0.000000000000000000 ) ) ;
#31 = DIRECTION ( 'NONE',  ( -1.000000000000000000, 0.000000000000000000, 0.000000000000000000 ) ) ;
#32 = LENGTH_MEASURE_WITH_UNIT ( LENGTH_MEASURE( 0.02539999999999999897 ), #62 );
#33 = PRODUCT_CONTEXT ( 'NONE', #161, 'mechanical' ) ;
#34 = AXIS2_PLACEMENT_3D ( 'NONE', #126, #290, #223 ) ;
#35 = AXIS2_PLACEMENT_3D ( 'NONE', #156, #248, #86 ) ;
#36 = LINE ( 'NONE', #157, #291 ) ;
#37 = DIRECTION ( 'NONE',  ( 1.000000000000000000, 0.000000000000000000, 0.000000000000000000 ) ) ;
#38 = CIRCLE ( 'NONE', #250, 0.1562499999999997780 ) ;
#39 = MECHANICAL_DESIGN_GEOMETRIC_PRESENTATION_REPRESENTATION (  '', ( #210 ), #292 ) ;
#40 = AXIS2_PLACEMENT_3D ( 'NONE', #63, #154, #29 ) ;
#41 = EDGE_LOOP ( 'NONE', ( #202, #240 ) ) ;
#42 =( NAMED_UNIT ( * ) PLANE_ANGLE_UNIT ( ) SI_UNIT ( $, .RADIAN. ) );
#43 = LENGTH_MEASURE_WITH_UNIT ( LENGTH_MEASURE( 0.02539999999999999897 ), #229 );
#44 = FILL_AREA_STYLE ('',( #304 ) ) ;
#45 = ORIENTED_EDGE ( 'NONE', *, *, #91, .T. ) ;
#46 = FILL_AREA_STYLE_COLOUR ( '', #138 ) ;
#47 = CIRCLE ( 'NONE', #92, 0.1562500000000000000 ) ;
#48 = CARTESIAN_POINT ( 'NONE',  ( -0.1562500000000000000, 0.4374999999999998890, 0.000000000000000000 ) ) ;
#49 = ADVANCED_FACE ( 'NONE', ( #60 ), #225, .T. ) ;
#50 =( LENGTH_UNIT ( ) NAMED_UNIT ( * ) SI_UNIT ( $, .METRE. ) );
#51 = EDGE_LOOP ( 'NONE', ( #160, #209, #226, #219 ) ) ;
#52 =( NAMED_UNIT ( * ) PLANE_ANGLE_UNIT ( ) SI_UNIT ( $, .RADIAN. ) );
#53 = PRESENTATION_STYLE_ASSIGNMENT (( #264 ) ) ;
#54 = EDGE_CURVE ( 'NONE', #285, #130, #47, .T. ) ;
#55 = CYLINDRICAL_SURFACE ( 'NONE', #59, 0.1562499999999998612 ) ;
#56 = PRESENTATION_STYLE_ASSIGNMENT (( #192 ) ) ;
#57 = FACE_OUTER_BOUND ( 'NONE', #185, .T. ) ;
#58 = PRESENTATION_LAYER_ASSIGNMENT (  '', '', ( #119 ) ) ;
#59 = AXIS2_PLACEMENT_3D ( 'NONE', #150, #105, #125 ) ;
#60 = FACE_OUTER_BOUND ( 'NONE', #89, .T. ) ;
#61 = EDGE_LOOP ( 'NONE', ( #243, #23 ) ) ;
#62 =( LENGTH_UNIT ( ) NAMED_UNIT ( * ) SI_UNIT ( $, .METRE. ) );
#63 = CARTESIAN_POINT ( 'NONE',  ( 0.000000000000000000, 0.4374999999999998890, 0.000000000000000000 ) ) ;
#64 =( GEOMETRIC_REPRESENTATION_CONTEXT ( 3 ) GLOBAL_UNCERTAINTY_ASSIGNED_CONTEXT ( ( #114 ) ) GLOBAL_UNIT_ASSIGNED_CONTEXT ( ( #195, #42, #67 ) ) REPRESENTATION_CONTEXT ( 'NONE', 'WORKASPACE' ) );
#65 = DIRECTION ( 'NONE',  ( 0.000000000000000000, 0.000000000000000000, -1.000000000000000000 ) ) ;
#66 = EDGE_CURVE ( 'NONE', #135, #82, #205, .T. ) ;
#67 =( NAMED_UNIT ( * ) SI_UNIT ( $, .STERADIAN. ) SOLID_ANGLE_UNIT ( ) );
#68 = APPLICATION_PROTOCOL_DEFINITION ( 'draft international standard', 'automotive_design', 1998, #161 ) ;
#69 = EDGE_CURVE ( 'NONE', #285, #115, #152, .T. ) ;
#70 = PRESENTATION_STYLE_ASSIGNMENT (( #72 ) ) ;
#71 = DIRECTION ( 'NONE',  ( 0.000000000000000000, 0.000000000000000000, -1.000000000000000000 ) ) ;
#72 = SURFACE_STYLE_USAGE ( .BOTH. , #253 ) ;
#73 = LENGTH_MEASURE_WITH_UNIT ( LENGTH_MEASURE( 0.02539999999999999897 ), #305 );
#74 = MECHANICAL_DESIGN_GEOMETRIC_PRESENTATION_REPRESENTATION (  '', ( #231 ), #308 ) ;
#75 = MECHANICAL_DESIGN_GEOMETRIC_PRESENTATION_REPRESENTATION (  '', ( #79 ), #302 ) ;
#76 = PRODUCT_DEFINITION ( 'UNKNOWN', '', #297, #190 ) ;
#77 = CARTESIAN_POINT ( 'NONE',  ( 0.1562500000000000000, 2.000000000000000000, 0.000000000000000000 ) ) ;
#78 = AXIS2_PLACEMENT_3D ( 'NONE', #244, #216, #177 ) ;
#79 = STYLED_ITEM ( 'NONE', ( #70 ), #134 ) ;
#80 = MANIFOLD_SOLID_BREP ( 'Revolve - Tool Body (Straight Shanked)', #286 ) ;
#81 = DIMENSIONAL_EXPONENTS ( 1.000000000000000000, 0.000000000000000000, 0.000000000000000000, 0.000000000000000000, 0.000000000000000000, 0.000000000000000000, 0.000000000000000000 ) ;
#82 = VERTEX_POINT ( 'NONE', #48 ) ;
#83 = DIRECTION ( 'NONE',  ( -0.000000000000000000, -1.000000000000000000, -0.000000000000000000 ) ) ;
#84 = DIRECTION ( 'NONE',  ( 1.567547902908612085E-16, 1.000000000000000000, -0.000000000000000000 ) ) ;
#85 = MANIFOLD_SOLID_BREP ( 'Revolve - Cutting Edge', #123 ) ;
#86 = DIRECTION ( 'NONE',  ( 0.000000000000000000, 0.000000000000000000, -1.000000000000000000 ) ) ;
#87 = CARTESIAN_POINT ( 'NONE',  ( 0.1562500000000000000, 0.4374999999999998890, 1.913510623667738539E-17 ) ) ;
#88 = ORIENTED_EDGE ( 'NONE', *, *, #97, .T. ) ;
#89 = EDGE_LOOP ( 'NONE', ( #303, #88, #22, #144 ) ) ;
#90 = DIRECTION ( 'NONE',  ( -1.000000000000000000, 1.567547902908612085E-16, 0.000000000000000000 ) ) ;
#91 = EDGE_CURVE ( 'NONE', #212, #214, #38, .T. ) ;
#92 = AXIS2_PLACEMENT_3D ( 'NONE', #30, #175, #171 ) ;
#93 = COLOUR_RGB ( '',1.000000000000000000, 0.000000000000000000, 0.000000000000000000 ) ;
#94 = APPLICATION_PROTOCOL_DEFINITION ( 'draft international standard', 'automotive_design', 1998, #170 ) ;
#95 = DIRECTION ( 'NONE',  ( 0.000000000000000000, -0.000000000000000000, 1.000000000000000000 ) ) ;
#96 = LENGTH_MEASURE_WITH_UNIT ( LENGTH_MEASURE( 0.02539999999999999897 ), #155 );
#97 = EDGE_CURVE ( 'NONE', #135, #214, #36, .T. ) ;
#98 =( NAMED_UNIT ( * ) SI_UNIT ( $, .STERADIAN. ) SOLID_ANGLE_UNIT ( ) );
#99 = AXIS2_PLACEMENT_3D ( 'NONE', #77, #206, #183 ) ;
#100 = PRESENTATION_STYLE_ASSIGNMENT (( #1 ) ) ;
#101 = UNCERTAINTY_MEASURE_WITH_UNIT (LENGTH_MEASURE( 1.000000000000000082E-05 ), #236, 'distance_accuracy_value', 'NONE');
#102 =( NAMED_UNIT ( * ) SI_UNIT ( $, .STERADIAN. ) SOLID_ANGLE_UNIT ( ) );
#103 = CARTESIAN_POINT ( 'NONE',  ( 0.000000000000000000, 0.4374999999999998890, 0.000000000000000000 ) ) ;
#104 = AXIS2_PLACEMENT_3D ( 'NONE', #247, #151, #90 ) ;
#105 = DIRECTION ( 'NONE',  ( 1.567547902908612085E-16, 1.000000000000000000, -0.000000000000000000 ) ) ;
#106 = AXIS2_PLACEMENT_3D ( 'NONE', #280, #255, #71 ) ;
#107 = ORIENTED_EDGE ( 'NONE', *, *, #164, .T. ) ;
#108 = CARTESIAN_POINT ( 'NONE',  ( 0.000000000000000000, 0.000000000000000000, -0.1562500000000000000 ) ) ;
#109 = DIMENSIONAL_EXPONENTS ( 1.000000000000000000, 0.000000000000000000, 0.000000000000000000, 0.000000000000000000, 0.000000000000000000, 0.000000000000000000, 0.000000000000000000 ) ;
#110 = DIRECTION ( 'NONE',  ( 0.000000000000000000, 1.000000000000000000, 0.000000000000000000 ) ) ;
#111 = EDGE_CURVE ( 'NONE', #82, #212, #10, .T. ) ;
#112 = DIMENSIONAL_EXPONENTS ( 1.000000000000000000, 0.000000000000000000, 0.000000000000000000, 0.000000000000000000, 0.000000000000000000, 0.000000000000000000, 0.000000000000000000 ) ;
#113 = AXIS2_PLACEMENT_3D ( 'NONE', #8, #188, #271 ) ;
#114 = UNCERTAINTY_MEASURE_WITH_UNIT (LENGTH_MEASURE( 1.000000000000000082E-05 ), #195, 'distance_accuracy_value', 'NONE');
#115 = VERTEX_POINT ( 'NONE', #261 ) ;
#116 = COLOUR_RGB ( '',1.000000000000000000, 0.000000000000000000, 0.000000000000000000 ) ;
#117 = EDGE_CURVE ( 'NONE', #214, #212, #20, .T. ) ;
#118 = FACE_OUTER_BOUND ( 'NONE', #189, .T. ) ;
#119 = STYLED_ITEM ( 'NONE', ( #56 ), #80 ) ;
#120 = CARTESIAN_POINT ( 'NONE',  ( 2.449293598294706414E-16, 2.000000000000000000, 0.000000000000000000 ) ) ;
#121 = PRESENTATION_STYLE_ASSIGNMENT (( #235 ) ) ;
#122 = PLANE ( 'NONE',  #232 ) ;
#123 = CLOSED_SHELL ( 'NONE', ( #134, #245, #256, #276 ) ) ;
#124 = PRESENTATION_LAYER_ASSIGNMENT (  '', '', ( #210 ) ) ;
#125 = DIRECTION ( 'NONE',  ( -1.000000000000000000, 0.000000000000000000, 0.000000000000000000 ) ) ;
#126 = CARTESIAN_POINT ( 'NONE',  ( 2.449293598294706414E-16, 2.000000000000000000, 0.000000000000000000 ) ) ;
#127 = EDGE_CURVE ( 'NONE', #130, #285, #224, .T. ) ;
#128 = UNCERTAINTY_MEASURE_WITH_UNIT (LENGTH_MEASURE( 1.000000000000000082E-05 ), #197, 'distance_accuracy_value', 'NONE');
#129 = SURFACE_STYLE_FILL_AREA ( #213 ) ;
#130 = VERTEX_POINT ( 'NONE', #272 ) ;
#131 = STYLED_ITEM ( 'NONE', ( #100 ), #245 ) ;
#132 = DIRECTION ( 'NONE',  ( 0.000000000000000000, -1.000000000000000000, -0.000000000000000000 ) ) ;
#133 = DIMENSIONAL_EXPONENTS ( 1.000000000000000000, 0.000000000000000000, 0.000000000000000000, 0.000000000000000000, 0.000000000000000000, 0.000000000000000000, 0.000000000000000000 ) ;
#134 = ADVANCED_FACE ( 'NONE', ( #9 ), #300, .T. ) ;
#135 = VERTEX_POINT ( 'NONE', #87 ) ;
#136 = PRESENTATION_STYLE_ASSIGNMENT (( #204 ) ) ;
#137 =( CONVERSION_BASED_UNIT ( 'INCH', #43 ) LENGTH_UNIT ( ) NAMED_UNIT ( #265 ) );
#138 = COLOUR_RGB ( '',1.000000000000000000, 0.000000000000000000, 0.000000000000000000 ) ;
#139 = SURFACE_STYLE_FILL_AREA ( #19 ) ;
#140 = LENGTH_MEASURE_WITH_UNIT ( LENGTH_MEASURE( 0.02539999999999999897 ), #50 );
#141 = CARTESIAN_POINT ( 'NONE',  ( 2.449293598294706414E-16, 2.000000000000000000, 0.000000000000000000 ) ) ;
#142 = UNCERTAINTY_MEASURE_WITH_UNIT (LENGTH_MEASURE( 1.000000000000000082E-05 ), #145, 'distance_accuracy_value', 'NONE');
#143 = SURFACE_SIDE_STYLE ('',( #139 ) ) ;
#144 = ORIENTED_EDGE ( 'NONE', *, *, #111, .F. ) ;
#145 =( CONVERSION_BASED_UNIT ( 'INCH', #266 ) LENGTH_UNIT ( ) NAMED_UNIT ( #133 ) );
#146 = FILL_AREA_STYLE ('',( #269 ) ) ;
#147 = ORIENTED_EDGE ( 'NONE', *, *, #69, .T. ) ;
#148 = UNCERTAINTY_MEASURE_WITH_UNIT (LENGTH_MEASURE( 1.000000000000000082E-05 ), #191, 'distance_accuracy_value', 'NONE');
#149 = LENGTH_MEASURE_WITH_UNIT ( LENGTH_MEASURE( 0.02539999999999999897 ), #288 );
#150 = CARTESIAN_POINT ( 'NONE',  ( 2.449293598294706414E-16, 2.000000000000000000, 0.000000000000000000 ) ) ;
#151 = DIRECTION ( 'NONE',  ( 1.567547902908612085E-16, 1.000000000000000000, -0.000000000000000000 ) ) ;
#152 = LINE ( 'NONE', #108, #26 ) ;
#153 = CARTESIAN_POINT ( 'NONE',  ( 0.000000000000000000, 0.000000000000000000, 0.000000000000000000 ) ) ;
#154 = DIRECTION ( 'NONE',  ( 1.567547902908612085E-16, 1.000000000000000000, -0.000000000000000000 ) ) ;
#155 =( LENGTH_UNIT ( ) NAMED_UNIT ( * ) SI_UNIT ( $, .METRE. ) );
#156 = CARTESIAN_POINT ( 'NONE',  ( 0.000000000000000000, 0.000000000000000000, 0.000000000000000000 ) ) ;
#157 = CARTESIAN_POINT ( 'NONE',  ( 0.1562500000000001110, 2.000000000000000000, 1.913510623667737923E-17 ) ) ;
#158 =( NAMED_UNIT ( * ) SI_UNIT ( $, .STERADIAN. ) SOLID_ANGLE_UNIT ( ) );
#159 = VECTOR ( 'NONE', #28, 39.37007874015748143 ) ;
#160 = ORIENTED_EDGE ( 'NONE', *, *, #97, .F. ) ;
#161 = APPLICATION_CONTEXT ( 'automotive_design' ) ;
#162 = ORIENTED_EDGE ( 'NONE', *, *, #298, .F. ) ;
#163 = FACE_OUTER_BOUND ( 'NONE', #41, .T. ) ;
#164 = EDGE_CURVE ( 'NONE', #130, #180, #222, .T. ) ;
#165 = CIRCLE ( 'NONE', #78, 0.1562500000000000000 ) ;
#166 = CYLINDRICAL_SURFACE ( 'NONE', #106, 0.1562500000000000000 ) ;
#167 =( NAMED_UNIT ( * ) PLANE_ANGLE_UNIT ( ) SI_UNIT ( $, .RADIAN. ) );
#168 = FACE_OUTER_BOUND ( 'NONE', #61, .T. ) ;
#169 = ADVANCED_FACE ( 'NONE', ( #263 ), #55, .T. ) ;
#170 = APPLICATION_CONTEXT ( 'automotive_design' ) ;
#171 = DIRECTION ( 'NONE',  ( 0.000000000000000000, 0.000000000000000000, -1.000000000000000000 ) ) ;
#172 = CIRCLE ( 'NONE', #40, 0.1562500000000000000 ) ;
#173 = ORIENTED_EDGE ( 'NONE', *, *, #127, .T. ) ;
#174 = CARTESIAN_POINT ( 'NONE',  ( 1.913510623667739463E-17, 0.000000000000000000, 0.1562500000000000000 ) ) ;
#175 = DIRECTION ( 'NONE',  ( -0.000000000000000000, -1.000000000000000000, -0.000000000000000000 ) ) ;
#176 = CARTESIAN_POINT ( 'NONE',  ( 0.000000000000000000, 0.4374999999999998890, 0.000000000000000000 ) ) ;
#177 = DIRECTION ( 'NONE',  ( 0.000000000000000000, 0.000000000000000000, -1.000000000000000000 ) ) ;
#178 = ORIENTED_EDGE ( 'NONE', *, *, #54, .F. ) ;
#179 = CARTESIAN_POINT ( 'NONE',  ( 0.000000000000000000, 0.4374999999999998890, -0.1562500000000000000 ) ) ;
#180 = VERTEX_POINT ( 'NONE', #174 ) ;
#181 = EDGE_CURVE ( 'NONE', #82, #135, #172, .T. ) ;
#182 = EDGE_LOOP ( 'NONE', ( #17, #173, #147, #162 ) ) ;
#183 = DIRECTION ( 'NONE',  ( 1.000000000000000000, -1.567547902908612085E-16, 0.000000000000000000 ) ) ;
#184 = AXIS2_PLACEMENT_3D ( 'NONE', #153, #275, #37 ) ;
#185 = EDGE_LOOP ( 'NONE', ( #178, #13 ) ) ;
#186 = COLOUR_RGB ( '',1.000000000000000000, 0.000000000000000000, 0.000000000000000000 ) ;
#187 = DIRECTION ( 'NONE',  ( -0.000000000000000000, -1.000000000000000000, -0.000000000000000000 ) ) ;
#188 = DIRECTION ( 'NONE',  ( 1.567547902908612085E-16, 1.000000000000000000, -0.000000000000000000 ) ) ;
#189 = EDGE_LOOP ( 'NONE', ( #45, #268 ) ) ;
#190 = PRODUCT_DEFINITION_CONTEXT ( 'detailed design', #170, 'design' ) ;
#191 =( CONVERSION_BASED_UNIT ( 'INCH', #149 ) LENGTH_UNIT ( ) NAMED_UNIT ( #203 ) );
#192 = SURFACE_STYLE_USAGE ( .BOTH. , #239 ) ;
#193 = VECTOR ( 'NONE', #294, 39.37007874015748143 ) ;
#194 = CARTESIAN_POINT ( 'NONE',  ( 1.913510623667739463E-17, 0.000000000000000000, 0.1562500000000000000 ) ) ;
#195 =( CONVERSION_BASED_UNIT ( 'INCH', #32 ) LENGTH_UNIT ( ) NAMED_UNIT ( #109 ) );
#196 = ORIENTED_EDGE ( 'NONE', *, *, #54, .T. ) ;
#197 =( CONVERSION_BASED_UNIT ( 'INCH', #96 ) LENGTH_UNIT ( ) NAMED_UNIT ( #228 ) );
#198 = SHAPE_DEFINITION_REPRESENTATION ( #18, #12 ) ;
#199 = COLOUR_RGB ( '',0.7921568627450980005, 0.8196078431372548767, 0.9333333333333333481 ) ;
#200 = CARTESIAN_POINT ( 'NONE',  ( 0.000000000000000000, 0.000000000000000000, 0.000000000000000000 ) ) ;
#201 = SURFACE_STYLE_FILL_AREA ( #44 ) ;
#202 = ORIENTED_EDGE ( 'NONE', *, *, #15, .T. ) ;
#203 = DIMENSIONAL_EXPONENTS ( 1.000000000000000000, 0.000000000000000000, 0.000000000000000000, 0.000000000000000000, 0.000000000000000000, 0.000000000000000000, 0.000000000000000000 ) ;
#204 = SURFACE_STYLE_USAGE ( .BOTH. , #257 ) ;
#205 = CIRCLE ( 'NONE', #113, 0.1562500000000000000 ) ;
#206 = DIRECTION ( 'NONE',  ( -1.567547902908612085E-16, -1.000000000000000000, 0.000000000000000000 ) ) ;
#207 =( NAMED_UNIT ( * ) SI_UNIT ( $, .STERADIAN. ) SOLID_ANGLE_UNIT ( ) );
#208 = SURFACE_STYLE_FILL_AREA ( #281 ) ;
#209 = ORIENTED_EDGE ( 'NONE', *, *, #66, .T. ) ;
#210 = STYLED_ITEM ( 'NONE', ( #136 ), #256 ) ;
#211 = FACE_OUTER_BOUND ( 'NONE', #182, .T. ) ;
#212 = VERTEX_POINT ( 'NONE', #215 ) ;
#213 = FILL_AREA_STYLE ('',( #3 ) ) ;
#214 = VERTEX_POINT ( 'NONE', #241 ) ;
#215 = CARTESIAN_POINT ( 'NONE',  ( -0.1562499999999995282, 2.000000000000000000, 0.000000000000000000 ) ) ;
#216 = DIRECTION ( 'NONE',  ( -0.000000000000000000, -1.000000000000000000, -0.000000000000000000 ) ) ;
#217 = DIRECTION ( 'NONE',  ( -1.000000000000000000, 0.000000000000000000, 0.000000000000000000 ) ) ;
#218 = SURFACE_SIDE_STYLE ('',( #259 ) ) ;
#219 = ORIENTED_EDGE ( 'NONE', *, *, #117, .F. ) ;
#220 =( LENGTH_UNIT ( ) NAMED_UNIT ( * ) SI_UNIT ( $, .METRE. ) );
#221 = CARTESIAN_POINT ( 'NONE',  ( -0.1562499999999996392, 2.000000000000000000, 0.000000000000000000 ) ) ;
#222 = LINE ( 'NONE', #194, #193 ) ;
#223 = DIRECTION ( 'NONE',  ( -1.000000000000000000, 0.000000000000000000, 0.000000000000000000 ) ) ;
#224 = CIRCLE ( 'NONE', #21, 0.1562500000000000000 ) ;
#225 = CYLINDRICAL_SURFACE ( 'NONE', #34, 0.1562499999999998612 ) ;
#226 = ORIENTED_EDGE ( 'NONE', *, *, #111, .T. ) ;
#227 = MECHANICAL_DESIGN_GEOMETRIC_PRESENTATION_REPRESENTATION (  '', ( #131 ), #242 ) ;
#228 = DIMENSIONAL_EXPONENTS ( 1.000000000000000000, 0.000000000000000000, 0.000000000000000000, 0.000000000000000000, 0.000000000000000000, 0.000000000000000000, 0.000000000000000000 ) ;
#229 =( LENGTH_UNIT ( ) NAMED_UNIT ( * ) SI_UNIT ( $, .METRE. ) );
#230 = FILL_AREA_STYLE ('',( #46 ) ) ;
#231 = STYLED_ITEM ( 'NONE', ( #121 ), #85 ) ;
#232 = AXIS2_PLACEMENT_3D ( 'NONE', #176, #110, #95 ) ;
#233 = EDGE_LOOP ( 'NONE', ( #196, #107, #301, #293 ) ) ;
#234 = UNCERTAINTY_MEASURE_WITH_UNIT (LENGTH_MEASURE( 1.000000000000000082E-05 ), #137, 'distance_accuracy_value', 'NONE');
#235 = SURFACE_STYLE_USAGE ( .BOTH. , #143 ) ;
#236 =( CONVERSION_BASED_UNIT ( 'INCH', #140 ) LENGTH_UNIT ( ) NAMED_UNIT ( #81 ) );
#237 = FILL_AREA_STYLE_COLOUR ( '', #199 ) ;
#238 = PRESENTATION_LAYER_ASSIGNMENT (  '', '', ( #79 ) ) ;
#239 = SURFACE_SIDE_STYLE ('',( #4 ) ) ;
#240 = ORIENTED_EDGE ( 'NONE', *, *, #298, .T. ) ;
#241 = CARTESIAN_POINT ( 'NONE',  ( 0.1562500000000000000, 2.000000000000000000, 1.913510623667738539E-17 ) ) ;
#242 =( GEOMETRIC_REPRESENTATION_CONTEXT ( 3 ) GLOBAL_UNCERTAINTY_ASSIGNED_CONTEXT ( ( #142 ) ) GLOBAL_UNIT_ASSIGNED_CONTEXT ( ( #145, #52, #24 ) ) REPRESENTATION_CONTEXT ( 'NONE', 'WORKASPACE' ) );
#243 = ORIENTED_EDGE ( 'NONE', *, *, #181, .F. ) ;
#244 = CARTESIAN_POINT ( 'NONE',  ( 0.000000000000000000, 0.000000000000000000, 0.000000000000000000 ) ) ;
#245 = ADVANCED_FACE ( 'NONE', ( #57 ), #122, .T. ) ;
#246 =( NAMED_UNIT ( * ) PLANE_ANGLE_UNIT ( ) SI_UNIT ( $, .RADIAN. ) );
#247 = CARTESIAN_POINT ( 'NONE',  ( 1.919692521807178203E-33, 0.4374999999999998890, 0.000000000000000000 ) ) ;
#248 = DIRECTION ( 'NONE',  ( -0.000000000000000000, -1.000000000000000000, -0.000000000000000000 ) ) ;
#249 = DIRECTION ( 'NONE',  ( 1.567547902908612085E-16, 1.000000000000000000, -0.000000000000000000 ) ) ;
#250 = AXIS2_PLACEMENT_3D ( 'NONE', #141, #84, #31 ) ;
#251 =( GEOMETRIC_REPRESENTATION_CONTEXT ( 3 ) GLOBAL_UNCERTAINTY_ASSIGNED_CONTEXT ( ( #148 ) ) GLOBAL_UNIT_ASSIGNED_CONTEXT ( ( #191, #274, #158 ) ) REPRESENTATION_CONTEXT ( 'NONE', 'WORKASPACE' ) );
#252 = ADVANCED_FACE ( 'NONE', ( #118 ), #14, .F. ) ;
#253 = SURFACE_SIDE_STYLE ('',( #201 ) ) ;
#254 = PLANE ( 'NONE',  #6 ) ;
#255 = DIRECTION ( 'NONE',  ( -0.000000000000000000, -1.000000000000000000, -0.000000000000000000 ) ) ;
#256 = ADVANCED_FACE ( 'NONE', ( #211 ), #166, .T. ) ;
#257 = SURFACE_SIDE_STYLE ('',( #208 ) ) ;
#258 = FILL_AREA_STYLE_COLOUR ( '', #93 ) ;
#259 = SURFACE_STYLE_FILL_AREA ( #230 ) ;
#260 = CIRCLE ( 'NONE', #35, 0.1562500000000000000 ) ;
#261 = CARTESIAN_POINT ( 'NONE',  ( 0.000000000000000000, 0.000000000000000000, -0.1562500000000000000 ) ) ;
#262 = DIRECTION ( 'NONE',  ( 0.000000000000000000, 0.000000000000000000, -1.000000000000000000 ) ) ;
#263 = FACE_OUTER_BOUND ( 'NONE', #51, .T. ) ;
#264 = SURFACE_STYLE_USAGE ( .BOTH. , #218 ) ;
#265 = DIMENSIONAL_EXPONENTS ( 1.000000000000000000, 0.000000000000000000, 0.000000000000000000, 0.000000000000000000, 0.000000000000000000, 0.000000000000000000, 0.000000000000000000 ) ;
#266 = LENGTH_MEASURE_WITH_UNIT ( LENGTH_MEASURE( 0.02539999999999999897 ), #220 );
#267 = PLANE ( 'NONE',  #104 ) ;
#268 = ORIENTED_EDGE ( 'NONE', *, *, #117, .T. ) ;
#269 = FILL_AREA_STYLE_COLOUR ( '', #277 ) ;
#270 = CARTESIAN_POINT ( 'NONE',  ( 0.000000000000000000, 0.000000000000000000, 0.000000000000000000 ) ) ;
#271 = DIRECTION ( 'NONE',  ( -1.000000000000000000, 0.000000000000000000, 0.000000000000000000 ) ) ;
#272 = CARTESIAN_POINT ( 'NONE',  ( 1.913510623667739463E-17, 0.4374999999999998890, 0.1562500000000000000 ) ) ;
#273 = PRESENTATION_LAYER_ASSIGNMENT (  '', '', ( #284 ) ) ;
#274 =( NAMED_UNIT ( * ) PLANE_ANGLE_UNIT ( ) SI_UNIT ( $, .RADIAN. ) );
#275 = DIRECTION ( 'NONE',  ( 0.000000000000000000, 0.000000000000000000, 1.000000000000000000 ) ) ;
#276 = ADVANCED_FACE ( 'NONE', ( #163 ), #254, .T. ) ;
#277 = COLOUR_RGB ( '',0.7921568627450980005, 0.8196078431372548767, 0.9333333333333333481 ) ;
#278 = UNCERTAINTY_MEASURE_WITH_UNIT (LENGTH_MEASURE( 1.000000000000000082E-05 ), #282, 'distance_accuracy_value', 'NONE');
#279 = MECHANICAL_DESIGN_GEOMETRIC_PRESENTATION_REPRESENTATION (  '', ( #284 ), #251 ) ;
#280 = CARTESIAN_POINT ( 'NONE',  ( 0.000000000000000000, 0.000000000000000000, 0.000000000000000000 ) ) ;
#281 = FILL_AREA_STYLE ('',( #258 ) ) ;
#282 =( CONVERSION_BASED_UNIT ( 'INCH', #73 ) LENGTH_UNIT ( ) NAMED_UNIT ( #112 ) );
#283 = MECHANICAL_DESIGN_GEOMETRIC_PRESENTATION_REPRESENTATION (  '', ( #119 ), #64 ) ;
#284 = STYLED_ITEM ( 'NONE', ( #53 ), #276 ) ;
#285 = VERTEX_POINT ( 'NONE', #179 ) ;
#286 = CLOSED_SHELL ( 'NONE', ( #49, #2, #169, #252 ) ) ;
#287 = DIRECTION ( 'NONE',  ( 1.567547902908612085E-16, 1.000000000000000000, -0.000000000000000000 ) ) ;
#288 =( LENGTH_UNIT ( ) NAMED_UNIT ( * ) SI_UNIT ( $, .METRE. ) );
#289 = SURFACE_SIDE_STYLE ('',( #129 ) ) ;
#290 = DIRECTION ( 'NONE',  ( 1.567547902908612085E-16, 1.000000000000000000, -0.000000000000000000 ) ) ;
#291 = VECTOR ( 'NONE', #249, 39.37007874015748143 ) ;
#292 =( GEOMETRIC_REPRESENTATION_CONTEXT ( 3 ) GLOBAL_UNCERTAINTY_ASSIGNED_CONTEXT ( ( #101 ) ) GLOBAL_UNIT_ASSIGNED_CONTEXT ( ( #236, #307, #98 ) ) REPRESENTATION_CONTEXT ( 'NONE', 'WORKASPACE' ) );
#293 = ORIENTED_EDGE ( 'NONE', *, *, #69, .F. ) ;
#294 = DIRECTION ( 'NONE',  ( -0.000000000000000000, -1.000000000000000000, -0.000000000000000000 ) ) ;
#295 = DIRECTION ( 'NONE',  ( -0.000000000000000000, -1.000000000000000000, -0.000000000000000000 ) ) ;
#296 = PRESENTATION_LAYER_ASSIGNMENT (  '', '', ( #131 ) ) ;
#297 = PRODUCT_DEFINITION_FORMATION_WITH_SPECIFIED_SOURCE ( 'ANY', '', #299, .NOT_KNOWN. ) ;
#298 = EDGE_CURVE ( 'NONE', #180, #115, #260, .T. ) ;
#299 = PRODUCT ( '03242', '03242', '', ( #33 ) ) ;
#300 = CYLINDRICAL_SURFACE ( 'NONE', #309, 0.1562500000000000000 ) ;
#301 = ORIENTED_EDGE ( 'NONE', *, *, #15, .F. ) ;
#302 =( GEOMETRIC_REPRESENTATION_CONTEXT ( 3 ) GLOBAL_UNCERTAINTY_ASSIGNED_CONTEXT ( ( #234 ) ) GLOBAL_UNIT_ASSIGNED_CONTEXT ( ( #137, #16, #207 ) ) REPRESENTATION_CONTEXT ( 'NONE', 'WORKASPACE' ) );
#303 = ORIENTED_EDGE ( 'NONE', *, *, #181, .T. ) ;
#304 = FILL_AREA_STYLE_COLOUR ( '', #186 ) ;
#305 =( LENGTH_UNIT ( ) NAMED_UNIT ( * ) SI_UNIT ( $, .METRE. ) );
#306 = PRESENTATION_LAYER_ASSIGNMENT (  '', '', ( #231 ) ) ;
#307 =( NAMED_UNIT ( * ) PLANE_ANGLE_UNIT ( ) SI_UNIT ( $, .RADIAN. ) );
#308 =( GEOMETRIC_REPRESENTATION_CONTEXT ( 3 ) GLOBAL_UNCERTAINTY_ASSIGNED_CONTEXT ( ( #278 ) ) GLOBAL_UNIT_ASSIGNED_CONTEXT ( ( #282, #167, #102 ) ) REPRESENTATION_CONTEXT ( 'NONE', 'WORKASPACE' ) );
#309 = AXIS2_PLACEMENT_3D ( 'NONE', #270, #187, #262 ) ;
ENDSEC;
END-ISO-10303-21;
