ISO-10303-21;
HEADER;
FILE_DESCRIPTION (( 'STEP AP214' ),
    '1' );
FILE_NAME ('Micro_GEM-500-4.STEP',
    '2021-09-01T20:50:02',
    ( '' ),
    ( '' ),
    'SwSTEP 2.0',
    'SolidWorks 2020',
    '' );
FILE_SCHEMA (( 'AUTOMOTIVE_DESIGN' ));
ENDSEC;

DATA;
#1 = ORIENTED_EDGE ( 'NONE', *, *, #138, .F. ) ;
#2 = DIRECTION ( 'NONE',  ( -1.224646799147353454E-16, -0.0000000000000000000, -1.000000000000000000 ) ) ;
#3 = ORIENTED_EDGE ( 'NONE', *, *, #270, .T. ) ;
#4 = FACE_OUTER_BOUND ( 'NONE', #52, .T. ) ;
#5 = CIRCLE ( 'NONE', #162, 0.2497499999999999998 ) ;
#6 = ORIENTED_EDGE ( 'NONE', *, *, #19, .T. ) ;
#7 = FACE_OUTER_BOUND ( 'NONE', #122, .T. ) ;
#8 = VERTEX_POINT ( 'NONE', #188 ) ;
#9 = DIMENSIONAL_EXPONENTS ( 1.000000000000000000, 0.0000000000000000000, 0.0000000000000000000, 0.0000000000000000000, 0.0000000000000000000, 0.0000000000000000000, 0.0000000000000000000 ) ;
#10 = ORIENTED_EDGE ( 'NONE', *, *, #156, .F. ) ;
#11 = DIRECTION ( 'NONE',  ( -0.1736481776669312194, 2.126576849575783625E-17, 0.9848077530122080203 ) ) ;
#12 = AXIS2_PLACEMENT_3D ( 'NONE', #209, #187, #225 ) ;
#13 = PLANE ( 'NONE',  #279 ) ;
#14 = AXIS2_PLACEMENT_3D ( 'NONE', #87, #295, #198 ) ;
#15 = LINE ( 'NONE', #202, #134 ) ;
#16 = DIRECTION ( 'NONE',  ( 1.000000000000000000, 0.0000000000000000000, -0.0000000000000000000 ) ) ;
#17 = LINE ( 'NONE', #114, #277 ) ;
#18 = PRESENTATION_LAYER_ASSIGNMENT (  '', '', ( #207 ) ) ;
#19 = EDGE_CURVE ( 'NONE', #163, #287, #79, .T. ) ;
#20 = CARTESIAN_POINT ( 'NONE',  ( 1.224646799147353454E-16, 0.0000000000000000000, 1.000000000000000000 ) ) ;
#21 = AXIS2_PLACEMENT_3D ( 'NONE', #182, #116, #203 ) ;
#22 = COLOUR_RGB ( '',0.7921568627450980005, 0.8196078431372548767, 0.9333333333333333481 ) ;
#23 = CARTESIAN_POINT ( 'NONE',  ( 0.0000000000000000000, 0.0000000000000000000, 0.0000000000000000000 ) ) ;
#24 = ADVANCED_FACE ( 'NONE', ( #58 ), #196, .T. ) ;
#25 = AXIS2_PLACEMENT_3D ( 'NONE', #23, #36, #275 ) ;
#26 = CIRCLE ( 'NONE', #184, 0.2497499999999999998 ) ;
#27 = DIRECTION ( 'NONE',  ( -1.000000000000000000, 0.0000000000000000000, 0.0000000000000000000 ) ) ;
#28 = UNCERTAINTY_MEASURE_WITH_UNIT (LENGTH_MEASURE( 1.000000000000000082E-05 ), #41, 'distance_accuracy_value', 'NONE');
#29 = VERTEX_POINT ( 'NONE', #120 ) ;
#30 = DIRECTION ( 'NONE',  ( -0.0000000000000000000, -0.0000000000000000000, -1.000000000000000000 ) ) ;
#31 = ORIENTED_EDGE ( 'NONE', *, *, #92, .F. ) ;
#32 =( NAMED_UNIT ( * ) SI_UNIT ( $, .STERADIAN. ) SOLID_ANGLE_UNIT ( ) );
#33 = ORIENTED_EDGE ( 'NONE', *, *, #258, .T. ) ;
#34 = EDGE_CURVE ( 'NONE', #97, #83, #158, .T. ) ;
#35 = DIRECTION ( 'NONE',  ( 1.000000000000000000, 0.0000000000000000000, 0.0000000000000000000 ) ) ;
#36 = DIRECTION ( 'NONE',  ( -1.224646799147353454E-16, -0.0000000000000000000, -1.000000000000000000 ) ) ;
#37 = VERTEX_POINT ( 'NONE', #133 ) ;
#38 = CARTESIAN_POINT ( 'NONE',  ( 0.0000000000000000000, 0.0000000000000000000, 3.000000000000000444 ) ) ;
#39 = FILL_AREA_STYLE ('',( #131 ) ) ;
#40 = LENGTH_MEASURE_WITH_UNIT ( LENGTH_MEASURE( 0.02539999999999999897 ), #266 );
#41 =( CONVERSION_BASED_UNIT ( 'INCH', #165 ) LENGTH_UNIT ( ) NAMED_UNIT ( #220 ) );
#42 = EDGE_CURVE ( 'NONE', #37, #97, #15, .T. ) ;
#43 = LINE ( 'NONE', #271, #143 ) ;
#44 = SHAPE_DEFINITION_REPRESENTATION ( #197, #171 ) ;
#45 = FACE_OUTER_BOUND ( 'NONE', #121, .T. ) ;
#46 = DIRECTION ( 'NONE',  ( -1.224646799147353454E-16, -0.0000000000000000000, -1.000000000000000000 ) ) ;
#47 = EDGE_CURVE ( 'NONE', #287, #8, #75, .T. ) ;
#48 = SURFACE_STYLE_FILL_AREA ( #113 ) ;
#49 = CARTESIAN_POINT ( 'NONE',  ( 0.2350000000000011524, 2.877919977996294002E-17, 3.000000000000000444 ) ) ;
#50 = CARTESIAN_POINT ( 'NONE',  ( -0.2497499999999999998, 0.0000000000000000000, 6.117110761741031132E-17 ) ) ;
#51 = VECTOR ( 'NONE', #110, 39.37007874015748854 ) ;
#52 = EDGE_LOOP ( 'NONE', ( #195, #214, #280, #260 ) ) ;
#53 = VECTOR ( 'NONE', #106, 39.37007874015748143 ) ;
#54 = STYLED_ITEM ( 'NONE', ( #272 ), #171 ) ;
#55 = ORIENTED_EDGE ( 'NONE', *, *, #47, .F. ) ;
#56 = DIMENSIONAL_EXPONENTS ( 1.000000000000000000, 0.0000000000000000000, 0.0000000000000000000, 0.0000000000000000000, 0.0000000000000000000, 0.0000000000000000000, 0.0000000000000000000 ) ;
#57 = ORIENTED_EDGE ( 'NONE', *, *, #19, .F. ) ;
#58 = FACE_OUTER_BOUND ( 'NONE', #144, .T. ) ;
#59 =( CONVERSION_BASED_UNIT ( 'INCH', #285 ) LENGTH_UNIT ( ) NAMED_UNIT ( #56 ) );
#60 = ORIENTED_EDGE ( 'NONE', *, *, #118, .T. ) ;
#61 = AXIS2_PLACEMENT_3D ( 'NONE', #132, #180, #112 ) ;
#62 = CARTESIAN_POINT ( 'NONE',  ( 0.0000000000000000000, 0.0000000000000000000, 3.000000000000000444 ) ) ;
#63 = CARTESIAN_POINT ( 'NONE',  ( 0.0000000000000000000, 0.0000000000000000000, 3.000000000000000444 ) ) ;
#64 = DIRECTION ( 'NONE',  ( 1.000000000000000000, 0.0000000000000000000, 0.0000000000000000000 ) ) ;
#65 = SURFACE_SIDE_STYLE ('',( #48 ) ) ;
#66 = DIRECTION ( 'NONE',  ( -1.224646799147353454E-16, -0.0000000000000000000, -1.000000000000000000 ) ) ;
#67 = DIRECTION ( 'NONE',  ( -0.0000000000000000000, -0.0000000000000000000, -1.000000000000000000 ) ) ;
#68 =( NAMED_UNIT ( * ) SI_UNIT ( $, .STERADIAN. ) SOLID_ANGLE_UNIT ( ) );
#69 = CARTESIAN_POINT ( 'NONE',  ( -0.2500000000000000000, 0.0000000000000000000, 2.985000000000001208 ) ) ;
#70 = AXIS2_PLACEMENT_3D ( 'NONE', #154, #290, #241 ) ;
#71 =( GEOMETRIC_REPRESENTATION_CONTEXT ( 3 ) GLOBAL_UNCERTAINTY_ASSIGNED_CONTEXT ( ( #161 ) ) GLOBAL_UNIT_ASSIGNED_CONTEXT ( ( #59, #179, #274 ) ) REPRESENTATION_CONTEXT ( 'NONE', 'WORKASPACE' ) );
#72 = EDGE_LOOP ( 'NONE', ( #169, #124, #6, #284 ) ) ;
#73 = AXIS2_PLACEMENT_3D ( 'NONE', #215, #145, #239 ) ;
#74 = FACE_OUTER_BOUND ( 'NONE', #183, .T. ) ;
#75 = CIRCLE ( 'NONE', #117, 0.2497499999999999998 ) ;
#76 = EDGE_LOOP ( 'NONE', ( #212, #210, #80, #91 ) ) ;
#77 = EDGE_CURVE ( 'NONE', #8, #287, #26, .T. ) ;
#78 = DIRECTION ( 'NONE',  ( 1.000000000000000000, 0.0000000000000000000, 0.0000000000000000000 ) ) ;
#79 = LINE ( 'NONE', #167, #53 ) ;
#80 = ORIENTED_EDGE ( 'NONE', *, *, #296, .F. ) ;
#81 = CARTESIAN_POINT ( 'NONE',  ( 0.0000000000000000000, 0.0000000000000000000, 3.000000000000000444 ) ) ;
#82 = AXIS2_PLACEMENT_3D ( 'NONE', #63, #142, #27 ) ;
#83 = VERTEX_POINT ( 'NONE', #155 ) ;
#84 = SURFACE_STYLE_USAGE ( .BOTH. , #65 ) ;
#85 = SURFACE_SIDE_STYLE ('',( #219 ) ) ;
#86 = CARTESIAN_POINT ( 'NONE',  ( 3.745650057197990990E-33, 0.0000000000000000000, 3.058555380870515566E-17 ) ) ;
#87 = CARTESIAN_POINT ( 'NONE',  ( 1.224646799147353454E-16, 0.0000000000000000000, 1.000000000000000000 ) ) ;
#88 = FILL_AREA_STYLE_COLOUR ( '', #107 ) ;
#89 = EDGE_CURVE ( 'NONE', #191, #139, #201, .T. ) ;
#90 = DIRECTION ( 'NONE',  ( -1.224646799147353454E-16, -0.0000000000000000000, -1.000000000000000000 ) ) ;
#91 = ORIENTED_EDGE ( 'NONE', *, *, #89, .F. ) ;
#92 = EDGE_CURVE ( 'NONE', #163, #37, #226, .T. ) ;
#93 = CONICAL_SURFACE ( 'NONE', #157, 0.2350000000000011524, 0.7853981633974380649 ) ;
#94 = VECTOR ( 'NONE', #2, 39.37007874015748143 ) ;
#95 = ORIENTED_EDGE ( 'NONE', *, *, #92, .T. ) ;
#96 = DIRECTION ( 'NONE',  ( 1.224646799147353454E-16, 0.0000000000000000000, 1.000000000000000000 ) ) ;
#97 = VERTEX_POINT ( 'NONE', #222 ) ;
#98 = LINE ( 'NONE', #101, #189 ) ;
#99 = CIRCLE ( 'NONE', #230, 0.2500000000000000000 ) ;
#100 = ORIENTED_EDGE ( 'NONE', *, *, #199, .T. ) ;
#101 = CARTESIAN_POINT ( 'NONE',  ( -0.2497499999999998888, 3.058555380870514950E-17, 1.000000000000000000 ) ) ;
#102 = EDGE_LOOP ( 'NONE', ( #10, #234, #216, #282 ) ) ;
#103 = FACE_OUTER_BOUND ( 'NONE', #140, .T. ) ;
#104 = EDGE_CURVE ( 'NONE', #265, #139, #99, .T. ) ;
#105 = CLOSED_SHELL ( 'NONE', ( #137, #264, #228, #24, #168, #218, #204, #193, #298, #115 ) ) ;
#106 = DIRECTION ( 'NONE',  ( -1.224646799147353454E-16, -0.0000000000000000000, -1.000000000000000000 ) ) ;
#107 = COLOUR_RGB ( '',0.7921568627450980005, 0.8196078431372548767, 0.9333333333333333481 ) ;
#108 = DIRECTION ( 'NONE',  ( 0.0000000000000000000, 0.0000000000000000000, 1.000000000000000000 ) ) ;
#109 = CIRCLE ( 'NONE', #61, 0.2500000000000000000 ) ;
#110 = DIRECTION ( 'NONE',  ( 0.7071067811865402453, 8.659560562354845344E-17, -0.7071067811865546782 ) ) ;
#111 = DIRECTION ( 'NONE',  ( 0.1736481776669314137, 0.0000000000000000000, 0.9848077530122077983 ) ) ;
#112 = DIRECTION ( 'NONE',  ( 1.000000000000000000, 0.0000000000000000000, 0.0000000000000000000 ) ) ;
#113 = FILL_AREA_STYLE ('',( #88 ) ) ;
#114 = CARTESIAN_POINT ( 'NONE',  ( -0.2500000000000000000, 0.0000000000000000000, 3.000000000000000444 ) ) ;
#115 = ADVANCED_FACE ( 'NONE', ( #45 ), #13, .F. ) ;
#116 = DIRECTION ( 'NONE',  ( 0.0000000000000000000, 0.0000000000000000000, -1.000000000000000000 ) ) ;
#117 = AXIS2_PLACEMENT_3D ( 'NONE', #200, #129, #292 ) ;
#118 = EDGE_CURVE ( 'NONE', #83, #97, #109, .T. ) ;
#119 = PRODUCT_DEFINITION_FORMATION_WITH_SPECIFIED_SOURCE ( 'ANY', '', #150, .NOT_KNOWN. ) ;
#120 = CARTESIAN_POINT ( 'NONE',  ( 0.2350000000000011524, 2.969768487932338510E-17, 3.000000000000000444 ) ) ;
#121 = EDGE_LOOP ( 'NONE', ( #289, #166 ) ) ;
#122 = EDGE_LOOP ( 'NONE', ( #100, #3 ) ) ;
#123 = CARTESIAN_POINT ( 'NONE',  ( 1.224646799147353454E-16, 0.0000000000000000000, 1.000000000000000000 ) ) ;
#124 = ORIENTED_EDGE ( 'NONE', *, *, #276, .T. ) ;
#125 = EDGE_CURVE ( 'NONE', #265, #97, #43, .T. ) ;
#126 = FACE_OUTER_BOUND ( 'NONE', #102, .T. ) ;
#127 = ORIENTED_EDGE ( 'NONE', *, *, #296, .T. ) ;
#128 = DIRECTION ( 'NONE',  ( 1.224646799147353454E-16, 0.0000000000000000000, 1.000000000000000000 ) ) ;
#129 = DIRECTION ( 'NONE',  ( -1.224646799147353454E-16, -0.0000000000000000000, -1.000000000000000000 ) ) ;
#130 = MECHANICAL_DESIGN_GEOMETRIC_PRESENTATION_REPRESENTATION (  '', ( #207 ), #255 ) ;
#131 = FILL_AREA_STYLE_COLOUR ( '', #22 ) ;
#132 = CARTESIAN_POINT ( 'NONE',  ( 1.226383128429217700E-16, 0.0000000000000000000, 1.001417820454904462 ) ) ;
#133 = CARTESIAN_POINT ( 'NONE',  ( 0.2497500000000001386, 0.0000000000000000000, 1.000000000000000000 ) ) ;
#134 = VECTOR ( 'NONE', #111, 39.37007874015748143 ) ;
#135 = AXIS2_PLACEMENT_3D ( 'NONE', #81, #30, #237 ) ;
#136 = CONICAL_SURFACE ( 'NONE', #176, 0.2497499999999999998, 0.1745329251994339192 ) ;
#137 = ADVANCED_FACE ( 'NONE', ( #153 ), #291, .T. ) ;
#138 = EDGE_CURVE ( 'NONE', #139, #83, #17, .T. ) ;
#139 = VERTEX_POINT ( 'NONE', #69 ) ;
#140 = EDGE_LOOP ( 'NONE', ( #31, #33, #60, #146 ) ) ;
#141 = CARTESIAN_POINT ( 'NONE',  ( -0.2350000000000011524, 0.0000000000000000000, 3.000000000000000444 ) ) ;
#142 = DIRECTION ( 'NONE',  ( -0.0000000000000000000, -0.0000000000000000000, -1.000000000000000000 ) ) ;
#143 = VECTOR ( 'NONE', #67, 39.37007874015748143 ) ;
#144 = EDGE_LOOP ( 'NONE', ( #127, #231, #257, #1 ) ) ;
#145 = DIRECTION ( 'NONE',  ( 0.0000000000000000000, 0.0000000000000000000, -1.000000000000000000 ) ) ;
#146 = ORIENTED_EDGE ( 'NONE', *, *, #42, .F. ) ;
#147 =( NAMED_UNIT ( * ) PLANE_ANGLE_UNIT ( ) SI_UNIT ( $, .RADIAN. ) );
#148 = DIRECTION ( 'NONE',  ( 1.000000000000000000, 0.0000000000000000000, -0.0000000000000000000 ) ) ;
#149 = PRODUCT_CONTEXT ( 'NONE', #244, 'mechanical' ) ;
#150 = PRODUCT ( 'Micro_GEM-500-4', 'Micro_GEM-500-4', '', ( #149 ) ) ;
#151 = VECTOR ( 'NONE', #269, 39.37007874015748854 ) ;
#152 = CARTESIAN_POINT ( 'NONE',  ( 0.0000000000000000000, 0.0000000000000000000, 2.985000000000001208 ) ) ;
#153 = FACE_OUTER_BOUND ( 'NONE', #236, .T. ) ;
#154 = CARTESIAN_POINT ( 'NONE',  ( 0.0000000000000000000, 0.0000000000000000000, 0.0000000000000000000 ) ) ;
#155 = CARTESIAN_POINT ( 'NONE',  ( -0.2499999999999998612, 0.0000000000000000000, 1.001417820454904462 ) ) ;
#156 = EDGE_CURVE ( 'NONE', #29, #265, #248, .T. ) ;
#157 = AXIS2_PLACEMENT_3D ( 'NONE', #38, #173, #190 ) ;
#158 = CIRCLE ( 'NONE', #251, 0.2500000000000000000 ) ;
#159 = DIRECTION ( 'NONE',  ( -1.224646799147353454E-16, -0.0000000000000000000, -1.000000000000000000 ) ) ;
#160 = MANIFOLD_SOLID_BREP ( 'Cut-Revolve1', #105 ) ;
#161 = UNCERTAINTY_MEASURE_WITH_UNIT (LENGTH_MEASURE( 1.000000000000000082E-05 ), #59, 'distance_accuracy_value', 'NONE');
#162 = AXIS2_PLACEMENT_3D ( 'NONE', #20, #159, #252 ) ;
#163 = VERTEX_POINT ( 'NONE', #217 ) ;
#164 = CIRCLE ( 'NONE', #21, 0.2500000000000000000 ) ;
#165 = LENGTH_MEASURE_WITH_UNIT ( LENGTH_MEASURE( 0.02539999999999999897 ), #235 );
#166 = ORIENTED_EDGE ( 'NONE', *, *, #77, .T. ) ;
#167 = CARTESIAN_POINT ( 'NONE',  ( -0.2497499999999999998, 0.0000000000000000000, 3.058555380870515566E-17 ) ) ;
#168 = ADVANCED_FACE ( 'NONE', ( #74 ), #240, .T. ) ;
#169 = ORIENTED_EDGE ( 'NONE', *, *, #185, .F. ) ;
#170 =( NAMED_UNIT ( * ) PLANE_ANGLE_UNIT ( ) SI_UNIT ( $, .RADIAN. ) );
#171 = ADVANCED_BREP_SHAPE_REPRESENTATION ( 'Micro_GEM-500-4', ( #160, #70 ), #71 ) ;
#172 = ORIENTED_EDGE ( 'NONE', *, *, #138, .T. ) ;
#173 = DIRECTION ( 'NONE',  ( 0.0000000000000000000, 0.0000000000000000000, -1.000000000000000000 ) ) ;
#174 = SURFACE_STYLE_USAGE ( .BOTH. , #85 ) ;
#175 = DIRECTION ( 'NONE',  ( -1.000000000000000000, 0.0000000000000000000, 1.224646799147353700E-16 ) ) ;
#176 = AXIS2_PLACEMENT_3D ( 'NONE', #123, #96, #78 ) ;
#177 = APPLICATION_PROTOCOL_DEFINITION ( 'draft international standard', 'automotive_design', 1998, #205 ) ;
#178 = CARTESIAN_POINT ( 'NONE',  ( 0.0000000000000000000, 0.0000000000000000000, 0.0000000000000000000 ) ) ;
#179 =( NAMED_UNIT ( * ) PLANE_ANGLE_UNIT ( ) SI_UNIT ( $, .RADIAN. ) );
#180 = DIRECTION ( 'NONE',  ( -1.224646799147353454E-16, -0.0000000000000000000, -1.000000000000000000 ) ) ;
#181 = PRESENTATION_LAYER_ASSIGNMENT (  '', '', ( #54 ) ) ;
#182 = CARTESIAN_POINT ( 'NONE',  ( 0.0000000000000000000, 0.0000000000000000000, 2.985000000000001208 ) ) ;
#183 = EDGE_LOOP ( 'NONE', ( #238, #263, #172, #259 ) ) ;
#184 = AXIS2_PLACEMENT_3D ( 'NONE', #86, #90, #175 ) ;
#185 = EDGE_CURVE ( 'NONE', #37, #8, #194, .T. ) ;
#186 = ORIENTED_EDGE ( 'NONE', *, *, #185, .T. ) ;
#187 = DIRECTION ( 'NONE',  ( 0.0000000000000000000, 0.0000000000000000000, 1.000000000000000000 ) ) ;
#188 = CARTESIAN_POINT ( 'NONE',  ( 0.2497499999999999998, 3.058555380870514950E-17, 0.0000000000000000000 ) ) ;
#189 = VECTOR ( 'NONE', #11, 39.37007874015747433 ) ;
#190 = DIRECTION ( 'NONE',  ( -1.000000000000000000, 0.0000000000000000000, 0.0000000000000000000 ) ) ;
#191 = VERTEX_POINT ( 'NONE', #141 ) ;
#192 =( LENGTH_UNIT ( ) NAMED_UNIT ( * ) SI_UNIT ( $, .METRE. ) );
#193 = ADVANCED_FACE ( 'NONE', ( #4 ), #136, .T. ) ;
#194 = LINE ( 'NONE', #211, #94 ) ;
#195 = ORIENTED_EDGE ( 'NONE', *, *, #258, .F. ) ;
#196 = CYLINDRICAL_SURFACE ( 'NONE', #82, 0.2500000000000000000 ) ;
#197 = PRODUCT_DEFINITION_SHAPE ( 'NONE', 'NONE',  #278 ) ;
#198 = DIRECTION ( 'NONE',  ( -1.000000000000000000, 0.0000000000000000000, 0.0000000000000000000 ) ) ;
#199 = EDGE_CURVE ( 'NONE', #191, #29, #299, .T. ) ;
#200 = CARTESIAN_POINT ( 'NONE',  ( 3.745650057197990990E-33, 0.0000000000000000000, 3.058555380870515566E-17 ) ) ;
#201 = LINE ( 'NONE', #293, #151 ) ;
#202 = CARTESIAN_POINT ( 'NONE',  ( 0.2497500000000001386, 0.0000000000000000000, 1.000000000000000000 ) ) ;
#203 = DIRECTION ( 'NONE',  ( 1.000000000000000000, 0.0000000000000000000, 0.0000000000000000000 ) ) ;
#204 = ADVANCED_FACE ( 'NONE', ( #126 ), #206, .T. ) ;
#205 = APPLICATION_CONTEXT ( 'automotive_design' ) ;
#206 = CONICAL_SURFACE ( 'NONE', #73, 0.2350000000000011524, 0.7853981633974380649 ) ;
#207 = STYLED_ITEM ( 'NONE', ( #268 ), #160 ) ;
#208 = CARTESIAN_POINT ( 'NONE',  ( 1.226383128429217700E-16, 0.0000000000000000000, 1.001417820454904462 ) ) ;
#209 = CARTESIAN_POINT ( 'NONE',  ( 0.0000000000000000000, 0.0000000000000000000, 3.000000000000000444 ) ) ;
#210 = ORIENTED_EDGE ( 'NONE', *, *, #156, .T. ) ;
#211 = CARTESIAN_POINT ( 'NONE',  ( 0.2497499999999999998, 3.058555380870514950E-17, -3.058555380870515566E-17 ) ) ;
#212 = ORIENTED_EDGE ( 'NONE', *, *, #270, .F. ) ;
#213 = DIRECTION ( 'NONE',  ( 0.0000000000000000000, 0.0000000000000000000, 1.000000000000000000 ) ) ;
#214 = ORIENTED_EDGE ( 'NONE', *, *, #276, .F. ) ;
#215 = CARTESIAN_POINT ( 'NONE',  ( 0.0000000000000000000, 0.0000000000000000000, 3.000000000000000444 ) ) ;
#216 = ORIENTED_EDGE ( 'NONE', *, *, #89, .T. ) ;
#217 = CARTESIAN_POINT ( 'NONE',  ( -0.2497499999999998888, 3.060086189369449292E-17, 1.000000000000000000 ) ) ;
#218 = ADVANCED_FACE ( 'NONE', ( #7 ), #281, .T. ) ;
#219 = SURFACE_STYLE_FILL_AREA ( #39 ) ;
#220 = DIMENSIONAL_EXPONENTS ( 1.000000000000000000, 0.0000000000000000000, 0.0000000000000000000, 0.0000000000000000000, 0.0000000000000000000, 0.0000000000000000000, 0.0000000000000000000 ) ;
#221 = DIRECTION ( 'NONE',  ( 1.000000000000000000, 0.0000000000000000000, 0.0000000000000000000 ) ) ;
#222 = CARTESIAN_POINT ( 'NONE',  ( 0.2500000000000001110, 3.061616997868383634E-17, 1.001417820454904462 ) ) ;
#223 = DIRECTION ( 'NONE',  ( -1.000000000000000000, 0.0000000000000000000, 1.224646799147353700E-16 ) ) ;
#224 = PRODUCT_RELATED_PRODUCT_CATEGORY ( 'part', '', ( #150 ) ) ;
#225 = DIRECTION ( 'NONE',  ( 1.000000000000000000, 0.0000000000000000000, 0.0000000000000000000 ) ) ;
#226 = CIRCLE ( 'NONE', #14, 0.2497499999999999998 ) ;
#227 = CYLINDRICAL_SURFACE ( 'NONE', #25, 0.2497499999999999998 ) ;
#228 = ADVANCED_FACE ( 'NONE', ( #233 ), #93, .T. ) ;
#229 = PRODUCT_DEFINITION_CONTEXT ( 'detailed design', #205, 'design' ) ;
#230 = AXIS2_PLACEMENT_3D ( 'NONE', #152, #245, #64 ) ;
#231 = ORIENTED_EDGE ( 'NONE', *, *, #125, .T. ) ;
#232 = UNCERTAINTY_MEASURE_WITH_UNIT (LENGTH_MEASURE( 1.000000000000000082E-05 ), #246, 'distance_accuracy_value', 'NONE');
#233 = FACE_OUTER_BOUND ( 'NONE', #76, .T. ) ;
#234 = ORIENTED_EDGE ( 'NONE', *, *, #199, .F. ) ;
#235 =( LENGTH_UNIT ( ) NAMED_UNIT ( * ) SI_UNIT ( $, .METRE. ) );
#236 = EDGE_LOOP ( 'NONE', ( #95, #186, #55, #57 ) ) ;
#237 = DIRECTION ( 'NONE',  ( -1.000000000000000000, 0.0000000000000000000, 0.0000000000000000000 ) ) ;
#238 = ORIENTED_EDGE ( 'NONE', *, *, #125, .F. ) ;
#239 = DIRECTION ( 'NONE',  ( -1.000000000000000000, 0.0000000000000000000, 0.0000000000000000000 ) ) ;
#240 = CYLINDRICAL_SURFACE ( 'NONE', #135, 0.2500000000000000000 ) ;
#241 = DIRECTION ( 'NONE',  ( 1.000000000000000000, 0.0000000000000000000, 0.0000000000000000000 ) ) ;
#242 = CARTESIAN_POINT ( 'NONE',  ( 0.2500000000000000000, 3.061616997868382402E-17, 2.985000000000001208 ) ) ;
#243 = DIRECTION ( 'NONE',  ( 0.0000000000000000000, 0.0000000000000000000, 1.000000000000000000 ) ) ;
#244 = APPLICATION_CONTEXT ( 'automotive_design' ) ;
#245 = DIRECTION ( 'NONE',  ( 0.0000000000000000000, 0.0000000000000000000, -1.000000000000000000 ) ) ;
#246 =( CONVERSION_BASED_UNIT ( 'INCH', #40 ) LENGTH_UNIT ( ) NAMED_UNIT ( #9 ) );
#247 = CARTESIAN_POINT ( 'NONE',  ( 0.0000000000000000000, 0.0000000000000000000, 0.0000000000000000000 ) ) ;
#248 = LINE ( 'NONE', #49, #51 ) ;
#249 = AXIS2_PLACEMENT_3D ( 'NONE', #286, #108, #148 ) ;
#250 = APPLICATION_PROTOCOL_DEFINITION ( 'draft international standard', 'automotive_design', 1998, #244 ) ;
#251 = AXIS2_PLACEMENT_3D ( 'NONE', #208, #66, #221 ) ;
#252 = DIRECTION ( 'NONE',  ( -1.000000000000000000, 0.0000000000000000000, 0.0000000000000000000 ) ) ;
#253 = FACE_OUTER_BOUND ( 'NONE', #72, .T. ) ;
#254 = AXIS2_PLACEMENT_3D ( 'NONE', #261, #128, #267 ) ;
#255 =( GEOMETRIC_REPRESENTATION_CONTEXT ( 3 ) GLOBAL_UNCERTAINTY_ASSIGNED_CONTEXT ( ( #28 ) ) GLOBAL_UNIT_ASSIGNED_CONTEXT ( ( #41, #170, #32 ) ) REPRESENTATION_CONTEXT ( 'NONE', 'WORKASPACE' ) );
#256 = CIRCLE ( 'NONE', #12, 0.2350000000000011524 ) ;
#257 = ORIENTED_EDGE ( 'NONE', *, *, #118, .F. ) ;
#258 = EDGE_CURVE ( 'NONE', #163, #83, #98, .T. ) ;
#259 = ORIENTED_EDGE ( 'NONE', *, *, #34, .F. ) ;
#260 = ORIENTED_EDGE ( 'NONE', *, *, #34, .T. ) ;
#261 = CARTESIAN_POINT ( 'NONE',  ( 1.224646799147353454E-16, 0.0000000000000000000, 1.000000000000000000 ) ) ;
#262 = MECHANICAL_DESIGN_GEOMETRIC_PRESENTATION_REPRESENTATION (  '', ( #54 ), #297 ) ;
#263 = ORIENTED_EDGE ( 'NONE', *, *, #104, .T. ) ;
#264 = ADVANCED_FACE ( 'NONE', ( #103 ), #288, .T. ) ;
#265 = VERTEX_POINT ( 'NONE', #242 ) ;
#266 =( LENGTH_UNIT ( ) NAMED_UNIT ( * ) SI_UNIT ( $, .METRE. ) );
#267 = DIRECTION ( 'NONE',  ( 1.000000000000000000, 0.0000000000000000000, 0.0000000000000000000 ) ) ;
#268 = PRESENTATION_STYLE_ASSIGNMENT (( #174 ) ) ;
#269 = DIRECTION ( 'NONE',  ( -0.7071067811865402453, 0.0000000000000000000, -0.7071067811865546782 ) ) ;
#270 = EDGE_CURVE ( 'NONE', #29, #191, #256, .T. ) ;
#271 = CARTESIAN_POINT ( 'NONE',  ( 0.2500000000000000000, 3.061616997868382402E-17, 3.000000000000000444 ) ) ;
#272 = PRESENTATION_STYLE_ASSIGNMENT (( #84 ) ) ;
#273 = DIRECTION ( 'NONE',  ( -0.0000000000000000000, -0.0000000000000000000, -1.000000000000000000 ) ) ;
#274 =( NAMED_UNIT ( * ) SI_UNIT ( $, .STERADIAN. ) SOLID_ANGLE_UNIT ( ) );
#275 = DIRECTION ( 'NONE',  ( -1.000000000000000000, 0.0000000000000000000, 1.224646799147353700E-16 ) ) ;
#276 = EDGE_CURVE ( 'NONE', #37, #163, #5, .T. ) ;
#277 = VECTOR ( 'NONE', #273, 39.37007874015748143 ) ;
#278 = PRODUCT_DEFINITION ( 'UNKNOWN', '', #119, #229 ) ;
#279 = AXIS2_PLACEMENT_3D ( 'NONE', #178, #243, #16 ) ;
#280 = ORIENTED_EDGE ( 'NONE', *, *, #42, .T. ) ;
#281 = PLANE ( 'NONE',  #249 ) ;
#282 = ORIENTED_EDGE ( 'NONE', *, *, #104, .F. ) ;
#283 = AXIS2_PLACEMENT_3D ( 'NONE', #247, #46, #223 ) ;
#284 = ORIENTED_EDGE ( 'NONE', *, *, #77, .F. ) ;
#285 = LENGTH_MEASURE_WITH_UNIT ( LENGTH_MEASURE( 0.02539999999999999897 ), #192 );
#286 = CARTESIAN_POINT ( 'NONE',  ( 0.0000000000000000000, 0.0000000000000000000, 3.000000000000000444 ) ) ;
#287 = VERTEX_POINT ( 'NONE', #50 ) ;
#288 = CONICAL_SURFACE ( 'NONE', #254, 0.2497499999999999998, 0.1745329251994339192 ) ;
#289 = ORIENTED_EDGE ( 'NONE', *, *, #47, .T. ) ;
#290 = DIRECTION ( 'NONE',  ( 0.0000000000000000000, 0.0000000000000000000, 1.000000000000000000 ) ) ;
#291 = CYLINDRICAL_SURFACE ( 'NONE', #283, 0.2497499999999999998 ) ;
#292 = DIRECTION ( 'NONE',  ( -1.000000000000000000, 0.0000000000000000000, 1.224646799147353700E-16 ) ) ;
#293 = CARTESIAN_POINT ( 'NONE',  ( -0.2350000000000011524, 0.0000000000000000000, 3.000000000000000444 ) ) ;
#294 = AXIS2_PLACEMENT_3D ( 'NONE', #62, #213, #35 ) ;
#295 = DIRECTION ( 'NONE',  ( -1.224646799147353454E-16, -0.0000000000000000000, -1.000000000000000000 ) ) ;
#296 = EDGE_CURVE ( 'NONE', #139, #265, #164, .T. ) ;
#297 =( GEOMETRIC_REPRESENTATION_CONTEXT ( 3 ) GLOBAL_UNCERTAINTY_ASSIGNED_CONTEXT ( ( #232 ) ) GLOBAL_UNIT_ASSIGNED_CONTEXT ( ( #246, #147, #68 ) ) REPRESENTATION_CONTEXT ( 'NONE', 'WORKASPACE' ) );
#298 = ADVANCED_FACE ( 'NONE', ( #253 ), #227, .T. ) ;
#299 = CIRCLE ( 'NONE', #294, 0.2350000000000011524 ) ;
ENDSEC;
END-ISO-10303-21;
