ISO-10303-21;
HEADER;
FILE_DESCRIPTION (( 'STEP AP214' ),
    '1' );
FILE_NAME ('59815.STEP',
    '2023-07-12T13:06:01',
    ( '' ),
    ( '' ),
    'SwSTEP 2.0',
    'SolidWorks 2023',
    '' );
FILE_SCHEMA (( 'AUTOMOTIVE_DESIGN' ));
ENDSEC;

DATA;
#1 = DIRECTION ( 'NONE',  ( 0.000000000000000000, 0.000000000000000000, 1.000000000000000000 ) ) ;
#2 = CARTESIAN_POINT ( 'NONE',  ( 0.000000000000000000, 0.000000000000000000, 0.000000000000000000 ) ) ;
#3 = DIRECTION ( 'NONE',  ( 0.000000000000000000, 0.8660254037844380415, 0.5000000000000009992 ) ) ;
#4 = DIRECTION ( 'NONE',  ( 0.000000000000000000, 0.000000000000000000, -1.000000000000000000 ) ) ;
#5 = AXIS2_PLACEMENT_3D ( 'NONE', #123, #255, #148 ) ;
#6 =( GEOMETRIC_REPRESENTATION_CONTEXT ( 3 ) GLOBAL_UNCERTAINTY_ASSIGNED_CONTEXT ( ( #96 ) ) GLOBAL_UNIT_ASSIGNED_CONTEXT ( ( #182, #205, #281 ) ) REPRESENTATION_CONTEXT ( 'NONE', 'WORKASPACE' ) );
#7 = ORIENTED_EDGE ( 'NONE', *, *, #171, .T. ) ;
#8 = PLANE ( 'NONE',  #75 ) ;
#9 = EDGE_LOOP ( 'NONE', ( #121, #178 ) ) ;
#10 = SURFACE_STYLE_FILL_AREA ( #90 ) ;
#11 = EDGE_CURVE ( 'NONE', #191, #38, #263, .T. ) ;
#12 =( CONVERSION_BASED_UNIT ( 'INCH', #37 ) LENGTH_UNIT ( ) NAMED_UNIT ( #222 ) );
#13 = CIRCLE ( 'NONE', #95, 0.1249999999999996114 ) ;
#14 = PRESENTATION_STYLE_ASSIGNMENT (( #227 ) ) ;
#15 = DIMENSIONAL_EXPONENTS ( 1.000000000000000000, 0.000000000000000000, 0.000000000000000000, 0.000000000000000000, 0.000000000000000000, 0.000000000000000000, 0.000000000000000000 ) ;
#16 = CARTESIAN_POINT ( 'NONE',  ( 0.1249999999999999861, 2.500000000000000000, 0.000000000000000000 ) ) ;
#17 = STYLED_ITEM ( 'NONE', ( #23 ), #88 ) ;
#18 = LINE ( 'NONE', #111, #86 ) ;
#19 = ADVANCED_BREP_SHAPE_REPRESENTATION ( '59815', ( #88, #196, #165 ), #161 ) ;
#20 = CARTESIAN_POINT ( 'NONE',  ( 6.123233995736772199E-17, 2.500000000000000000, 0.000000000000000000 ) ) ;
#21 = AXIS2_PLACEMENT_3D ( 'NONE', #219, #176, #76 ) ;
#22 = DIRECTION ( 'NONE',  ( -1.226267609633526474E-16, 1.000000000000000000, -0.000000000000000000 ) ) ;
#23 = PRESENTATION_STYLE_ASSIGNMENT (( #166 ) ) ;
#24 = EDGE_CURVE ( 'NONE', #212, #38, #137, .T. ) ;
#25 =( LENGTH_UNIT ( ) NAMED_UNIT ( * ) SI_UNIT ( $, .METRE. ) );
#26 = COLOUR_RGB ( '',0.7921568627450980005, 0.8196078431372548767, 0.9333333333333333481 ) ;
#27 = UNCERTAINTY_MEASURE_WITH_UNIT (LENGTH_MEASURE( 1.000000000000000082E-05 ), #267, 'distance_accuracy_value', 'NONE');
#28 = SURFACE_SIDE_STYLE ('',( #186 ) ) ;
#29 = EDGE_LOOP ( 'NONE', ( #296, #151 ) ) ;
#30 = UNCERTAINTY_MEASURE_WITH_UNIT (LENGTH_MEASURE( 1.000000000000000082E-05 ), #221, 'distance_accuracy_value', 'NONE');
#31 =( NAMED_UNIT ( * ) SI_UNIT ( $, .STERADIAN. ) SOLID_ANGLE_UNIT ( ) );
#32 = VERTEX_POINT ( 'NONE', #247 ) ;
#33 = LENGTH_MEASURE_WITH_UNIT ( LENGTH_MEASURE( 0.02539999999999999897 ), #173 );
#34 = ORIENTED_EDGE ( 'NONE', *, *, #167, .T. ) ;
#35 = DIRECTION ( 'NONE',  ( -1.000000000000000000, 0.000000000000000000, 0.000000000000000000 ) ) ;
#36 = ORIENTED_EDGE ( 'NONE', *, *, #11, .F. ) ;
#37 = LENGTH_MEASURE_WITH_UNIT ( LENGTH_MEASURE( 0.02539999999999999897 ), #25 );
#38 = VERTEX_POINT ( 'NONE', #177 ) ;
#39 = DIMENSIONAL_EXPONENTS ( 1.000000000000000000, 0.000000000000000000, 0.000000000000000000, 0.000000000000000000, 0.000000000000000000, 0.000000000000000000, 0.000000000000000000 ) ;
#40 = SURFACE_STYLE_FILL_AREA ( #132 ) ;
#41 = DIRECTION ( 'NONE',  ( 0.000000000000000000, -0.000000000000000000, 1.000000000000000000 ) ) ;
#42 = CARTESIAN_POINT ( 'NONE',  ( 0.000000000000000000, 0.000000000000000000, 0.02999999999999999889 ) ) ;
#43 = AXIS2_PLACEMENT_3D ( 'NONE', #2, #243, #1 ) ;
#44 = EDGE_CURVE ( 'NONE', #32, #127, #279, .T. ) ;
#45 = DIRECTION ( 'NONE',  ( 0.000000000000000000, 0.000000000000000000, -1.000000000000000000 ) ) ;
#46 = ADVANCED_FACE ( 'NONE', ( #53 ), #92, .F. ) ;
#47 = CIRCLE ( 'NONE', #292, 0.1249999999999999584 ) ;
#48 = PLANE ( 'NONE',  #149 ) ;
#49 = CLOSED_SHELL ( 'NONE', ( #238, #144, #85, #152 ) ) ;
#50 = DIRECTION ( 'NONE',  ( -1.226267609633526474E-16, 1.000000000000000000, -0.000000000000000000 ) ) ;
#51 = MECHANICAL_DESIGN_GEOMETRIC_PRESENTATION_REPRESENTATION (  '', ( #304 ), #6 ) ;
#52 = UNCERTAINTY_MEASURE_WITH_UNIT (LENGTH_MEASURE( 1.000000000000000082E-05 ), #269, 'distance_accuracy_value', 'NONE');
#53 = FACE_OUTER_BOUND ( 'NONE', #9, .T. ) ;
#54 = DIRECTION ( 'NONE',  ( -0.000000000000000000, -1.000000000000000000, -0.000000000000000000 ) ) ;
#55 = ORIENTED_EDGE ( 'NONE', *, *, #230, .F. ) ;
#56 = UNCERTAINTY_MEASURE_WITH_UNIT (LENGTH_MEASURE( 1.000000000000000082E-05 ), #114, 'distance_accuracy_value', 'NONE');
#57 = CARTESIAN_POINT ( 'NONE',  ( 0.000000000000000000, 0.1645448267190428304, 0.000000000000000000 ) ) ;
#58 = VERTEX_POINT ( 'NONE', #126 ) ;
#59 = DIRECTION ( 'NONE',  ( 6.123233995736778362E-17, 0.8660254037844380415, -0.5000000000000009992 ) ) ;
#60 = PRESENTATION_STYLE_ASSIGNMENT (( #194 ) ) ;
#61 = DIRECTION ( 'NONE',  ( 0.000000000000000000, 0.000000000000000000, -1.000000000000000000 ) ) ;
#62 =( GEOMETRIC_REPRESENTATION_CONTEXT ( 3 ) GLOBAL_UNCERTAINTY_ASSIGNED_CONTEXT ( ( #147 ) ) GLOBAL_UNIT_ASSIGNED_CONTEXT ( ( #12, #128, #265 ) ) REPRESENTATION_CONTEXT ( 'NONE', 'WORKASPACE' ) );
#63 = ADVANCED_FACE ( 'NONE', ( #241 ), #101, .T. ) ;
#64 =( LENGTH_UNIT ( ) NAMED_UNIT ( * ) SI_UNIT ( $, .METRE. ) );
#65 = PRODUCT_CONTEXT ( 'NONE', #232, 'mechanical' ) ;
#66 = PRODUCT_RELATED_PRODUCT_CATEGORY ( 'part', '', ( #306 ) ) ;
#67 = FILL_AREA_STYLE_COLOUR ( '', #184 ) ;
#68 = MECHANICAL_DESIGN_GEOMETRIC_PRESENTATION_REPRESENTATION (  '', ( #189 ), #280 ) ;
#69 = FACE_OUTER_BOUND ( 'NONE', #154, .T. ) ;
#70 = PRESENTATION_LAYER_ASSIGNMENT (  '', '', ( #17 ) ) ;
#71 = FILL_AREA_STYLE_COLOUR ( '', #197 ) ;
#72 = FILL_AREA_STYLE_COLOUR ( '', #109 ) ;
#73 = FILL_AREA_STYLE_COLOUR ( '', #124 ) ;
#74 = CLOSED_SHELL ( 'NONE', ( #63, #46, #295, #226 ) ) ;
#75 = AXIS2_PLACEMENT_3D ( 'NONE', #104, #198, #61 ) ;
#76 = DIRECTION ( 'NONE',  ( -1.000000000000000000, 0.000000000000000000, 0.000000000000000000 ) ) ;
#77 = CARTESIAN_POINT ( 'NONE',  ( 0.1249999999999999861, 2.500000000000000000, 1.530808498934189660E-17 ) ) ;
#78 = SURFACE_STYLE_USAGE ( .BOTH. , #299 ) ;
#79 = PRODUCT_DEFINITION ( 'UNKNOWN', '', #224, #266 ) ;
#80 = STYLED_ITEM ( 'NONE', ( #14 ), #152 ) ;
#81 = DIMENSIONAL_EXPONENTS ( 1.000000000000000000, 0.000000000000000000, 0.000000000000000000, 0.000000000000000000, 0.000000000000000000, 0.000000000000000000, 0.000000000000000000 ) ;
#82 =( CONVERSION_BASED_UNIT ( 'INCH', #300 ) LENGTH_UNIT ( ) NAMED_UNIT ( #39 ) );
#83 =( LENGTH_UNIT ( ) NAMED_UNIT ( * ) SI_UNIT ( $, .METRE. ) );
#84 =( NAMED_UNIT ( * ) PLANE_ANGLE_UNIT ( ) SI_UNIT ( $, .RADIAN. ) );
#85 = ADVANCED_FACE ( 'NONE', ( #239 ), #285, .T. ) ;
#86 = VECTOR ( 'NONE', #22, 39.37007874015748143 ) ;
#87 = DIRECTION ( 'NONE',  ( -0.000000000000000000, -1.000000000000000000, -0.000000000000000000 ) ) ;
#88 = MANIFOLD_SOLID_BREP ( 'Revolve - Cutting Edge', #49 ) ;
#89 = PRESENTATION_STYLE_ASSIGNMENT (( #287 ) ) ;
#90 = FILL_AREA_STYLE ('',( #72 ) ) ;
#91 = DIRECTION ( 'NONE',  ( 0.000000000000000000, 0.000000000000000000, -1.000000000000000000 ) ) ;
#92 = PLANE ( 'NONE',  #5 ) ;
#93 = AXIS2_PLACEMENT_3D ( 'NONE', #108, #106, #157 ) ;
#94 = EDGE_LOOP ( 'NONE', ( #248, #180, #100, #172 ) ) ;
#95 = AXIS2_PLACEMENT_3D ( 'NONE', #297, #155, #35 ) ;
#96 = UNCERTAINTY_MEASURE_WITH_UNIT (LENGTH_MEASURE( 1.000000000000000082E-05 ), #182, 'distance_accuracy_value', 'NONE');
#97 = CARTESIAN_POINT ( 'NONE',  ( 0.000000000000000000, 0.1645448267190428304, 0.1249999999999999584 ) ) ;
#98 = VERTEX_POINT ( 'NONE', #168 ) ;
#99 = FILL_AREA_STYLE ('',( #73 ) ) ;
#100 = ORIENTED_EDGE ( 'NONE', *, *, #129, .T. ) ;
#101 = CYLINDRICAL_SURFACE ( 'NONE', #199, 0.1249999999999997641 ) ;
#102 = DIRECTION ( 'NONE',  ( 0.000000000000000000, 0.000000000000000000, -1.000000000000000000 ) ) ;
#103 = ORIENTED_EDGE ( 'NONE', *, *, #24, .T. ) ;
#104 = CARTESIAN_POINT ( 'NONE',  ( 0.000000000000000000, 0.000000000000000000, 0.000000000000000000 ) ) ;
#105 =( NAMED_UNIT ( * ) SI_UNIT ( $, .STERADIAN. ) SOLID_ANGLE_UNIT ( ) );
#106 = DIRECTION ( 'NONE',  ( -1.226267609633526474E-16, 1.000000000000000000, -0.000000000000000000 ) ) ;
#107 = DIMENSIONAL_EXPONENTS ( 1.000000000000000000, 0.000000000000000000, 0.000000000000000000, 0.000000000000000000, 0.000000000000000000, 0.000000000000000000, 0.000000000000000000 ) ;
#108 = CARTESIAN_POINT ( 'NONE',  ( 6.123233995736772199E-17, 2.500000000000000000, 0.000000000000000000 ) ) ;
#109 = COLOUR_RGB ( '',1.000000000000000000, 0.000000000000000000, 0.000000000000000000 ) ;
#110 = MECHANICAL_DESIGN_GEOMETRIC_PRESENTATION_REPRESENTATION (  '', ( #208 ), #259 ) ;
#111 = CARTESIAN_POINT ( 'NONE',  ( 0.1249999999999998335, 2.500000000000000000, 1.530808498934188736E-17 ) ) ;
#112 = CARTESIAN_POINT ( 'NONE',  ( 0.000000000000000000, 0.000000000000000000, 0.000000000000000000 ) ) ;
#113 = DIRECTION ( 'NONE',  ( -1.000000000000000000, 0.000000000000000000, 0.000000000000000000 ) ) ;
#114 =( CONVERSION_BASED_UNIT ( 'INCH', #140 ) LENGTH_UNIT ( ) NAMED_UNIT ( #15 ) );
#115 = PRESENTATION_LAYER_ASSIGNMENT (  '', '', ( #189 ) ) ;
#116 = DIRECTION ( 'NONE',  ( 0.000000000000000000, 1.000000000000000000, 0.000000000000000000 ) ) ;
#117 = VECTOR ( 'NONE', #59, 39.37007874015748143 ) ;
#118 = FACE_OUTER_BOUND ( 'NONE', #175, .T. ) ;
#119 = CONICAL_SURFACE ( 'NONE', #286, 0.02999999999999999889, 0.5235987755983000369 ) ;
#120 = LENGTH_MEASURE_WITH_UNIT ( LENGTH_MEASURE( 0.02539999999999999897 ), #146 );
#121 = ORIENTED_EDGE ( 'NONE', *, *, #183, .F. ) ;
#122 = CARTESIAN_POINT ( 'NONE',  ( 6.123233995736772199E-17, 2.500000000000000000, 0.000000000000000000 ) ) ;
#123 = CARTESIAN_POINT ( 'NONE',  ( 3.476216432319169970E-16, 0.1645448267190428304, 0.000000000000000000 ) ) ;
#124 = COLOUR_RGB ( '',1.000000000000000000, 0.000000000000000000, 0.000000000000000000 ) ;
#125 = EDGE_LOOP ( 'NONE', ( #55, #7, #103, #36 ) ) ;
#126 = CARTESIAN_POINT ( 'NONE',  ( 0.1249999999999999445, 0.1645448267190428582, 1.530808498934189352E-17 ) ) ;
#127 = VERTEX_POINT ( 'NONE', #97 ) ;
#128 =( NAMED_UNIT ( * ) PLANE_ANGLE_UNIT ( ) SI_UNIT ( $, .RADIAN. ) );
#129 = EDGE_CURVE ( 'NONE', #278, #127, #237, .T. ) ;
#130 = ORIENTED_EDGE ( 'NONE', *, *, #44, .F. ) ;
#131 = PRESENTATION_LAYER_ASSIGNMENT (  '', '', ( #80 ) ) ;
#132 = FILL_AREA_STYLE ('',( #179 ) ) ;
#133 = PRESENTATION_STYLE_ASSIGNMENT (( #78 ) ) ;
#134 = LENGTH_MEASURE_WITH_UNIT ( LENGTH_MEASURE( 0.02539999999999999897 ), #260 );
#135 = MECHANICAL_DESIGN_GEOMETRIC_PRESENTATION_REPRESENTATION (  '', ( #228 ), #62 ) ;
#136 = FACE_OUTER_BOUND ( 'NONE', #125, .T. ) ;
#137 = LINE ( 'NONE', #202, #258 ) ;
#138 = APPLICATION_PROTOCOL_DEFINITION ( 'draft international standard', 'automotive_design', 1998, #160 ) ;
#139 = CYLINDRICAL_SURFACE ( 'NONE', #185, 0.1249999999999997641 ) ;
#140 = LENGTH_MEASURE_WITH_UNIT ( LENGTH_MEASURE( 0.02539999999999999897 ), #83 );
#141 = EDGE_CURVE ( 'NONE', #98, #278, #253, .T. ) ;
#142 = AXIS2_PLACEMENT_3D ( 'NONE', #271, #54, #4 ) ;
#143 = DIRECTION ( 'NONE',  ( -0.000000000000000000, -1.000000000000000000, -0.000000000000000000 ) ) ;
#144 = ADVANCED_FACE ( 'NONE', ( #118 ), #48, .T. ) ;
#145 =( NAMED_UNIT ( * ) SI_UNIT ( $, .STERADIAN. ) SOLID_ANGLE_UNIT ( ) );
#146 =( LENGTH_UNIT ( ) NAMED_UNIT ( * ) SI_UNIT ( $, .METRE. ) );
#147 = UNCERTAINTY_MEASURE_WITH_UNIT (LENGTH_MEASURE( 1.000000000000000082E-05 ), #12, 'distance_accuracy_value', 'NONE');
#148 = DIRECTION ( 'NONE',  ( -1.000000000000000000, -1.226267609633526474E-16, 0.000000000000000000 ) ) ;
#149 = AXIS2_PLACEMENT_3D ( 'NONE', #57, #293, #41 ) ;
#150 = ORIENTED_EDGE ( 'NONE', *, *, #141, .T. ) ;
#151 = ORIENTED_EDGE ( 'NONE', *, *, #11, .T. ) ;
#152 = ADVANCED_FACE ( 'NONE', ( #216 ), #8, .T. ) ;
#153 = SURFACE_STYLE_FILL_AREA ( #99 ) ;
#154 = EDGE_LOOP ( 'NONE', ( #220, #249, #190, #240 ) ) ;
#155 = DIRECTION ( 'NONE',  ( -1.226267609633526474E-16, 1.000000000000000000, -0.000000000000000000 ) ) ;
#156 = DIRECTION ( 'NONE',  ( 0.000000000000000000, 0.000000000000000000, 1.000000000000000000 ) ) ;
#157 = DIRECTION ( 'NONE',  ( -1.000000000000000000, 0.000000000000000000, 0.000000000000000000 ) ) ;
#158 = DIRECTION ( 'NONE',  ( 0.000000000000000000, 0.000000000000000000, 1.000000000000000000 ) ) ;
#159 =( GEOMETRIC_REPRESENTATION_CONTEXT ( 3 ) GLOBAL_UNCERTAINTY_ASSIGNED_CONTEXT ( ( #27 ) ) GLOBAL_UNIT_ASSIGNED_CONTEXT ( ( #267, #288, #145 ) ) REPRESENTATION_CONTEXT ( 'NONE', 'WORKASPACE' ) );
#160 = APPLICATION_CONTEXT ( 'automotive_design' ) ;
#161 =( GEOMETRIC_REPRESENTATION_CONTEXT ( 3 ) GLOBAL_UNCERTAINTY_ASSIGNED_CONTEXT ( ( #56 ) ) GLOBAL_UNIT_ASSIGNED_CONTEXT ( ( #114, #84, #242 ) ) REPRESENTATION_CONTEXT ( 'NONE', 'WORKASPACE' ) );
#162 = EDGE_CURVE ( 'NONE', #98, #32, #274, .T. ) ;
#163 = CARTESIAN_POINT ( 'NONE',  ( 6.123233995736772199E-17, 2.500000000000000000, 0.000000000000000000 ) ) ;
#164 = PRESENTATION_STYLE_ASSIGNMENT (( #203 ) ) ;
#165 = AXIS2_PLACEMENT_3D ( 'NONE', #112, #158, #254 ) ;
#166 = SURFACE_STYLE_USAGE ( .BOTH. , #28 ) ;
#167 = EDGE_CURVE ( 'NONE', #278, #98, #291, .T. ) ;
#168 = CARTESIAN_POINT ( 'NONE',  ( 9.491012693391984829E-18, 0.000000000000000000, -0.02999999999999999889 ) ) ;
#169 = PRESENTATION_LAYER_ASSIGNMENT (  '', '', ( #304 ) ) ;
#170 = LENGTH_MEASURE_WITH_UNIT ( LENGTH_MEASURE( 0.02539999999999999897 ), #187 );
#171 = EDGE_CURVE ( 'NONE', #58, #212, #13, .T. ) ;
#172 = ORIENTED_EDGE ( 'NONE', *, *, #276, .T. ) ;
#173 =( LENGTH_UNIT ( ) NAMED_UNIT ( * ) SI_UNIT ( $, .METRE. ) );
#174 = AXIS2_PLACEMENT_3D ( 'NONE', #16, #201, #262 ) ;
#175 = EDGE_LOOP ( 'NONE', ( #217, #130 ) ) ;
#176 = DIRECTION ( 'NONE',  ( -1.226267609633526474E-16, 1.000000000000000000, -0.000000000000000000 ) ) ;
#177 = CARTESIAN_POINT ( 'NONE',  ( -0.1249999999999998473, 2.500000000000000000, 0.000000000000000000 ) ) ;
#178 = ORIENTED_EDGE ( 'NONE', *, *, #171, .F. ) ;
#179 = FILL_AREA_STYLE_COLOUR ( '', #26 ) ;
#180 = ORIENTED_EDGE ( 'NONE', *, *, #167, .F. ) ;
#181 = SHAPE_DEFINITION_REPRESENTATION ( #256, #19 ) ;
#182 =( CONVERSION_BASED_UNIT ( 'INCH', #134 ) LENGTH_UNIT ( ) NAMED_UNIT ( #107 ) );
#183 = EDGE_CURVE ( 'NONE', #212, #58, #229, .T. ) ;
#184 = COLOUR_RGB ( '',1.000000000000000000, 0.000000000000000000, 0.000000000000000000 ) ;
#185 = AXIS2_PLACEMENT_3D ( 'NONE', #163, #231, #113 ) ;
#186 = SURFACE_STYLE_FILL_AREA ( #207 ) ;
#187 =( LENGTH_UNIT ( ) NAMED_UNIT ( * ) SI_UNIT ( $, .METRE. ) );
#188 = SURFACE_SIDE_STYLE ('',( #10 ) ) ;
#189 = STYLED_ITEM ( 'NONE', ( #133 ), #196 ) ;
#190 = ORIENTED_EDGE ( 'NONE', *, *, #44, .T. ) ;
#191 = VERTEX_POINT ( 'NONE', #77 ) ;
#192 = CARTESIAN_POINT ( 'NONE',  ( 0.000000000000000000, 0.000000000000000000, 0.000000000000000000 ) ) ;
#193 = EDGE_LOOP ( 'NONE', ( #34, #150 ) ) ;
#194 = SURFACE_STYLE_USAGE ( .BOTH. , #188 ) ;
#195 = SURFACE_SIDE_STYLE ('',( #153 ) ) ;
#196 = MANIFOLD_SOLID_BREP ( 'Revolve - Tool Body (Tipped Off)', #74 ) ;
#197 = COLOUR_RGB ( '',0.7921568627450980005, 0.8196078431372548767, 0.9333333333333333481 ) ;
#198 = DIRECTION ( 'NONE',  ( 0.000000000000000000, -1.000000000000000000, -0.000000000000000000 ) ) ;
#199 = AXIS2_PLACEMENT_3D ( 'NONE', #122, #50, #218 ) ;
#200 = PLANE ( 'NONE',  #174 ) ;
#201 = DIRECTION ( 'NONE',  ( 1.226267609633526474E-16, -1.000000000000000000, 0.000000000000000000 ) ) ;
#202 = CARTESIAN_POINT ( 'NONE',  ( -0.1249999999999996947, 2.500000000000000000, 0.000000000000000000 ) ) ;
#203 = SURFACE_STYLE_USAGE ( .BOTH. , #305 ) ;
#204 = PRESENTATION_LAYER_ASSIGNMENT (  '', '', ( #208 ) ) ;
#205 =( NAMED_UNIT ( * ) PLANE_ANGLE_UNIT ( ) SI_UNIT ( $, .RADIAN. ) );
#206 = FILL_AREA_STYLE ('',( #67 ) ) ;
#207 = FILL_AREA_STYLE ('',( #71 ) ) ;
#208 = STYLED_ITEM ( 'NONE', ( #89 ), #144 ) ;
#209 = FILL_AREA_STYLE_COLOUR ( '', #214 ) ;
#210 = SURFACE_STYLE_FILL_AREA ( #309 ) ;
#211 = SURFACE_SIDE_STYLE ('',( #210 ) ) ;
#212 = VERTEX_POINT ( 'NONE', #283 ) ;
#213 = UNCERTAINTY_MEASURE_WITH_UNIT (LENGTH_MEASURE( 1.000000000000000082E-05 ), #82, 'distance_accuracy_value', 'NONE');
#214 = COLOUR_RGB ( '',1.000000000000000000, 0.000000000000000000, 0.000000000000000000 ) ;
#215 = ORIENTED_EDGE ( 'NONE', *, *, #236, .F. ) ;
#216 = FACE_OUTER_BOUND ( 'NONE', #193, .T. ) ;
#217 = ORIENTED_EDGE ( 'NONE', *, *, #276, .F. ) ;
#218 = DIRECTION ( 'NONE',  ( -1.000000000000000000, 0.000000000000000000, 0.000000000000000000 ) ) ;
#219 = CARTESIAN_POINT ( 'NONE',  ( 3.476216432319169970E-16, 0.1645448267190428582, 0.000000000000000000 ) ) ;
#220 = ORIENTED_EDGE ( 'NONE', *, *, #141, .F. ) ;
#221 =( CONVERSION_BASED_UNIT ( 'INCH', #33 ) LENGTH_UNIT ( ) NAMED_UNIT ( #277 ) );
#222 = DIMENSIONAL_EXPONENTS ( 1.000000000000000000, 0.000000000000000000, 0.000000000000000000, 0.000000000000000000, 0.000000000000000000, 0.000000000000000000, 0.000000000000000000 ) ;
#223 = CIRCLE ( 'NONE', #282, 0.1249999999999999167 ) ;
#224 = PRODUCT_DEFINITION_FORMATION_WITH_SPECIFIED_SOURCE ( 'ANY', '', #306, .NOT_KNOWN. ) ;
#225 = CARTESIAN_POINT ( 'NONE',  ( 3.673940397442059190E-18, 0.000000000000000000, -0.02999999999999999889 ) ) ;
#226 = ADVANCED_FACE ( 'NONE', ( #275 ), #200, .F. ) ;
#227 = SURFACE_STYLE_USAGE ( .BOTH. , #195 ) ;
#228 = STYLED_ITEM ( 'NONE', ( #60 ), #85 ) ;
#229 = CIRCLE ( 'NONE', #21, 0.1249999999999996114 ) ;
#230 = EDGE_CURVE ( 'NONE', #58, #191, #18, .T. ) ;
#231 = DIRECTION ( 'NONE',  ( -1.226267609633526474E-16, 1.000000000000000000, -0.000000000000000000 ) ) ;
#232 = APPLICATION_CONTEXT ( 'automotive_design' ) ;
#233 = MECHANICAL_DESIGN_GEOMETRIC_PRESENTATION_REPRESENTATION (  '', ( #80 ), #308 ) ;
#234 =( NAMED_UNIT ( * ) SI_UNIT ( $, .STERADIAN. ) SOLID_ANGLE_UNIT ( ) );
#235 = CARTESIAN_POINT ( 'NONE',  ( 0.000000000000000000, 0.000000000000000000, 0.02999999999999999889 ) ) ;
#236 = EDGE_CURVE ( 'NONE', #38, #191, #223, .T. ) ;
#237 = LINE ( 'NONE', #235, #245 ) ;
#238 = ADVANCED_FACE ( 'NONE', ( #69 ), #119, .T. ) ;
#239 = FACE_OUTER_BOUND ( 'NONE', #94, .T. ) ;
#240 = ORIENTED_EDGE ( 'NONE', *, *, #129, .F. ) ;
#241 = FACE_OUTER_BOUND ( 'NONE', #244, .T. ) ;
#242 =( NAMED_UNIT ( * ) SI_UNIT ( $, .STERADIAN. ) SOLID_ANGLE_UNIT ( ) );
#243 = DIRECTION ( 'NONE',  ( 0.000000000000000000, 1.000000000000000000, 0.000000000000000000 ) ) ;
#244 = EDGE_LOOP ( 'NONE', ( #251, #290, #215, #272 ) ) ;
#245 = VECTOR ( 'NONE', #3, 39.37007874015748143 ) ;
#246 =( NAMED_UNIT ( * ) PLANE_ANGLE_UNIT ( ) SI_UNIT ( $, .RADIAN. ) );
#247 = CARTESIAN_POINT ( 'NONE',  ( 1.530808498934190893E-17, 0.1645448267190428304, -0.1249999999999999584 ) ) ;
#248 = ORIENTED_EDGE ( 'NONE', *, *, #162, .F. ) ;
#249 = ORIENTED_EDGE ( 'NONE', *, *, #162, .T. ) ;
#250 =( NAMED_UNIT ( * ) PLANE_ANGLE_UNIT ( ) SI_UNIT ( $, .RADIAN. ) );
#251 = ORIENTED_EDGE ( 'NONE', *, *, #183, .T. ) ;
#252 = DIMENSIONAL_EXPONENTS ( 1.000000000000000000, 0.000000000000000000, 0.000000000000000000, 0.000000000000000000, 0.000000000000000000, 0.000000000000000000, 0.000000000000000000 ) ;
#253 = CIRCLE ( 'NONE', #268, 0.02999999999999999889 ) ;
#254 = DIRECTION ( 'NONE',  ( 1.000000000000000000, 0.000000000000000000, 0.000000000000000000 ) ) ;
#255 = DIRECTION ( 'NONE',  ( -1.226267609633526474E-16, 1.000000000000000000, 0.000000000000000000 ) ) ;
#256 = PRODUCT_DEFINITION_SHAPE ( 'NONE', 'NONE',  #79 ) ;
#257 = CARTESIAN_POINT ( 'NONE',  ( 0.000000000000000000, 0.1645448267190428304, 0.000000000000000000 ) ) ;
#258 = VECTOR ( 'NONE', #294, 39.37007874015748143 ) ;
#259 =( GEOMETRIC_REPRESENTATION_CONTEXT ( 3 ) GLOBAL_UNCERTAINTY_ASSIGNED_CONTEXT ( ( #52 ) ) GLOBAL_UNIT_ASSIGNED_CONTEXT ( ( #269, #270, #31 ) ) REPRESENTATION_CONTEXT ( 'NONE', 'WORKASPACE' ) );
#260 =( LENGTH_UNIT ( ) NAMED_UNIT ( * ) SI_UNIT ( $, .METRE. ) );
#261 = SURFACE_STYLE_FILL_AREA ( #206 ) ;
#262 = DIRECTION ( 'NONE',  ( 1.000000000000000000, 1.226267609633526474E-16, 0.000000000000000000 ) ) ;
#263 = CIRCLE ( 'NONE', #93, 0.1249999999999999167 ) ;
#264 = AXIS2_PLACEMENT_3D ( 'NONE', #192, #289, #102 ) ;
#265 =( NAMED_UNIT ( * ) SI_UNIT ( $, .STERADIAN. ) SOLID_ANGLE_UNIT ( ) );
#266 = PRODUCT_DEFINITION_CONTEXT ( 'detailed design', #160, 'design' ) ;
#267 =( CONVERSION_BASED_UNIT ( 'INCH', #120 ) LENGTH_UNIT ( ) NAMED_UNIT ( #252 ) );
#268 = AXIS2_PLACEMENT_3D ( 'NONE', #307, #87, #91 ) ;
#269 =( CONVERSION_BASED_UNIT ( 'INCH', #170 ) LENGTH_UNIT ( ) NAMED_UNIT ( #81 ) );
#270 =( NAMED_UNIT ( * ) PLANE_ANGLE_UNIT ( ) SI_UNIT ( $, .RADIAN. ) );
#271 = CARTESIAN_POINT ( 'NONE',  ( 0.000000000000000000, 0.1645448267190428304, 0.000000000000000000 ) ) ;
#272 = ORIENTED_EDGE ( 'NONE', *, *, #24, .F. ) ;
#273 = PRESENTATION_LAYER_ASSIGNMENT (  '', '', ( #228 ) ) ;
#274 = LINE ( 'NONE', #225, #117 ) ;
#275 = FACE_OUTER_BOUND ( 'NONE', #29, .T. ) ;
#276 = EDGE_CURVE ( 'NONE', #127, #32, #47, .T. ) ;
#277 = DIMENSIONAL_EXPONENTS ( 1.000000000000000000, 0.000000000000000000, 0.000000000000000000, 0.000000000000000000, 0.000000000000000000, 0.000000000000000000, 0.000000000000000000 ) ;
#278 = VERTEX_POINT ( 'NONE', #42 ) ;
#279 = CIRCLE ( 'NONE', #142, 0.1249999999999999584 ) ;
#280 =( GEOMETRIC_REPRESENTATION_CONTEXT ( 3 ) GLOBAL_UNCERTAINTY_ASSIGNED_CONTEXT ( ( #213 ) ) GLOBAL_UNIT_ASSIGNED_CONTEXT ( ( #82, #246, #234 ) ) REPRESENTATION_CONTEXT ( 'NONE', 'WORKASPACE' ) );
#281 =( NAMED_UNIT ( * ) SI_UNIT ( $, .STERADIAN. ) SOLID_ANGLE_UNIT ( ) );
#282 = AXIS2_PLACEMENT_3D ( 'NONE', #20, #302, #284 ) ;
#283 = CARTESIAN_POINT ( 'NONE',  ( -0.1249999999999992645, 0.1645448267190428582, 0.000000000000000000 ) ) ;
#284 = DIRECTION ( 'NONE',  ( -1.000000000000000000, 0.000000000000000000, 0.000000000000000000 ) ) ;
#285 = CONICAL_SURFACE ( 'NONE', #43, 0.02999999999999999889, 0.5235987755983000369 ) ;
#286 = AXIS2_PLACEMENT_3D ( 'NONE', #303, #116, #156 ) ;
#287 = SURFACE_STYLE_USAGE ( .BOTH. , #211 ) ;
#288 =( NAMED_UNIT ( * ) PLANE_ANGLE_UNIT ( ) SI_UNIT ( $, .RADIAN. ) );
#289 = DIRECTION ( 'NONE',  ( -0.000000000000000000, -1.000000000000000000, -0.000000000000000000 ) ) ;
#290 = ORIENTED_EDGE ( 'NONE', *, *, #230, .T. ) ;
#291 = CIRCLE ( 'NONE', #264, 0.02999999999999999889 ) ;
#292 = AXIS2_PLACEMENT_3D ( 'NONE', #257, #143, #45 ) ;
#293 = DIRECTION ( 'NONE',  ( 0.000000000000000000, 1.000000000000000000, 0.000000000000000000 ) ) ;
#294 = DIRECTION ( 'NONE',  ( -1.226267609633526474E-16, 1.000000000000000000, -0.000000000000000000 ) ) ;
#295 = ADVANCED_FACE ( 'NONE', ( #136 ), #139, .T. ) ;
#296 = ORIENTED_EDGE ( 'NONE', *, *, #236, .T. ) ;
#297 = CARTESIAN_POINT ( 'NONE',  ( 3.476216432319169970E-16, 0.1645448267190428582, 0.000000000000000000 ) ) ;
#298 = APPLICATION_PROTOCOL_DEFINITION ( 'draft international standard', 'automotive_design', 1998, #232 ) ;
#299 = SURFACE_SIDE_STYLE ('',( #40 ) ) ;
#300 = LENGTH_MEASURE_WITH_UNIT ( LENGTH_MEASURE( 0.02539999999999999897 ), #64 );
#301 = MECHANICAL_DESIGN_GEOMETRIC_PRESENTATION_REPRESENTATION (  '', ( #17 ), #159 ) ;
#302 = DIRECTION ( 'NONE',  ( -1.226267609633526474E-16, 1.000000000000000000, -0.000000000000000000 ) ) ;
#303 = CARTESIAN_POINT ( 'NONE',  ( 0.000000000000000000, 0.000000000000000000, 0.000000000000000000 ) ) ;
#304 = STYLED_ITEM ( 'NONE', ( #164 ), #238 ) ;
#305 = SURFACE_SIDE_STYLE ('',( #261 ) ) ;
#306 = PRODUCT ( '59815', '59815', '', ( #65 ) ) ;
#307 = CARTESIAN_POINT ( 'NONE',  ( 0.000000000000000000, 0.000000000000000000, 0.000000000000000000 ) ) ;
#308 =( GEOMETRIC_REPRESENTATION_CONTEXT ( 3 ) GLOBAL_UNCERTAINTY_ASSIGNED_CONTEXT ( ( #30 ) ) GLOBAL_UNIT_ASSIGNED_CONTEXT ( ( #221, #250, #105 ) ) REPRESENTATION_CONTEXT ( 'NONE', 'WORKASPACE' ) );
#309 = FILL_AREA_STYLE ('',( #209 ) ) ;
ENDSEC;
END-ISO-10303-21;
