ISO-10303-21;
HEADER;
FILE_DESCRIPTION (( 'STEP AP214' ),
    '1' );
FILE_NAME ('Micro_SBMM-100-250.STEP',
    '2021-09-02T17:20:36',
    ( '' ),
    ( '' ),
    'SwSTEP 2.0',
    'SolidWorks 2020',
    '' );
FILE_SCHEMA (( 'AUTOMOTIVE_DESIGN' ));
ENDSEC;

DATA;
#1 = DIRECTION ( 'NONE',  ( -0.0000000000000000000, -0.0000000000000000000, -1.000000000000000000 ) ) ;
#2 = ORIENTED_EDGE ( 'NONE', *, *, #32, .F. ) ;
#3 = EDGE_CURVE ( 'NONE', #82, #285, #228, .T. ) ;
#4 = DIRECTION ( 'NONE',  ( -0.0000000000000000000, -0.0000000000000000000, -1.000000000000000000 ) ) ;
#5 = ORIENTED_EDGE ( 'NONE', *, *, #212, .T. ) ;
#6 = AXIS2_PLACEMENT_3D ( 'NONE', #243, #189, #25 ) ;
#7 = CARTESIAN_POINT ( 'NONE',  ( 0.1968504999999999838, 2.410723347355560646E-17, 3.937007999999999619 ) ) ;
#8 = DIRECTION ( 'NONE',  ( 1.000000000000000000, 0.0000000000000000000, 0.0000000000000000000 ) ) ;
#9 = EDGE_CURVE ( 'NONE', #330, #88, #160, .T. ) ;
#10 = DIRECTION ( 'NONE',  ( -1.000000000000000000, 0.0000000000000000000, 0.0000000000000000000 ) ) ;
#11 = DIRECTION ( 'NONE',  ( 0.0000000000000000000, 0.0000000000000000000, 1.000000000000000000 ) ) ;
#12 = CARTESIAN_POINT ( 'NONE',  ( 0.0000000000000000000, 0.0000000000000000000, 2.430208303031070827 ) ) ;
#13 = AXIS2_PLACEMENT_3D ( 'NONE', #344, #1, #133 ) ;
#14 = MECHANICAL_DESIGN_GEOMETRIC_PRESENTATION_REPRESENTATION (  '', ( #65 ), #53 ) ;
#15 = APPLICATION_CONTEXT ( 'automotive_design' ) ;
#16 = VERTEX_POINT ( 'NONE', #284 ) ;
#17 = DIRECTION ( 'NONE',  ( 0.0000000000000000000, 0.0000000000000000000, 1.000000000000000000 ) ) ;
#18 = CARTESIAN_POINT ( 'NONE',  ( 0.0000000000000000000, 0.0000000000000000000, 0.1968500000000000250 ) ) ;
#19 = CLOSED_SHELL ( 'NONE', ( #260, #77, #258, #254, #92, #206, #318, #78, #67, #144, #280 ) ) ;
#20 = AXIS2_PLACEMENT_3D ( 'NONE', #123, #121, #227 ) ;
#21 = ORIENTED_EDGE ( 'NONE', *, *, #9, .T. ) ;
#22 = LENGTH_MEASURE_WITH_UNIT ( LENGTH_MEASURE( 0.02539999999999999897 ), #290 );
#23 = FACE_OUTER_BOUND ( 'NONE', #201, .T. ) ;
#24 = AXIS2_PLACEMENT_3D ( 'NONE', #203, #181, #94 ) ;
#25 = DIRECTION ( 'NONE',  ( 1.000000000000000000, 0.0000000000000000000, 0.0000000000000000000 ) ) ;
#26 = AXIS2_PLACEMENT_3D ( 'NONE', #134, #27, #321 ) ;
#27 = DIRECTION ( 'NONE',  ( -0.0000000000000000000, -0.0000000000000000000, -1.000000000000000000 ) ) ;
#28 = EDGE_CURVE ( 'NONE', #91, #299, #125, .T. ) ;
#29 = ORIENTED_EDGE ( 'NONE', *, *, #9, .F. ) ;
#30 = LINE ( 'NONE', #167, #72 ) ;
#31 = EDGE_LOOP ( 'NONE', ( #281, #261, #248, #42, #55 ) ) ;
#32 = EDGE_CURVE ( 'NONE', #152, #16, #80, .T. ) ;
#33 = MECHANICAL_DESIGN_GEOMETRIC_PRESENTATION_REPRESENTATION (  '', ( #95 ), #157 ) ;
#34 = FACE_OUTER_BOUND ( 'NONE', #66, .T. ) ;
#35 = CARTESIAN_POINT ( 'NONE',  ( -0.1968504999999999838, 0.0000000000000000000, 3.922007999999999051 ) ) ;
#36 = EDGE_LOOP ( 'NONE', ( #180, #166, #214, #44 ) ) ;
#37 = LINE ( 'NONE', #45, #153 ) ;
#38 = CYLINDRICAL_SURFACE ( 'NONE', #139, 0.1968504999999999838 ) ;
#39 = VERTEX_POINT ( 'NONE', #119 ) ;
#40 = AXIS2_PLACEMENT_3D ( 'NONE', #83, #194, #301 ) ;
#41 = ADVANCED_BREP_SHAPE_REPRESENTATION ( 'Micro_SBMM-100-250', ( #173, #209 ), #316 ) ;
#42 = ORIENTED_EDGE ( 'NONE', *, *, #292, .F. ) ;
#43 = CARTESIAN_POINT ( 'NONE',  ( 0.1818504999999994431, 2.227026327483450676E-17, 3.937007999999999619 ) ) ;
#44 = ORIENTED_EDGE ( 'NONE', *, *, #182, .T. ) ;
#45 = CARTESIAN_POINT ( 'NONE',  ( -0.1968504999999999838, 0.0000000000000000000, 3.937007999999999619 ) ) ;
#46 = SURFACE_STYLE_FILL_AREA ( #235 ) ;
#47 =( NAMED_UNIT ( * ) SI_UNIT ( $, .STERADIAN. ) SOLID_ANGLE_UNIT ( ) );
#48 = FACE_OUTER_BOUND ( 'NONE', #122, .T. ) ;
#49 = SURFACE_STYLE_FILL_AREA ( #286 ) ;
#50 = EDGE_CURVE ( 'NONE', #16, #273, #96, .T. ) ;
#51 = PRODUCT_DEFINITION_FORMATION_WITH_SPECIFIED_SOURCE ( 'ANY', '', #271, .NOT_KNOWN. ) ;
#52 = VERTEX_POINT ( 'NONE', #339 ) ;
#53 =( GEOMETRIC_REPRESENTATION_CONTEXT ( 3 ) GLOBAL_UNCERTAINTY_ASSIGNED_CONTEXT ( ( #293 ) ) GLOBAL_UNIT_ASSIGNED_CONTEXT ( ( #287, #315, #132 ) ) REPRESENTATION_CONTEXT ( 'NONE', 'WORKASPACE' ) );
#54 = CARTESIAN_POINT ( 'NONE',  ( -0.1318899999999999517, 0.0000000000000000000, 0.3429833309002433550 ) ) ;
#55 = ORIENTED_EDGE ( 'NONE', *, *, #212, .F. ) ;
#56 = FACE_OUTER_BOUND ( 'NONE', #36, .T. ) ;
#57 = CARTESIAN_POINT ( 'NONE',  ( 0.0000000000000000000, 0.0000000000000000000, 3.937007999999999619 ) ) ;
#58 = ORIENTED_EDGE ( 'NONE', *, *, #3, .T. ) ;
#59 = AXIS2_PLACEMENT_3D ( 'NONE', #142, #90, #298 ) ;
#60 = FACE_OUTER_BOUND ( 'NONE', #31, .T. ) ;
#61 = ORIENTED_EDGE ( 'NONE', *, *, #3, .F. ) ;
#62 = CARTESIAN_POINT ( 'NONE',  ( -0.1318899999999998685, 0.0000000000000000000, 0.0000000000000000000 ) ) ;
#63 = CARTESIAN_POINT ( 'NONE',  ( 0.0000000000000000000, 0.0000000000000000000, 2.430208303031070827 ) ) ;
#64 = ORIENTED_EDGE ( 'NONE', *, *, #191, .F. ) ;
#65 = STYLED_ITEM ( 'NONE', ( #320 ), #41 ) ;
#66 = EDGE_LOOP ( 'NONE', ( #257, #326, #5, #163, #217 ) ) ;
#67 = ADVANCED_FACE ( 'NONE', ( #93 ), #89, .T. ) ;
#68 = EDGE_LOOP ( 'NONE', ( #120, #174 ) ) ;
#69 = EDGE_CURVE ( 'NONE', #114, #52, #263, .T. ) ;
#70 = CARTESIAN_POINT ( 'NONE',  ( 0.0000000000000000000, 0.0000000000000000000, 0.0000000000000000000 ) ) ;
#71 = VECTOR ( 'NONE', #98, 39.37007874015748143 ) ;
#72 = VECTOR ( 'NONE', #329, 39.37007874015748143 ) ;
#73 =( NAMED_UNIT ( * ) PLANE_ANGLE_UNIT ( ) SI_UNIT ( $, .RADIAN. ) );
#74 =( LENGTH_UNIT ( ) NAMED_UNIT ( * ) SI_UNIT ( $, .METRE. ) );
#75 = CONICAL_SURFACE ( 'NONE', #305, 0.1818504999999994431, 0.7853981633974403964 ) ;
#76 = SPHERICAL_SURFACE ( 'NONE', #147, 0.1968500000000000250 ) ;
#77 = ADVANCED_FACE ( 'NONE', ( #255 ), #178, .T. ) ;
#78 = ADVANCED_FACE ( 'NONE', ( #200 ), #109, .T. ) ;
#79 = DIRECTION ( 'NONE',  ( -0.0000000000000000000, -0.0000000000000000000, -1.000000000000000000 ) ) ;
#80 = CIRCLE ( 'NONE', #345, 0.1318899999999997574 ) ;
#81 = AXIS2_PLACEMENT_3D ( 'NONE', #304, #220, #137 ) ;
#82 = VERTEX_POINT ( 'NONE', #197 ) ;
#83 = CARTESIAN_POINT ( 'NONE',  ( 0.0000000000000000000, 0.0000000000000000000, 3.922007999999999051 ) ) ;
#84 = ORIENTED_EDGE ( 'NONE', *, *, #256, .T. ) ;
#85 = CYLINDRICAL_SURFACE ( 'NONE', #170, 0.1318899999999998685 ) ;
#86 = ORIENTED_EDGE ( 'NONE', *, *, #265, .T. ) ;
#87 = CARTESIAN_POINT ( 'NONE',  ( 0.0000000000000000000, 0.0000000000000000000, 0.3429833309002433550 ) ) ;
#88 = VERTEX_POINT ( 'NONE', #143 ) ;
#89 = CONICAL_SURFACE ( 'NONE', #177, 0.2165355499999996880, 0.1813192738195757436 ) ;
#90 = DIRECTION ( 'NONE',  ( -0.0000000000000000000, -0.0000000000000000000, -1.000000000000000000 ) ) ;
#91 = VERTEX_POINT ( 'NONE', #232 ) ;
#92 = ADVANCED_FACE ( 'NONE', ( #23 ), #185, .T. ) ;
#93 = FACE_OUTER_BOUND ( 'NONE', #219, .T. ) ;
#94 = DIRECTION ( 'NONE',  ( 1.000000000000000000, 0.0000000000000000000, 0.0000000000000000000 ) ) ;
#95 = STYLED_ITEM ( 'NONE', ( #103 ), #173 ) ;
#96 = LINE ( 'NONE', #225, #198 ) ;
#97 = PRODUCT_CONTEXT ( 'NONE', #126, 'mechanical' ) ;
#98 = DIRECTION ( 'NONE',  ( -0.7071067811865419106, 0.0000000000000000000, -0.7071067811865531239 ) ) ;
#99 = SHAPE_DEFINITION_REPRESENTATION ( #101, #41 ) ;
#100 = FILL_AREA_STYLE_COLOUR ( '', #179 ) ;
#101 = PRODUCT_DEFINITION_SHAPE ( 'NONE', 'NONE',  #294 ) ;
#102 = DIRECTION ( 'NONE',  ( -1.000000000000000000, 0.0000000000000000000, 0.0000000000000000000 ) ) ;
#103 = PRESENTATION_STYLE_ASSIGNMENT (( #239 ) ) ;
#104 = AXIS2_PLACEMENT_3D ( 'NONE', #18, #226, #337 ) ;
#105 = PRESENTATION_LAYER_ASSIGNMENT (  '', '', ( #95 ) ) ;
#106 = UNCERTAINTY_MEASURE_WITH_UNIT (LENGTH_MEASURE( 1.000000000000000082E-05 ), #340, 'distance_accuracy_value', 'NONE');
#107 = ORIENTED_EDGE ( 'NONE', *, *, #231, .F. ) ;
#108 = DIRECTION ( 'NONE',  ( -1.000000000000000000, 0.0000000000000000000, 0.0000000000000000000 ) ) ;
#109 = CONICAL_SURFACE ( 'NONE', #311, 0.1818504999999994431, 0.7853981633974403964 ) ;
#110 = ORIENTED_EDGE ( 'NONE', *, *, #69, .F. ) ;
#111 = DIRECTION ( 'NONE',  ( 0.0000000000000000000, 0.0000000000000000000, 1.000000000000000000 ) ) ;
#112 = EDGE_CURVE ( 'NONE', #82, #91, #222, .T. ) ;
#113 = CARTESIAN_POINT ( 'NONE',  ( 0.2165355499999996880, 0.0000000000000000000, 2.430208303031070827 ) ) ;
#114 = VERTEX_POINT ( 'NONE', #159 ) ;
#115 = DIRECTION ( 'NONE',  ( 0.0000000000000000000, 0.0000000000000000000, -1.000000000000000000 ) ) ;
#116 = EDGE_CURVE ( 'NONE', #330, #296, #161, .T. ) ;
#117 = EDGE_LOOP ( 'NONE', ( #84, #259, #21, #107 ) ) ;
#118 = CIRCLE ( 'NONE', #124, 0.1318899999999999517 ) ;
#119 = CARTESIAN_POINT ( 'NONE',  ( 0.0000000000000000000, 0.1318899999999999795, 0.3429833309002433550 ) ) ;
#120 = ORIENTED_EDGE ( 'NONE', *, *, #112, .T. ) ;
#121 = DIRECTION ( 'NONE',  ( 0.0000000000000000000, 0.0000000000000000000, 1.000000000000000000 ) ) ;
#122 = EDGE_LOOP ( 'NONE', ( #29, #246, #234, #303 ) ) ;
#123 = CARTESIAN_POINT ( 'NONE',  ( 0.0000000000000000000, 0.0000000000000000000, 3.937007999999999619 ) ) ;
#124 = AXIS2_PLACEMENT_3D ( 'NONE', #87, #274, #253 ) ;
#125 = LINE ( 'NONE', #43, #138 ) ;
#126 = APPLICATION_CONTEXT ( 'automotive_design' ) ;
#127 = SURFACE_SIDE_STYLE ('',( #46 ) ) ;
#128 = EDGE_CURVE ( 'NONE', #91, #82, #156, .T. ) ;
#129 = DIRECTION ( 'NONE',  ( -0.0000000000000000000, -0.0000000000000000000, -1.000000000000000000 ) ) ;
#130 = VECTOR ( 'NONE', #164, 39.37007874015748143 ) ;
#131 =( NAMED_UNIT ( * ) PLANE_ANGLE_UNIT ( ) SI_UNIT ( $, .RADIAN. ) );
#132 =( NAMED_UNIT ( * ) SI_UNIT ( $, .STERADIAN. ) SOLID_ANGLE_UNIT ( ) );
#133 = DIRECTION ( 'NONE',  ( -1.000000000000000000, 0.0000000000000000000, 0.0000000000000000000 ) ) ;
#134 = CARTESIAN_POINT ( 'NONE',  ( 0.0000000000000000000, 0.0000000000000000000, 3.937007999999999619 ) ) ;
#135 = DIRECTION ( 'NONE',  ( 0.0000000000000000000, 0.0000000000000000000, 1.000000000000000000 ) ) ;
#136 = CARTESIAN_POINT ( 'NONE',  ( 0.0000000000000000000, 0.0000000000000000000, 0.1968500000000000250 ) ) ;
#137 = DIRECTION ( 'NONE',  ( 1.000000000000000000, 0.0000000000000000000, 0.0000000000000000000 ) ) ;
#138 = VECTOR ( 'NONE', #149, 39.37007874015748143 ) ;
#139 = AXIS2_PLACEMENT_3D ( 'NONE', #57, #169, #108 ) ;
#140 = DIRECTION ( 'NONE',  ( -0.0000000000000000000, -0.0000000000000000000, -1.000000000000000000 ) ) ;
#141 = ORIENTED_EDGE ( 'NONE', *, *, #112, .F. ) ;
#142 = CARTESIAN_POINT ( 'NONE',  ( 0.0000000000000000000, 0.0000000000000000000, 0.3429833309002433550 ) ) ;
#143 = CARTESIAN_POINT ( 'NONE',  ( 0.0000000000000000000, 1.205358612060782468E-17, 0.0000000000000000000 ) ) ;
#144 = ADVANCED_FACE ( 'NONE', ( #48 ), #76, .T. ) ;
#145 = FACE_OUTER_BOUND ( 'NONE', #328, .T. ) ;
#146 = CARTESIAN_POINT ( 'NONE',  ( -0.1818504999999994431, 0.0000000000000000000, 3.937007999999999619 ) ) ;
#147 = AXIS2_PLACEMENT_3D ( 'NONE', #291, #188, #288 ) ;
#148 = FACE_OUTER_BOUND ( 'NONE', #68, .T. ) ;
#149 = DIRECTION ( 'NONE',  ( 0.7071067811865419106, 8.659560562354863833E-17, -0.7071067811865531239 ) ) ;
#150 = DIMENSIONAL_EXPONENTS ( 1.000000000000000000, 0.0000000000000000000, 0.0000000000000000000, 0.0000000000000000000, 0.0000000000000000000, 0.0000000000000000000, 0.0000000000000000000 ) ;
#151 = DIRECTION ( 'NONE',  ( 1.000000000000000000, 0.0000000000000000000, 0.0000000000000000000 ) ) ;
#152 = VERTEX_POINT ( 'NONE', #242 ) ;
#153 = VECTOR ( 'NONE', #129, 39.37007874015748143 ) ;
#154 = DIRECTION ( 'NONE',  ( 0.0000000000000000000, 0.0000000000000000000, 1.000000000000000000 ) ) ;
#155 = LENGTH_MEASURE_WITH_UNIT ( LENGTH_MEASURE( 0.02539999999999999897 ), #207 );
#156 = CIRCLE ( 'NONE', #208, 0.1818504999999994431 ) ;
#157 =( GEOMETRIC_REPRESENTATION_CONTEXT ( 3 ) GLOBAL_UNCERTAINTY_ASSIGNED_CONTEXT ( ( #343 ) ) GLOBAL_UNIT_ASSIGNED_CONTEXT ( ( #184, #131, #269 ) ) REPRESENTATION_CONTEXT ( 'NONE', 'WORKASPACE' ) );
#158 = SURFACE_SIDE_STYLE ('',( #49 ) ) ;
#159 = CARTESIAN_POINT ( 'NONE',  ( 0.1968504999999999838, 2.410723347355560646E-17, 2.322834999999999983 ) ) ;
#160 = CIRCLE ( 'NONE', #104, 0.1968500000000000250 ) ;
#161 = CIRCLE ( 'NONE', #13, 0.1318899999999999517 ) ;
#162 = PRESENTATION_LAYER_ASSIGNMENT (  '', '', ( #65 ) ) ;
#163 = ORIENTED_EDGE ( 'NONE', *, *, #116, .F. ) ;
#164 = DIRECTION ( 'NONE',  ( -0.0000000000000000000, -0.0000000000000000000, -1.000000000000000000 ) ) ;
#165 = CARTESIAN_POINT ( 'NONE',  ( 0.0000000000000000000, 0.0000000000000000000, 3.937007999999999619 ) ) ;
#166 = ORIENTED_EDGE ( 'NONE', *, *, #183, .T. ) ;
#167 = CARTESIAN_POINT ( 'NONE',  ( -0.2165355499999996880, 2.651795682091112828E-17, 2.430208303031070827 ) ) ;
#168 = ORIENTED_EDGE ( 'NONE', *, *, #309, .T. ) ;
#169 = DIRECTION ( 'NONE',  ( -0.0000000000000000000, -0.0000000000000000000, -1.000000000000000000 ) ) ;
#170 = AXIS2_PLACEMENT_3D ( 'NONE', #195, #140, #190 ) ;
#171 = EDGE_CURVE ( 'NONE', #273, #330, #223, .T. ) ;
#172 = CARTESIAN_POINT ( 'NONE',  ( 0.1318899999999999517, 1.615186663395443625E-17, 0.3429833309002433550 ) ) ;
#173 = MANIFOLD_SOLID_BREP ( 'Cut-Revolve3', #19 ) ;
#174 = ORIENTED_EDGE ( 'NONE', *, *, #128, .T. ) ;
#175 = DIRECTION ( 'NONE',  ( -1.000000000000000000, 0.0000000000000000000, 0.0000000000000000000 ) ) ;
#176 = DIRECTION ( 'NONE',  ( -1.000000000000000000, 0.0000000000000000000, 0.0000000000000000000 ) ) ;
#177 = AXIS2_PLACEMENT_3D ( 'NONE', #63, #17, #151 ) ;
#178 = SPHERICAL_SURFACE ( 'NONE', #240, 0.1968500000000000250 ) ;
#179 = COLOUR_RGB ( '',0.7921568627450980005, 0.8196078431372548767, 0.9333333333333333481 ) ;
#180 = ORIENTED_EDGE ( 'NONE', *, *, #265, .F. ) ;
#181 = DIRECTION ( 'NONE',  ( 0.0000000000000000000, 0.0000000000000000000, 1.000000000000000000 ) ) ;
#182 = EDGE_CURVE ( 'NONE', #52, #114, #268, .T. ) ;
#183 = EDGE_CURVE ( 'NONE', #299, #285, #289, .T. ) ;
#184 =( CONVERSION_BASED_UNIT ( 'INCH', #266 ) LENGTH_UNIT ( ) NAMED_UNIT ( #150 ) );
#185 = CYLINDRICAL_SURFACE ( 'NONE', #26, 0.1968504999999999838 ) ;
#186 = CARTESIAN_POINT ( 'NONE',  ( 1.615186663395443625E-17, -0.1318899999999999795, 0.3429833309002433550 ) ) ;
#187 = AXIS2_PLACEMENT_3D ( 'NONE', #245, #79, #327 ) ;
#188 = DIRECTION ( 'NONE',  ( 1.000000000000000000, 0.0000000000000000000, 0.0000000000000000000 ) ) ;
#189 = DIRECTION ( 'NONE',  ( 0.0000000000000000000, 0.0000000000000000000, 1.000000000000000000 ) ) ;
#190 = DIRECTION ( 'NONE',  ( -1.000000000000000000, 0.0000000000000000000, 0.0000000000000000000 ) ) ;
#191 = EDGE_CURVE ( 'NONE', #16, #114, #199, .T. ) ;
#192 = CIRCLE ( 'NONE', #187, 0.1318899999999997574 ) ;
#193 = ORIENTED_EDGE ( 'NONE', *, *, #28, .T. ) ;
#194 = DIRECTION ( 'NONE',  ( 0.0000000000000000000, 0.0000000000000000000, -1.000000000000000000 ) ) ;
#195 = CARTESIAN_POINT ( 'NONE',  ( 0.0000000000000000000, 0.0000000000000000000, 0.0000000000000000000 ) ) ;
#196 = DIRECTION ( 'NONE',  ( -1.000000000000000000, 0.0000000000000000000, 0.0000000000000000000 ) ) ;
#197 = CARTESIAN_POINT ( 'NONE',  ( -0.1818504999999994431, 0.0000000000000000000, 3.937007999999999619 ) ) ;
#198 = VECTOR ( 'NONE', #334, 39.37007874015748143 ) ;
#199 = LINE ( 'NONE', #113, #229 ) ;
#200 = FACE_OUTER_BOUND ( 'NONE', #324, .T. ) ;
#201 = EDGE_LOOP ( 'NONE', ( #168, #86, #310, #202 ) ) ;
#202 = ORIENTED_EDGE ( 'NONE', *, *, #322, .F. ) ;
#203 = CARTESIAN_POINT ( 'NONE',  ( 0.0000000000000000000, 0.0000000000000000000, 2.322834999999999983 ) ) ;
#204 = DIRECTION ( 'NONE',  ( 1.000000000000000000, 0.0000000000000000000, 0.0000000000000000000 ) ) ;
#205 = CARTESIAN_POINT ( 'NONE',  ( 0.0000000000000000000, 0.0000000000000000000, 1.968503999999999809 ) ) ;
#206 = ADVANCED_FACE ( 'NONE', ( #56 ), #38, .T. ) ;
#207 =( LENGTH_UNIT ( ) NAMED_UNIT ( * ) SI_UNIT ( $, .METRE. ) );
#208 = AXIS2_PLACEMENT_3D ( 'NONE', #210, #135, #238 ) ;
#209 = AXIS2_PLACEMENT_3D ( 'NONE', #70, #154, #204 ) ;
#210 = CARTESIAN_POINT ( 'NONE',  ( 0.0000000000000000000, 0.0000000000000000000, 3.937007999999999619 ) ) ;
#211 = AXIS2_PLACEMENT_3D ( 'NONE', #272, #218, #213 ) ;
#212 = EDGE_CURVE ( 'NONE', #152, #296, #300, .T. ) ;
#213 = DIRECTION ( 'NONE',  ( -1.000000000000000000, 0.0000000000000000000, 0.0000000000000000000 ) ) ;
#214 = ORIENTED_EDGE ( 'NONE', *, *, #322, .T. ) ;
#215 = DIRECTION ( 'NONE',  ( 0.0000000000000000000, 0.0000000000000000000, 1.000000000000000000 ) ) ;
#216 = AXIS2_PLACEMENT_3D ( 'NONE', #12, #11, #249 ) ;
#217 = ORIENTED_EDGE ( 'NONE', *, *, #171, .F. ) ;
#218 = DIRECTION ( 'NONE',  ( -0.0000000000000000000, -0.0000000000000000000, -1.000000000000000000 ) ) ;
#219 = EDGE_LOOP ( 'NONE', ( #270, #277, #306, #302 ) ) ;
#220 = DIRECTION ( 'NONE',  ( 0.0000000000000000000, 0.0000000000000000000, -1.000000000000000000 ) ) ;
#221 = DIRECTION ( 'NONE',  ( 0.0000000000000000000, 0.0000000000000000000, -1.000000000000000000 ) ) ;
#222 = CIRCLE ( 'NONE', #6, 0.1818504999999994431 ) ;
#223 = CIRCLE ( 'NONE', #275, 0.1318899999999999517 ) ;
#224 = ORIENTED_EDGE ( 'NONE', *, *, #309, .F. ) ;
#225 = CARTESIAN_POINT ( 'NONE',  ( 0.1318899999999998685, 1.615186663395442393E-17, 0.0000000000000000000 ) ) ;
#226 = DIRECTION ( 'NONE',  ( 1.000000000000000000, 1.224646799147353207E-16, -0.0000000000000000000 ) ) ;
#227 = DIRECTION ( 'NONE',  ( 1.000000000000000000, 0.0000000000000000000, -0.0000000000000000000 ) ) ;
#228 = LINE ( 'NONE', #146, #71 ) ;
#229 = VECTOR ( 'NONE', #278, 39.37007874015748143 ) ;
#230 = DIMENSIONAL_EXPONENTS ( 1.000000000000000000, 0.0000000000000000000, 0.0000000000000000000, 0.0000000000000000000, 0.0000000000000000000, 0.0000000000000000000, 0.0000000000000000000 ) ;
#231 = EDGE_CURVE ( 'NONE', #39, #88, #297, .T. ) ;
#232 = CARTESIAN_POINT ( 'NONE',  ( 0.1818504999999994431, 2.318874837419505661E-17, 3.937007999999999619 ) ) ;
#233 = EDGE_CURVE ( 'NONE', #152, #52, #30, .T. ) ;
#234 = ORIENTED_EDGE ( 'NONE', *, *, #292, .T. ) ;
#235 = FILL_AREA_STYLE ('',( #100 ) ) ;
#236 = COLOUR_RGB ( '',0.7921568627450980005, 0.8196078431372548767, 0.9333333333333333481 ) ;
#237 = SURFACE_STYLE_USAGE ( .BOTH. , #127 ) ;
#238 = DIRECTION ( 'NONE',  ( 1.000000000000000000, 0.0000000000000000000, 0.0000000000000000000 ) ) ;
#239 = SURFACE_STYLE_USAGE ( .BOTH. , #158 ) ;
#240 = AXIS2_PLACEMENT_3D ( 'NONE', #314, #283, #308 ) ;
#241 = CONICAL_SURFACE ( 'NONE', #216, 0.2165355499999996880, 0.1813192738195757436 ) ;
#242 = CARTESIAN_POINT ( 'NONE',  ( -0.1318899999999997574, 2.012955005375500749E-17, 1.968503999999999809 ) ) ;
#243 = CARTESIAN_POINT ( 'NONE',  ( 0.0000000000000000000, 0.0000000000000000000, 3.937007999999999619 ) ) ;
#244 = PRODUCT_RELATED_PRODUCT_CATEGORY ( 'part', '', ( #271 ) ) ;
#245 = CARTESIAN_POINT ( 'NONE',  ( 0.0000000000000000000, 0.0000000000000000000, 1.968503999999999809 ) ) ;
#246 = ORIENTED_EDGE ( 'NONE', *, *, #116, .T. ) ;
#247 = FACE_OUTER_BOUND ( 'NONE', #252, .T. ) ;
#248 = ORIENTED_EDGE ( 'NONE', *, *, #256, .F. ) ;
#249 = DIRECTION ( 'NONE',  ( 1.000000000000000000, 0.0000000000000000000, 0.0000000000000000000 ) ) ;
#250 = ORIENTED_EDGE ( 'NONE', *, *, #28, .F. ) ;
#251 = DIMENSIONAL_EXPONENTS ( 1.000000000000000000, 0.0000000000000000000, 0.0000000000000000000, 0.0000000000000000000, 0.0000000000000000000, 0.0000000000000000000, 0.0000000000000000000 ) ;
#252 = EDGE_LOOP ( 'NONE', ( #2, #276, #110, #64 ) ) ;
#253 = DIRECTION ( 'NONE',  ( -1.000000000000000000, 0.0000000000000000000, 0.0000000000000000000 ) ) ;
#254 = ADVANCED_FACE ( 'NONE', ( #145 ), #75, .T. ) ;
#255 = FACE_OUTER_BOUND ( 'NONE', #117, .T. ) ;
#256 = EDGE_CURVE ( 'NONE', #39, #273, #118, .T. ) ;
#257 = ORIENTED_EDGE ( 'NONE', *, *, #50, .F. ) ;
#258 = ADVANCED_FACE ( 'NONE', ( #247 ), #241, .T. ) ;
#259 = ORIENTED_EDGE ( 'NONE', *, *, #171, .T. ) ;
#260 = ADVANCED_FACE ( 'NONE', ( #60 ), #331, .T. ) ;
#261 = ORIENTED_EDGE ( 'NONE', *, *, #50, .T. ) ;
#262 = CIRCLE ( 'NONE', #40, 0.1968504999999999838 ) ;
#263 = CIRCLE ( 'NONE', #24, 0.1968504999999999838 ) ;
#264 = FILL_AREA_STYLE_COLOUR ( '', #236 ) ;
#265 = EDGE_CURVE ( 'NONE', #299, #114, #323, .T. ) ;
#266 = LENGTH_MEASURE_WITH_UNIT ( LENGTH_MEASURE( 0.02539999999999999897 ), #74 );
#267 = PRODUCT_DEFINITION_CONTEXT ( 'detailed design', #15, 'design' ) ;
#268 = CIRCLE ( 'NONE', #282, 0.1968504999999999838 ) ;
#269 =( NAMED_UNIT ( * ) SI_UNIT ( $, .STERADIAN. ) SOLID_ANGLE_UNIT ( ) );
#270 = ORIENTED_EDGE ( 'NONE', *, *, #233, .F. ) ;
#271 = PRODUCT ( 'Micro_SBMM-100-250', 'Micro_SBMM-100-250', '', ( #97 ) ) ;
#272 = CARTESIAN_POINT ( 'NONE',  ( 0.0000000000000000000, 0.0000000000000000000, 0.0000000000000000000 ) ) ;
#273 = VERTEX_POINT ( 'NONE', #172 ) ;
#274 = DIRECTION ( 'NONE',  ( -0.0000000000000000000, -0.0000000000000000000, -1.000000000000000000 ) ) ;
#275 = AXIS2_PLACEMENT_3D ( 'NONE', #319, #342, #102 ) ;
#276 = ORIENTED_EDGE ( 'NONE', *, *, #233, .T. ) ;
#277 = ORIENTED_EDGE ( 'NONE', *, *, #279, .F. ) ;
#278 = DIRECTION ( 'NONE',  ( 0.1803273764767828191, 0.0000000000000000000, 0.9836066476457956398 ) ) ;
#279 = EDGE_CURVE ( 'NONE', #16, #152, #192, .T. ) ;
#280 = ADVANCED_FACE ( 'NONE', ( #34 ), #85, .T. ) ;
#281 = ORIENTED_EDGE ( 'NONE', *, *, #32, .T. ) ;
#282 = AXIS2_PLACEMENT_3D ( 'NONE', #295, #215, #8 ) ;
#283 = DIRECTION ( 'NONE',  ( 1.000000000000000000, 0.0000000000000000000, 0.0000000000000000000 ) ) ;
#284 = CARTESIAN_POINT ( 'NONE',  ( 0.1318899999999997574, 0.0000000000000000000, 1.968503999999999809 ) ) ;
#285 = VERTEX_POINT ( 'NONE', #35 ) ;
#286 = FILL_AREA_STYLE ('',( #264 ) ) ;
#287 =( CONVERSION_BASED_UNIT ( 'INCH', #155 ) LENGTH_UNIT ( ) NAMED_UNIT ( #230 ) );
#288 = DIRECTION ( 'NONE',  ( 0.0000000000000000000, 1.000000000000000000, 0.0000000000000000000 ) ) ;
#289 = CIRCLE ( 'NONE', #81, 0.1968504999999999838 ) ;
#290 =( LENGTH_UNIT ( ) NAMED_UNIT ( * ) SI_UNIT ( $, .METRE. ) );
#291 = CARTESIAN_POINT ( 'NONE',  ( 0.0000000000000000000, 0.0000000000000000000, 0.1968500000000000250 ) ) ;
#292 = EDGE_CURVE ( 'NONE', #296, #39, #332, .T. ) ;
#293 = UNCERTAINTY_MEASURE_WITH_UNIT (LENGTH_MEASURE( 1.000000000000000082E-05 ), #287, 'distance_accuracy_value', 'NONE');
#294 = PRODUCT_DEFINITION ( 'UNKNOWN', '', #51, #267 ) ;
#295 = CARTESIAN_POINT ( 'NONE',  ( 0.0000000000000000000, 0.0000000000000000000, 2.322834999999999983 ) ) ;
#296 = VERTEX_POINT ( 'NONE', #54 ) ;
#297 = CIRCLE ( 'NONE', #336, 0.1968500000000000250 ) ;
#298 = DIRECTION ( 'NONE',  ( -1.000000000000000000, 0.0000000000000000000, 0.0000000000000000000 ) ) ;
#299 = VERTEX_POINT ( 'NONE', #325 ) ;
#300 = LINE ( 'NONE', #62, #341 ) ;
#301 = DIRECTION ( 'NONE',  ( 1.000000000000000000, 0.0000000000000000000, 0.0000000000000000000 ) ) ;
#302 = ORIENTED_EDGE ( 'NONE', *, *, #182, .F. ) ;
#303 = ORIENTED_EDGE ( 'NONE', *, *, #231, .T. ) ;
#304 = CARTESIAN_POINT ( 'NONE',  ( 0.0000000000000000000, 0.0000000000000000000, 3.922007999999999051 ) ) ;
#305 = AXIS2_PLACEMENT_3D ( 'NONE', #307, #115, #196 ) ;
#306 = ORIENTED_EDGE ( 'NONE', *, *, #191, .T. ) ;
#307 = CARTESIAN_POINT ( 'NONE',  ( 0.0000000000000000000, 0.0000000000000000000, 3.937007999999999619 ) ) ;
#308 = DIRECTION ( 'NONE',  ( 0.0000000000000000000, 1.000000000000000000, 0.0000000000000000000 ) ) ;
#309 = EDGE_CURVE ( 'NONE', #285, #299, #262, .T. ) ;
#310 = ORIENTED_EDGE ( 'NONE', *, *, #69, .T. ) ;
#311 = AXIS2_PLACEMENT_3D ( 'NONE', #165, #221, #10 ) ;
#312 = ORIENTED_EDGE ( 'NONE', *, *, #128, .F. ) ;
#313 = PLANE ( 'NONE',  #20 ) ;
#314 = CARTESIAN_POINT ( 'NONE',  ( 0.0000000000000000000, 0.0000000000000000000, 0.1968500000000000250 ) ) ;
#315 =( NAMED_UNIT ( * ) PLANE_ANGLE_UNIT ( ) SI_UNIT ( $, .RADIAN. ) );
#316 =( GEOMETRIC_REPRESENTATION_CONTEXT ( 3 ) GLOBAL_UNCERTAINTY_ASSIGNED_CONTEXT ( ( #106 ) ) GLOBAL_UNIT_ASSIGNED_CONTEXT ( ( #340, #73, #47 ) ) REPRESENTATION_CONTEXT ( 'NONE', 'WORKASPACE' ) );
#317 = APPLICATION_PROTOCOL_DEFINITION ( 'draft international standard', 'automotive_design', 1998, #15 ) ;
#318 = ADVANCED_FACE ( 'NONE', ( #148 ), #313, .T. ) ;
#319 = CARTESIAN_POINT ( 'NONE',  ( 0.0000000000000000000, 0.0000000000000000000, 0.3429833309002433550 ) ) ;
#320 = PRESENTATION_STYLE_ASSIGNMENT (( #237 ) ) ;
#321 = DIRECTION ( 'NONE',  ( -1.000000000000000000, 0.0000000000000000000, 0.0000000000000000000 ) ) ;
#322 = EDGE_CURVE ( 'NONE', #285, #52, #37, .T. ) ;
#323 = LINE ( 'NONE', #7, #130 ) ;
#324 = EDGE_LOOP ( 'NONE', ( #250, #141, #58, #333 ) ) ;
#325 = CARTESIAN_POINT ( 'NONE',  ( 0.1968504999999999838, 2.410723347355560646E-17, 3.922007999999999051 ) ) ;
#326 = ORIENTED_EDGE ( 'NONE', *, *, #279, .T. ) ;
#327 = DIRECTION ( 'NONE',  ( -1.000000000000000000, 0.0000000000000000000, 0.0000000000000000000 ) ) ;
#328 = EDGE_LOOP ( 'NONE', ( #312, #193, #224, #61 ) ) ;
#329 = DIRECTION ( 'NONE',  ( -0.1803273764767828191, 2.208373444009318018E-17, 0.9836066476457956398 ) ) ;
#330 = VERTEX_POINT ( 'NONE', #186 ) ;
#331 = CYLINDRICAL_SURFACE ( 'NONE', #211, 0.1318899999999998685 ) ;
#332 = CIRCLE ( 'NONE', #59, 0.1318899999999999517 ) ;
#333 = ORIENTED_EDGE ( 'NONE', *, *, #183, .F. ) ;
#334 = DIRECTION ( 'NONE',  ( -0.0000000000000000000, -0.0000000000000000000, -1.000000000000000000 ) ) ;
#335 = DIRECTION ( 'NONE',  ( -0.0000000000000000000, -0.0000000000000000000, -1.000000000000000000 ) ) ;
#336 = AXIS2_PLACEMENT_3D ( 'NONE', #136, #175, #111 ) ;
#337 = DIRECTION ( 'NONE',  ( -1.224646799147353207E-16, 1.000000000000000000, 0.0000000000000000000 ) ) ;
#338 = APPLICATION_PROTOCOL_DEFINITION ( 'draft international standard', 'automotive_design', 1998, #126 ) ;
#339 = CARTESIAN_POINT ( 'NONE',  ( -0.1968504999999999838, 0.0000000000000000000, 2.322834999999999983 ) ) ;
#340 =( CONVERSION_BASED_UNIT ( 'INCH', #22 ) LENGTH_UNIT ( ) NAMED_UNIT ( #251 ) );
#341 = VECTOR ( 'NONE', #4, 39.37007874015748143 ) ;
#342 = DIRECTION ( 'NONE',  ( -0.0000000000000000000, -0.0000000000000000000, -1.000000000000000000 ) ) ;
#343 = UNCERTAINTY_MEASURE_WITH_UNIT (LENGTH_MEASURE( 1.000000000000000082E-05 ), #184, 'distance_accuracy_value', 'NONE');
#344 = CARTESIAN_POINT ( 'NONE',  ( 0.0000000000000000000, 0.0000000000000000000, 0.3429833309002433550 ) ) ;
#345 = AXIS2_PLACEMENT_3D ( 'NONE', #205, #335, #176 ) ;
ENDSEC;
END-ISO-10303-21;
