ISO-10303-21;
HEADER;
FILE_DESCRIPTION (( 'STEP AP214' ),
    '1' );
FILE_NAME ('01765.STEP',
    '2023-06-22T14:47:34',
    ( '' ),
    ( '' ),
    'SwSTEP 2.0',
    'SolidWorks 2023',
    '' );
FILE_SCHEMA (( 'AUTOMOTIVE_DESIGN' ));
ENDSEC;

DATA;
#1 =( CONVERSION_BASED_UNIT ( 'INCH', #192 ) LENGTH_UNIT ( ) NAMED_UNIT ( #163 ) );
#2 = AXIS2_PLACEMENT_3D ( 'NONE', #267, #220, #293 ) ;
#3 =( GEOMETRIC_REPRESENTATION_CONTEXT ( 3 ) GLOBAL_UNCERTAINTY_ASSIGNED_CONTEXT ( ( #287 ) ) GLOBAL_UNIT_ASSIGNED_CONTEXT ( ( #86, #36, #164 ) ) REPRESENTATION_CONTEXT ( 'NONE', 'WORKASPACE' ) );
#4 = EDGE_LOOP ( 'NONE', ( #93, #152, #108, #247 ) ) ;
#5 = EDGE_CURVE ( 'NONE', #270, #47, #268, .T. ) ;
#6 = DIRECTION ( 'NONE',  ( -3.628583108584753553E-17, 1.000000000000000000, 0.000000000000000000 ) ) ;
#7 = FILL_AREA_STYLE_COLOUR ( '', #146 ) ;
#8 = AXIS2_PLACEMENT_3D ( 'NONE', #241, #144, #265 ) ;
#9 = FACE_OUTER_BOUND ( 'NONE', #120, .T. ) ;
#10 = DIRECTION ( 'NONE',  ( 0.000000000000000000, -1.000000000000000000, -0.000000000000000000 ) ) ;
#11 = FILL_AREA_STYLE ('',( #275 ) ) ;
#12 = DIRECTION ( 'NONE',  ( -3.628583108584753553E-17, 1.000000000000000000, -0.000000000000000000 ) ) ;
#13 = ORIENTED_EDGE ( 'NONE', *, *, #260, .T. ) ;
#14 = STYLED_ITEM ( 'NONE', ( #59 ), #186 ) ;
#15 = SURFACE_SIDE_STYLE ('',( #279 ) ) ;
#16 = CYLINDRICAL_SURFACE ( 'NONE', #74, 0.5000000000000000000 ) ;
#17 = AXIS2_PLACEMENT_3D ( 'NONE', #76, #10, #49 ) ;
#18 = EDGE_CURVE ( 'NONE', #271, #72, #55, .T. ) ;
#19 = STYLED_ITEM ( 'NONE', ( #89 ), #250 ) ;
#20 = CARTESIAN_POINT ( 'NONE',  ( 0.000000000000000000, 0.000000000000000000, 0.000000000000000000 ) ) ;
#21 =( LENGTH_UNIT ( ) NAMED_UNIT ( * ) SI_UNIT ( $, .METRE. ) );
#22 = EDGE_CURVE ( 'NONE', #72, #271, #242, .T. ) ;
#23 = DIMENSIONAL_EXPONENTS ( 1.000000000000000000, 0.000000000000000000, 0.000000000000000000, 0.000000000000000000, 0.000000000000000000, 0.000000000000000000, 0.000000000000000000 ) ;
#24 = ADVANCED_FACE ( 'NONE', ( #110 ), #218, .T. ) ;
#25 = AXIS2_PLACEMENT_3D ( 'NONE', #196, #68, #35 ) ;
#26 = VERTEX_POINT ( 'NONE', #204 ) ;
#27 =( NAMED_UNIT ( * ) SI_UNIT ( $, .STERADIAN. ) SOLID_ANGLE_UNIT ( ) );
#28 = CARTESIAN_POINT ( 'NONE',  ( 0.000000000000000000, 2.625000000000000000, -0.5000000000000000000 ) ) ;
#29 = PRESENTATION_LAYER_ASSIGNMENT (  '', '', ( #248 ) ) ;
#30 =( NAMED_UNIT ( * ) PLANE_ANGLE_UNIT ( ) SI_UNIT ( $, .RADIAN. ) );
#31 = CARTESIAN_POINT ( 'NONE',  ( 0.5000000000000000000, 6.000000000000000888, 6.123233995736767268E-17 ) ) ;
#32 = DIRECTION ( 'NONE',  ( -0.000000000000000000, -1.000000000000000000, -0.000000000000000000 ) ) ;
#33 = CIRCLE ( 'NONE', #221, 0.5000000000000000000 ) ;
#34 = DIRECTION ( 'NONE',  ( -3.628583108584753553E-17, 1.000000000000000000, -0.000000000000000000 ) ) ;
#35 = DIRECTION ( 'NONE',  ( 0.000000000000000000, 0.000000000000000000, -1.000000000000000000 ) ) ;
#36 =( NAMED_UNIT ( * ) PLANE_ANGLE_UNIT ( ) SI_UNIT ( $, .RADIAN. ) );
#37 = AXIS2_PLACEMENT_3D ( 'NONE', #81, #262, #103 ) ;
#38 = SURFACE_STYLE_USAGE ( .BOTH. , #165 ) ;
#39 = ORIENTED_EDGE ( 'NONE', *, *, #90, .T. ) ;
#40 = FILL_AREA_STYLE ('',( #136 ) ) ;
#41 = ORIENTED_EDGE ( 'NONE', *, *, #18, .T. ) ;
#42 = ORIENTED_EDGE ( 'NONE', *, *, #90, .F. ) ;
#43 = AXIS2_PLACEMENT_3D ( 'NONE', #259, #46, #153 ) ;
#44 = DIRECTION ( 'NONE',  ( 1.000000000000000000, 0.000000000000000000, 0.000000000000000000 ) ) ;
#45 = FACE_OUTER_BOUND ( 'NONE', #143, .T. ) ;
#46 = DIRECTION ( 'NONE',  ( 3.628583108584753553E-17, -1.000000000000000000, 0.000000000000000000 ) ) ;
#47 = VERTEX_POINT ( 'NONE', #257 ) ;
#48 = APPLICATION_PROTOCOL_DEFINITION ( 'draft international standard', 'automotive_design', 1998, #180 ) ;
#49 = DIRECTION ( 'NONE',  ( 0.000000000000000000, 0.000000000000000000, -1.000000000000000000 ) ) ;
#50 = COLOUR_RGB ( '',1.000000000000000000, 0.000000000000000000, 0.000000000000000000 ) ;
#51 = AXIS2_PLACEMENT_3D ( 'NONE', #264, #308, #113 ) ;
#52 = LENGTH_MEASURE_WITH_UNIT ( LENGTH_MEASURE( 0.02539999999999999897 ), #112 );
#53 = EDGE_LOOP ( 'NONE', ( #197, #116 ) ) ;
#54 = CARTESIAN_POINT ( 'NONE',  ( 0.000000000000000000, 0.000000000000000000, -0.5000000000000000000 ) ) ;
#55 = CIRCLE ( 'NONE', #2, 0.5000000000000000000 ) ;
#56 = AXIS2_PLACEMENT_3D ( 'NONE', #305, #83, #217 ) ;
#57 = DIRECTION ( 'NONE',  ( 0.000000000000000000, 0.000000000000000000, -1.000000000000000000 ) ) ;
#58 = PRODUCT_RELATED_PRODUCT_CATEGORY ( 'part', '', ( #150 ) ) ;
#59 = PRESENTATION_STYLE_ASSIGNMENT (( #214 ) ) ;
#60 = LENGTH_MEASURE_WITH_UNIT ( LENGTH_MEASURE( 0.02539999999999999897 ), #21 );
#61 = MECHANICAL_DESIGN_GEOMETRIC_PRESENTATION_REPRESENTATION (  '', ( #94 ), #273 ) ;
#62 = SURFACE_STYLE_FILL_AREA ( #82 ) ;
#63 = APPLICATION_CONTEXT ( 'automotive_design' ) ;
#64 = FILL_AREA_STYLE ('',( #148 ) ) ;
#65 = DIMENSIONAL_EXPONENTS ( 1.000000000000000000, 0.000000000000000000, 0.000000000000000000, 0.000000000000000000, 0.000000000000000000, 0.000000000000000000, 0.000000000000000000 ) ;
#66 = CARTESIAN_POINT ( 'NONE',  ( -1.224646799147354440E-16, 6.000000000000000888, 0.000000000000000000 ) ) ;
#67 = AXIS2_PLACEMENT_3D ( 'NONE', #66, #34, #246 ) ;
#68 = DIRECTION ( 'NONE',  ( -0.000000000000000000, -1.000000000000000000, -0.000000000000000000 ) ) ;
#69 = EDGE_CURVE ( 'NONE', #72, #270, #73, .T. ) ;
#70 = ORIENTED_EDGE ( 'NONE', *, *, #137, .F. ) ;
#71 = SURFACE_STYLE_FILL_AREA ( #40 ) ;
#72 = VERTEX_POINT ( 'NONE', #28 ) ;
#73 = LINE ( 'NONE', #54, #193 ) ;
#74 = AXIS2_PLACEMENT_3D ( 'NONE', #20, #105, #57 ) ;
#75 = APPLICATION_PROTOCOL_DEFINITION ( 'draft international standard', 'automotive_design', 1998, #63 ) ;
#76 = CARTESIAN_POINT ( 'NONE',  ( 0.000000000000000000, 0.000000000000000000, 0.000000000000000000 ) ) ;
#77 = PRESENTATION_LAYER_ASSIGNMENT (  '', '', ( #14 ) ) ;
#78 = ADVANCED_FACE ( 'NONE', ( #45 ), #126, .T. ) ;
#79 =( NAMED_UNIT ( * ) SI_UNIT ( $, .STERADIAN. ) SOLID_ANGLE_UNIT ( ) );
#80 = ADVANCED_FACE ( 'NONE', ( #229 ), #224, .F. ) ;
#81 = CARTESIAN_POINT ( 'NONE',  ( -1.224646799147354440E-16, 6.000000000000000888, 0.000000000000000000 ) ) ;
#82 = FILL_AREA_STYLE ('',( #280 ) ) ;
#83 = DIRECTION ( 'NONE',  ( -3.628583108584753553E-17, 1.000000000000000000, -0.000000000000000000 ) ) ;
#84 = CARTESIAN_POINT ( 'NONE',  ( 0.000000000000000000, 0.000000000000000000, -0.5000000000000000000 ) ) ;
#85 = ORIENTED_EDGE ( 'NONE', *, *, #188, .T. ) ;
#86 =( CONVERSION_BASED_UNIT ( 'INCH', #194 ) LENGTH_UNIT ( ) NAMED_UNIT ( #65 ) );
#87 = DIMENSIONAL_EXPONENTS ( 1.000000000000000000, 0.000000000000000000, 0.000000000000000000, 0.000000000000000000, 0.000000000000000000, 0.000000000000000000, 0.000000000000000000 ) ;
#88 =( LENGTH_UNIT ( ) NAMED_UNIT ( * ) SI_UNIT ( $, .METRE. ) );
#89 = PRESENTATION_STYLE_ASSIGNMENT (( #140 ) ) ;
#90 = EDGE_CURVE ( 'NONE', #295, #177, #276, .T. ) ;
#91 = ORIENTED_EDGE ( 'NONE', *, *, #188, .F. ) ;
#92 = ORIENTED_EDGE ( 'NONE', *, *, #283, .T. ) ;
#93 = ORIENTED_EDGE ( 'NONE', *, *, #22, .T. ) ;
#94 = STYLED_ITEM ( 'NONE', ( #151 ), #78 ) ;
#95 = ORIENTED_EDGE ( 'NONE', *, *, #22, .F. ) ;
#96 = UNCERTAINTY_MEASURE_WITH_UNIT (LENGTH_MEASURE( 1.000000000000000082E-05 ), #239, 'distance_accuracy_value', 'NONE');
#97 = CARTESIAN_POINT ( 'NONE',  ( 3.291653843976647826E-34, 2.625000000000000000, 0.000000000000000000 ) ) ;
#98 = LENGTH_MEASURE_WITH_UNIT ( LENGTH_MEASURE( 0.02539999999999999897 ), #156 );
#99 = SURFACE_STYLE_FILL_AREA ( #11 ) ;
#100 = DIRECTION ( 'NONE',  ( -0.000000000000000000, -1.000000000000000000, -0.000000000000000000 ) ) ;
#101 = PRESENTATION_LAYER_ASSIGNMENT (  '', '', ( #19 ) ) ;
#102 = DIRECTION ( 'NONE',  ( 0.000000000000000000, 0.000000000000000000, -1.000000000000000000 ) ) ;
#103 = DIRECTION ( 'NONE',  ( -1.000000000000000000, 0.000000000000000000, 0.000000000000000000 ) ) ;
#104 = COLOUR_RGB ( '',0.7921568627450980005, 0.8196078431372548767, 0.9333333333333333481 ) ;
#105 = DIRECTION ( 'NONE',  ( -0.000000000000000000, -1.000000000000000000, -0.000000000000000000 ) ) ;
#106 = DIMENSIONAL_EXPONENTS ( 1.000000000000000000, 0.000000000000000000, 0.000000000000000000, 0.000000000000000000, 0.000000000000000000, 0.000000000000000000, 0.000000000000000000 ) ;
#107 = SURFACE_SIDE_STYLE ('',( #62 ) ) ;
#108 = ORIENTED_EDGE ( 'NONE', *, *, #5, .F. ) ;
#109 = PRESENTATION_LAYER_ASSIGNMENT (  '', '', ( #243 ) ) ;
#110 = FACE_OUTER_BOUND ( 'NONE', #53, .T. ) ;
#111 = PRODUCT_DEFINITION ( 'UNKNOWN', '', #282, #201 ) ;
#112 =( LENGTH_UNIT ( ) NAMED_UNIT ( * ) SI_UNIT ( $, .METRE. ) );
#113 = DIRECTION ( 'NONE',  ( -1.000000000000000000, 0.000000000000000000, 0.000000000000000000 ) ) ;
#114 = MECHANICAL_DESIGN_GEOMETRIC_PRESENTATION_REPRESENTATION (  '', ( #14 ), #175 ) ;
#115 = SURFACE_SIDE_STYLE ('',( #286 ) ) ;
#116 = ORIENTED_EDGE ( 'NONE', *, *, #179, .T. ) ;
#117 =( NAMED_UNIT ( * ) SI_UNIT ( $, .STERADIAN. ) SOLID_ANGLE_UNIT ( ) );
#118 = EDGE_LOOP ( 'NONE', ( #91, #13, #174, #222 ) ) ;
#119 = DIRECTION ( 'NONE',  ( -1.000000000000000000, -3.628583108584753553E-17, 0.000000000000000000 ) ) ;
#120 = EDGE_LOOP ( 'NONE', ( #70, #166 ) ) ;
#121 = CARTESIAN_POINT ( 'NONE',  ( -0.5000000000000002220, 6.000000000000000888, 0.000000000000000000 ) ) ;
#122 = MECHANICAL_DESIGN_GEOMETRIC_PRESENTATION_REPRESENTATION (  '', ( #154 ), #277 ) ;
#123 = DIRECTION ( 'NONE',  ( 0.000000000000000000, 0.000000000000000000, -1.000000000000000000 ) ) ;
#124 = PRODUCT_CONTEXT ( 'NONE', #180, 'mechanical' ) ;
#125 = CARTESIAN_POINT ( 'NONE',  ( 0.000000000000000000, 0.000000000000000000, 0.000000000000000000 ) ) ;
#126 = CYLINDRICAL_SURFACE ( 'NONE', #211, 0.5000000000000000000 ) ;
#127 = CARTESIAN_POINT ( 'NONE',  ( 0.4999999999999999445, 6.000000000000000888, 6.123233995736767268E-17 ) ) ;
#128 = CYLINDRICAL_SURFACE ( 'NONE', #56, 0.5000000000000001110 ) ;
#129 = CYLINDRICAL_SURFACE ( 'NONE', #37, 0.5000000000000001110 ) ;
#130 = VERTEX_POINT ( 'NONE', #228 ) ;
#131 = CLOSED_SHELL ( 'NONE', ( #236, #299, #195, #80 ) ) ;
#132 = AXIS2_PLACEMENT_3D ( 'NONE', #207, #208, #232 ) ;
#133 = MECHANICAL_DESIGN_GEOMETRIC_PRESENTATION_REPRESENTATION (  '', ( #19 ), #3 ) ;
#134 = DIMENSIONAL_EXPONENTS ( 1.000000000000000000, 0.000000000000000000, 0.000000000000000000, 0.000000000000000000, 0.000000000000000000, 0.000000000000000000, 0.000000000000000000 ) ;
#135 =( NAMED_UNIT ( * ) SI_UNIT ( $, .STERADIAN. ) SOLID_ANGLE_UNIT ( ) );
#136 = FILL_AREA_STYLE_COLOUR ( '', #104 ) ;
#137 = EDGE_CURVE ( 'NONE', #130, #26, #183, .T. ) ;
#138 = COLOUR_RGB ( '',0.7921568627450980005, 0.8196078431372548767, 0.9333333333333333481 ) ;
#139 =( GEOMETRIC_REPRESENTATION_CONTEXT ( 3 ) GLOBAL_UNCERTAINTY_ASSIGNED_CONTEXT ( ( #147 ) ) GLOBAL_UNIT_ASSIGNED_CONTEXT ( ( #253, #230, #226 ) ) REPRESENTATION_CONTEXT ( 'NONE', 'WORKASPACE' ) );
#140 = SURFACE_STYLE_USAGE ( .BOTH. , #115 ) ;
#141 = PLANE ( 'NONE',  #307 ) ;
#142 = FILL_AREA_STYLE ('',( #169 ) ) ;
#143 = EDGE_LOOP ( 'NONE', ( #285, #41, #233, #290 ) ) ;
#144 = DIRECTION ( 'NONE',  ( -0.000000000000000000, -1.000000000000000000, -0.000000000000000000 ) ) ;
#145 = EDGE_LOOP ( 'NONE', ( #173, #85, #42, #170 ) ) ;
#146 = COLOUR_RGB ( '',1.000000000000000000, 0.000000000000000000, 0.000000000000000000 ) ;
#147 = UNCERTAINTY_MEASURE_WITH_UNIT (LENGTH_MEASURE( 1.000000000000000082E-05 ), #253, 'distance_accuracy_value', 'NONE');
#148 = FILL_AREA_STYLE_COLOUR ( '', #167 ) ;
#149 = MECHANICAL_DESIGN_GEOMETRIC_PRESENTATION_REPRESENTATION (  '', ( #243 ), #139 ) ;
#150 = PRODUCT ( '01765', '01765', '', ( #124 ) ) ;
#151 = PRESENTATION_STYLE_ASSIGNMENT (( #252 ) ) ;
#152 = ORIENTED_EDGE ( 'NONE', *, *, #231, .T. ) ;
#153 = DIRECTION ( 'NONE',  ( 1.000000000000000000, 3.628583108584753553E-17, 0.000000000000000000 ) ) ;
#154 = STYLED_ITEM ( 'NONE', ( #161 ), #199 ) ;
#155 = ADVANCED_BREP_SHAPE_REPRESENTATION ( '01765', ( #288, #186, #212 ), #158 ) ;
#156 =( LENGTH_UNIT ( ) NAMED_UNIT ( * ) SI_UNIT ( $, .METRE. ) );
#157 = ORIENTED_EDGE ( 'NONE', *, *, #18, .F. ) ;
#158 =( GEOMETRIC_REPRESENTATION_CONTEXT ( 3 ) GLOBAL_UNCERTAINTY_ASSIGNED_CONTEXT ( ( #291 ) ) GLOBAL_UNIT_ASSIGNED_CONTEXT ( ( #258, #181, #117 ) ) REPRESENTATION_CONTEXT ( 'NONE', 'WORKASPACE' ) );
#159 = LINE ( 'NONE', #261, #256 ) ;
#160 = DIRECTION ( 'NONE',  ( -3.628583108584753553E-17, 1.000000000000000000, -0.000000000000000000 ) ) ;
#161 = PRESENTATION_STYLE_ASSIGNMENT (( #238 ) ) ;
#162 = DIRECTION ( 'NONE',  ( 0.000000000000000000, -0.000000000000000000, 1.000000000000000000 ) ) ;
#163 = DIMENSIONAL_EXPONENTS ( 1.000000000000000000, 0.000000000000000000, 0.000000000000000000, 0.000000000000000000, 0.000000000000000000, 0.000000000000000000, 0.000000000000000000 ) ;
#164 =( NAMED_UNIT ( * ) SI_UNIT ( $, .STERADIAN. ) SOLID_ANGLE_UNIT ( ) );
#165 = SURFACE_SIDE_STYLE ('',( #309 ) ) ;
#166 = ORIENTED_EDGE ( 'NONE', *, *, #260, .F. ) ;
#167 = COLOUR_RGB ( '',1.000000000000000000, 0.000000000000000000, 0.000000000000000000 ) ;
#168 = CARTESIAN_POINT ( 'NONE',  ( 0.000000000000000000, 2.625000000000000000, 0.000000000000000000 ) ) ;
#169 = FILL_AREA_STYLE_COLOUR ( '', #50 ) ;
#170 = ORIENTED_EDGE ( 'NONE', *, *, #172, .F. ) ;
#171 = UNCERTAINTY_MEASURE_WITH_UNIT (LENGTH_MEASURE( 1.000000000000000082E-05 ), #284, 'distance_accuracy_value', 'NONE');
#172 = EDGE_CURVE ( 'NONE', #130, #295, #302, .T. ) ;
#173 = ORIENTED_EDGE ( 'NONE', *, *, #137, .T. ) ;
#174 = ORIENTED_EDGE ( 'NONE', *, *, #172, .T. ) ;
#175 =( GEOMETRIC_REPRESENTATION_CONTEXT ( 3 ) GLOBAL_UNCERTAINTY_ASSIGNED_CONTEXT ( ( #171 ) ) GLOBAL_UNIT_ASSIGNED_CONTEXT ( ( #284, #209, #304 ) ) REPRESENTATION_CONTEXT ( 'NONE', 'WORKASPACE' ) );
#176 = CARTESIAN_POINT ( 'NONE',  ( 0.000000000000000000, 0.000000000000000000, 0.000000000000000000 ) ) ;
#177 = VERTEX_POINT ( 'NONE', #31 ) ;
#178 = SHAPE_DEFINITION_REPRESENTATION ( #191, #155 ) ;
#179 = EDGE_CURVE ( 'NONE', #47, #270, #33, .T. ) ;
#180 = APPLICATION_CONTEXT ( 'automotive_design' ) ;
#181 =( NAMED_UNIT ( * ) PLANE_ANGLE_UNIT ( ) SI_UNIT ( $, .RADIAN. ) );
#182 = DIRECTION ( 'NONE',  ( -3.628583108584753553E-17, 1.000000000000000000, -0.000000000000000000 ) ) ;
#183 = CIRCLE ( 'NONE', #132, 0.5000000000000000000 ) ;
#184 = DIRECTION ( 'NONE',  ( -0.000000000000000000, -1.000000000000000000, -0.000000000000000000 ) ) ;
#185 = FACE_OUTER_BOUND ( 'NONE', #4, .T. ) ;
#186 = MANIFOLD_SOLID_BREP ( 'Revolve - Tool Body (Straight Shanked)', #131 ) ;
#187 = CLOSED_SHELL ( 'NONE', ( #199, #250, #78, #24 ) ) ;
#188 = EDGE_CURVE ( 'NONE', #26, #177, #303, .T. ) ;
#189 = FACE_OUTER_BOUND ( 'NONE', #205, .T. ) ;
#190 = DIMENSIONAL_EXPONENTS ( 1.000000000000000000, 0.000000000000000000, 0.000000000000000000, 0.000000000000000000, 0.000000000000000000, 0.000000000000000000, 0.000000000000000000 ) ;
#191 = PRODUCT_DEFINITION_SHAPE ( 'NONE', 'NONE',  #111 ) ;
#192 = LENGTH_MEASURE_WITH_UNIT ( LENGTH_MEASURE( 0.02539999999999999897 ), #88 );
#193 = VECTOR ( 'NONE', #184, 39.37007874015748143 ) ;
#194 = LENGTH_MEASURE_WITH_UNIT ( LENGTH_MEASURE( 0.02539999999999999897 ), #294 );
#195 = ADVANCED_FACE ( 'NONE', ( #300 ), #129, .T. ) ;
#196 = CARTESIAN_POINT ( 'NONE',  ( 0.000000000000000000, 2.625000000000000000, 0.000000000000000000 ) ) ;
#197 = ORIENTED_EDGE ( 'NONE', *, *, #5, .T. ) ;
#198 =( LENGTH_UNIT ( ) NAMED_UNIT ( * ) SI_UNIT ( $, .METRE. ) );
#199 = ADVANCED_FACE ( 'NONE', ( #185 ), #16, .T. ) ;
#200 = AXIS2_PLACEMENT_3D ( 'NONE', #274, #182, #254 ) ;
#201 = PRODUCT_DEFINITION_CONTEXT ( 'detailed design', #63, 'design' ) ;
#202 = DIRECTION ( 'NONE',  ( -0.000000000000000000, -1.000000000000000000, -0.000000000000000000 ) ) ;
#203 = LENGTH_MEASURE_WITH_UNIT ( LENGTH_MEASURE( 0.02539999999999999897 ), #198 );
#204 = CARTESIAN_POINT ( 'NONE',  ( 0.5000000000000000000, 2.625000000000000000, 6.123233995736767268E-17 ) ) ;
#205 = EDGE_LOOP ( 'NONE', ( #95, #157 ) ) ;
#206 = PRESENTATION_LAYER_ASSIGNMENT (  '', '', ( #94 ) ) ;
#207 = CARTESIAN_POINT ( 'NONE',  ( 1.516480271171051896E-32, 2.625000000000000000, 0.000000000000000000 ) ) ;
#208 = DIRECTION ( 'NONE',  ( -3.628583108584753553E-17, 1.000000000000000000, -0.000000000000000000 ) ) ;
#209 =( NAMED_UNIT ( * ) PLANE_ANGLE_UNIT ( ) SI_UNIT ( $, .RADIAN. ) );
#210 =( NAMED_UNIT ( * ) PLANE_ANGLE_UNIT ( ) SI_UNIT ( $, .RADIAN. ) );
#211 = AXIS2_PLACEMENT_3D ( 'NONE', #125, #100, #102 ) ;
#212 = AXIS2_PLACEMENT_3D ( 'NONE', #298, #278, #44 ) ;
#213 = FACE_OUTER_BOUND ( 'NONE', #145, .T. ) ;
#214 = SURFACE_STYLE_USAGE ( .BOTH. , #301 ) ;
#215 = DIRECTION ( 'NONE',  ( 0.000000000000000000, 1.000000000000000000, 0.000000000000000000 ) ) ;
#216 = AXIS2_PLACEMENT_3D ( 'NONE', #168, #215, #162 ) ;
#217 = DIRECTION ( 'NONE',  ( -1.000000000000000000, 0.000000000000000000, 0.000000000000000000 ) ) ;
#218 = PLANE ( 'NONE',  #17 ) ;
#219 = CARTESIAN_POINT ( 'NONE',  ( 6.123233995736766036E-17, 2.625000000000000000, 0.5000000000000000000 ) ) ;
#220 = DIRECTION ( 'NONE',  ( -0.000000000000000000, -1.000000000000000000, -0.000000000000000000 ) ) ;
#221 = AXIS2_PLACEMENT_3D ( 'NONE', #176, #202, #123 ) ;
#222 = ORIENTED_EDGE ( 'NONE', *, *, #283, .F. ) ;
#223 = CARTESIAN_POINT ( 'NONE',  ( -0.5000000000000002220, 6.000000000000000888, 0.000000000000000000 ) ) ;
#224 = PLANE ( 'NONE',  #43 ) ;
#225 = PRESENTATION_LAYER_ASSIGNMENT (  '', '', ( #154 ) ) ;
#226 =( NAMED_UNIT ( * ) SI_UNIT ( $, .STERADIAN. ) SOLID_ANGLE_UNIT ( ) );
#227 = CIRCLE ( 'NONE', #51, 0.5000000000000000000 ) ;
#228 = CARTESIAN_POINT ( 'NONE',  ( -0.5000000000000000000, 2.625000000000000000, 0.000000000000000000 ) ) ;
#229 = FACE_OUTER_BOUND ( 'NONE', #237, .T. ) ;
#230 =( NAMED_UNIT ( * ) PLANE_ANGLE_UNIT ( ) SI_UNIT ( $, .RADIAN. ) );
#231 = EDGE_CURVE ( 'NONE', #271, #47, #159, .T. ) ;
#232 = DIRECTION ( 'NONE',  ( -1.000000000000000000, 0.000000000000000000, 0.000000000000000000 ) ) ;
#233 = ORIENTED_EDGE ( 'NONE', *, *, #69, .T. ) ;
#234 = VECTOR ( 'NONE', #160, 39.37007874015748143 ) ;
#235 = FILL_AREA_STYLE ('',( #7 ) ) ;
#236 = ADVANCED_FACE ( 'NONE', ( #213 ), #128, .T. ) ;
#237 = EDGE_LOOP ( 'NONE', ( #39, #92 ) ) ;
#238 = SURFACE_STYLE_USAGE ( .BOTH. , #107 ) ;
#239 =( CONVERSION_BASED_UNIT ( 'INCH', #263 ) LENGTH_UNIT ( ) NAMED_UNIT ( #190 ) );
#240 = SURFACE_SIDE_STYLE ('',( #71 ) ) ;
#241 = CARTESIAN_POINT ( 'NONE',  ( 0.000000000000000000, 0.000000000000000000, 0.000000000000000000 ) ) ;
#242 = CIRCLE ( 'NONE', #25, 0.5000000000000000000 ) ;
#243 = STYLED_ITEM ( 'NONE', ( #245 ), #288 ) ;
#244 = UNCERTAINTY_MEASURE_WITH_UNIT (LENGTH_MEASURE( 1.000000000000000082E-05 ), #297, 'distance_accuracy_value', 'NONE');
#245 = PRESENTATION_STYLE_ASSIGNMENT (( #266 ) ) ;
#246 = DIRECTION ( 'NONE',  ( -1.000000000000000000, 0.000000000000000000, 0.000000000000000000 ) ) ;
#247 = ORIENTED_EDGE ( 'NONE', *, *, #69, .F. ) ;
#248 = STYLED_ITEM ( 'NONE', ( #272 ), #24 ) ;
#249 = CIRCLE ( 'NONE', #67, 0.5000000000000001110 ) ;
#250 = ADVANCED_FACE ( 'NONE', ( #189 ), #292, .T. ) ;
#251 = UNCERTAINTY_MEASURE_WITH_UNIT (LENGTH_MEASURE( 1.000000000000000082E-05 ), #1, 'distance_accuracy_value', 'NONE');
#252 = SURFACE_STYLE_USAGE ( .BOTH. , #15 ) ;
#253 =( CONVERSION_BASED_UNIT ( 'INCH', #52 ) LENGTH_UNIT ( ) NAMED_UNIT ( #87 ) );
#254 = DIRECTION ( 'NONE',  ( -1.000000000000000000, 0.000000000000000000, 0.000000000000000000 ) ) ;
#255 = VECTOR ( 'NONE', #12, 39.37007874015748143 ) ;
#256 = VECTOR ( 'NONE', #32, 39.37007874015748143 ) ;
#257 = CARTESIAN_POINT ( 'NONE',  ( 6.123233995736766036E-17, 0.000000000000000000, 0.5000000000000000000 ) ) ;
#258 =( CONVERSION_BASED_UNIT ( 'INCH', #203 ) LENGTH_UNIT ( ) NAMED_UNIT ( #134 ) );
#259 = CARTESIAN_POINT ( 'NONE',  ( 0.5000000000000000000, 6.000000000000000888, 0.000000000000000000 ) ) ;
#260 = EDGE_CURVE ( 'NONE', #26, #130, #227, .T. ) ;
#261 = CARTESIAN_POINT ( 'NONE',  ( 6.123233995736766036E-17, 0.000000000000000000, 0.5000000000000000000 ) ) ;
#262 = DIRECTION ( 'NONE',  ( -3.628583108584753553E-17, 1.000000000000000000, -0.000000000000000000 ) ) ;
#263 = LENGTH_MEASURE_WITH_UNIT ( LENGTH_MEASURE( 0.02539999999999999897 ), #281 );
#264 = CARTESIAN_POINT ( 'NONE',  ( 1.516480271171051896E-32, 2.625000000000000000, 0.000000000000000000 ) ) ;
#265 = DIRECTION ( 'NONE',  ( 0.000000000000000000, 0.000000000000000000, -1.000000000000000000 ) ) ;
#266 = SURFACE_STYLE_USAGE ( .BOTH. , #240 ) ;
#267 = CARTESIAN_POINT ( 'NONE',  ( 0.000000000000000000, 2.625000000000000000, 0.000000000000000000 ) ) ;
#268 = CIRCLE ( 'NONE', #8, 0.5000000000000000000 ) ;
#269 =( NAMED_UNIT ( * ) PLANE_ANGLE_UNIT ( ) SI_UNIT ( $, .RADIAN. ) );
#270 = VERTEX_POINT ( 'NONE', #84 ) ;
#271 = VERTEX_POINT ( 'NONE', #219 ) ;
#272 = PRESENTATION_STYLE_ASSIGNMENT (( #38 ) ) ;
#273 =( GEOMETRIC_REPRESENTATION_CONTEXT ( 3 ) GLOBAL_UNCERTAINTY_ASSIGNED_CONTEXT ( ( #244 ) ) GLOBAL_UNIT_ASSIGNED_CONTEXT ( ( #297, #30, #27 ) ) REPRESENTATION_CONTEXT ( 'NONE', 'WORKASPACE' ) );
#274 = CARTESIAN_POINT ( 'NONE',  ( -1.224646799147354440E-16, 6.000000000000000888, 0.000000000000000000 ) ) ;
#275 = FILL_AREA_STYLE_COLOUR ( '', #138 ) ;
#276 = CIRCLE ( 'NONE', #200, 0.5000000000000001110 ) ;
#277 =( GEOMETRIC_REPRESENTATION_CONTEXT ( 3 ) GLOBAL_UNCERTAINTY_ASSIGNED_CONTEXT ( ( #96 ) ) GLOBAL_UNIT_ASSIGNED_CONTEXT ( ( #239, #210, #135 ) ) REPRESENTATION_CONTEXT ( 'NONE', 'WORKASPACE' ) );
#278 = DIRECTION ( 'NONE',  ( 0.000000000000000000, 0.000000000000000000, 1.000000000000000000 ) ) ;
#279 = SURFACE_STYLE_FILL_AREA ( #235 ) ;
#280 = FILL_AREA_STYLE_COLOUR ( '', #296 ) ;
#281 =( LENGTH_UNIT ( ) NAMED_UNIT ( * ) SI_UNIT ( $, .METRE. ) );
#282 = PRODUCT_DEFINITION_FORMATION_WITH_SPECIFIED_SOURCE ( 'ANY', '', #150, .NOT_KNOWN. ) ;
#283 = EDGE_CURVE ( 'NONE', #177, #295, #249, .T. ) ;
#284 =( CONVERSION_BASED_UNIT ( 'INCH', #60 ) LENGTH_UNIT ( ) NAMED_UNIT ( #23 ) );
#285 = ORIENTED_EDGE ( 'NONE', *, *, #231, .F. ) ;
#286 = SURFACE_STYLE_FILL_AREA ( #64 ) ;
#287 = UNCERTAINTY_MEASURE_WITH_UNIT (LENGTH_MEASURE( 1.000000000000000082E-05 ), #86, 'distance_accuracy_value', 'NONE');
#288 = MANIFOLD_SOLID_BREP ( 'Revolve - Cutting Edge', #187 ) ;
#289 = MECHANICAL_DESIGN_GEOMETRIC_PRESENTATION_REPRESENTATION (  '', ( #248 ), #306 ) ;
#290 = ORIENTED_EDGE ( 'NONE', *, *, #179, .F. ) ;
#291 = UNCERTAINTY_MEASURE_WITH_UNIT (LENGTH_MEASURE( 1.000000000000000082E-05 ), #258, 'distance_accuracy_value', 'NONE');
#292 = PLANE ( 'NONE',  #216 ) ;
#293 = DIRECTION ( 'NONE',  ( 0.000000000000000000, 0.000000000000000000, -1.000000000000000000 ) ) ;
#294 =( LENGTH_UNIT ( ) NAMED_UNIT ( * ) SI_UNIT ( $, .METRE. ) );
#295 = VERTEX_POINT ( 'NONE', #223 ) ;
#296 = COLOUR_RGB ( '',1.000000000000000000, 0.000000000000000000, 0.000000000000000000 ) ;
#297 =( CONVERSION_BASED_UNIT ( 'INCH', #98 ) LENGTH_UNIT ( ) NAMED_UNIT ( #106 ) );
#298 = CARTESIAN_POINT ( 'NONE',  ( 0.000000000000000000, 0.000000000000000000, 0.000000000000000000 ) ) ;
#299 = ADVANCED_FACE ( 'NONE', ( #9 ), #141, .F. ) ;
#300 = FACE_OUTER_BOUND ( 'NONE', #118, .T. ) ;
#301 = SURFACE_SIDE_STYLE ('',( #99 ) ) ;
#302 = LINE ( 'NONE', #121, #255 ) ;
#303 = LINE ( 'NONE', #127, #234 ) ;
#304 =( NAMED_UNIT ( * ) SI_UNIT ( $, .STERADIAN. ) SOLID_ANGLE_UNIT ( ) );
#305 = CARTESIAN_POINT ( 'NONE',  ( -1.224646799147354440E-16, 6.000000000000000888, 0.000000000000000000 ) ) ;
#306 =( GEOMETRIC_REPRESENTATION_CONTEXT ( 3 ) GLOBAL_UNCERTAINTY_ASSIGNED_CONTEXT ( ( #251 ) ) GLOBAL_UNIT_ASSIGNED_CONTEXT ( ( #1, #269, #79 ) ) REPRESENTATION_CONTEXT ( 'NONE', 'WORKASPACE' ) );
#307 = AXIS2_PLACEMENT_3D ( 'NONE', #97, #6, #119 ) ;
#308 = DIRECTION ( 'NONE',  ( -3.628583108584753553E-17, 1.000000000000000000, -0.000000000000000000 ) ) ;
#309 = SURFACE_STYLE_FILL_AREA ( #142 ) ;
ENDSEC;
END-ISO-10303-21;
