ISO-10303-21;
HEADER;
FILE_DESCRIPTION (( 'STEP AP214' ),
    '1' );
FILE_NAME ('Micro_SHRM-100-4X.STEP',
    '2021-09-02T09:13:10',
    ( '' ),
    ( '' ),
    'SwSTEP 2.0',
    'SolidWorks 2020',
    '' );
FILE_SCHEMA (( 'AUTOMOTIVE_DESIGN' ));
ENDSEC;

DATA;
#1 =( NAMED_UNIT ( * ) SI_UNIT ( $, .STERADIAN. ) SOLID_ANGLE_UNIT ( ) );
#2 = ORIENTED_EDGE ( 'NONE', *, *, #47, .T. ) ;
#3 = FILL_AREA_STYLE ('',( #95 ) ) ;
#4 = CONICAL_SURFACE ( 'NONE', #16, 0.1818505000000002481, 0.7853981633974312926 ) ;
#5 = ORIENTED_EDGE ( 'NONE', *, *, #15, .T. ) ;
#6 = DIRECTION ( 'NONE',  ( 0.7071067811865354713, 8.659560562354783714E-17, -0.7071067811865594521 ) ) ;
#7 =( LENGTH_UNIT ( ) NAMED_UNIT ( * ) SI_UNIT ( $, .METRE. ) );
#8 = VECTOR ( 'NONE', #6, 39.37007874015748854 ) ;
#9 = DIRECTION ( 'NONE',  ( 1.224646799147353207E-16, 0.0000000000000000000, 1.000000000000000000 ) ) ;
#10 = EDGE_LOOP ( 'NONE', ( #263, #57, #135, #214 ) ) ;
#11 = ADVANCED_FACE ( 'NONE', ( #268 ), #167, .T. ) ;
#12 = CARTESIAN_POINT ( 'NONE',  ( 0.1966536494999999996, 2.408312624008205170E-17, 0.0000000000000000000 ) ) ;
#13 = DIRECTION ( 'NONE',  ( -0.0000000000000000000, -0.0000000000000000000, -1.000000000000000000 ) ) ;
#14 = DIRECTION ( 'NONE',  ( -1.000000000000000000, 0.0000000000000000000, 1.224646799147353207E-16 ) ) ;
#15 = EDGE_CURVE ( 'NONE', #116, #239, #104, .T. ) ;
#16 = AXIS2_PLACEMENT_3D ( 'NONE', #248, #243, #97 ) ;
#17 = DIRECTION ( 'NONE',  ( 1.000000000000000000, 0.0000000000000000000, 0.0000000000000000000 ) ) ;
#18 = ADVANCED_FACE ( 'NONE', ( #142 ), #242, .T. ) ;
#19 = CYLINDRICAL_SURFACE ( 'NONE', #156, 0.1968504999999999838 ) ;
#20 = ORIENTED_EDGE ( 'NONE', *, *, #145, .F. ) ;
#21 = AXIS2_PLACEMENT_3D ( 'NONE', #204, #60, #276 ) ;
#22 =( NAMED_UNIT ( * ) SI_UNIT ( $, .STERADIAN. ) SOLID_ANGLE_UNIT ( ) );
#23 = ORIENTED_EDGE ( 'NONE', *, *, #169, .F. ) ;
#24 = ORIENTED_EDGE ( 'NONE', *, *, #188, .T. ) ;
#25 =( CONVERSION_BASED_UNIT ( 'INCH', #144 ) LENGTH_UNIT ( ) NAMED_UNIT ( #26 ) );
#26 = DIMENSIONAL_EXPONENTS ( 1.000000000000000000, 0.0000000000000000000, 0.0000000000000000000, 0.0000000000000000000, 0.0000000000000000000, 0.0000000000000000000, 0.0000000000000000000 ) ;
#27 = SURFACE_STYLE_FILL_AREA ( #3 ) ;
#28 = VECTOR ( 'NONE', #155, 39.37007874015747433 ) ;
#29 = VERTEX_POINT ( 'NONE', #128 ) ;
#30 = CLOSED_SHELL ( 'NONE', ( #119, #18, #37, #67, #158, #11, #232, #94, #88, #52 ) ) ;
#31 = VECTOR ( 'NONE', #280, 39.37007874015748143 ) ;
#32 = DIRECTION ( 'NONE',  ( 1.000000000000000000, 0.0000000000000000000, -0.0000000000000000000 ) ) ;
#33 = DIRECTION ( 'NONE',  ( -1.000000000000000000, 0.0000000000000000000, 1.224646799147353207E-16 ) ) ;
#34 = LINE ( 'NONE', #122, #183 ) ;
#35 = CARTESIAN_POINT ( 'NONE',  ( 1.205361061354380629E-16, 0.0000000000000000000, 0.9842519999999999047 ) ) ;
#36 = DIRECTION ( 'NONE',  ( 0.0000000000000000000, 0.0000000000000000000, -1.000000000000000000 ) ) ;
#37 = ADVANCED_FACE ( 'NONE', ( #99 ), #4, .T. ) ;
#38 = CARTESIAN_POINT ( 'NONE',  ( 0.1966536495000001383, 0.0000000000000000000, 0.9842519999999999047 ) ) ;
#39 = PRESENTATION_LAYER_ASSIGNMENT (  '', '', ( #224 ) ) ;
#40 = CARTESIAN_POINT ( 'NONE',  ( 0.0000000000000000000, 0.0000000000000000000, 0.0000000000000000000 ) ) ;
#41 = ORIENTED_EDGE ( 'NONE', *, *, #220, .T. ) ;
#42 = CARTESIAN_POINT ( 'NONE',  ( 0.0000000000000000000, 0.0000000000000000000, 2.834646000000000665 ) ) ;
#43 = ORIENTED_EDGE ( 'NONE', *, *, #294, .T. ) ;
#44 = CARTESIAN_POINT ( 'NONE',  ( -0.1966536494999998608, 2.408312624008205170E-17, 0.9842519999999999047 ) ) ;
#45 = ORIENTED_EDGE ( 'NONE', *, *, #101, .T. ) ;
#46 = ORIENTED_EDGE ( 'NONE', *, *, #125, .T. ) ;
#47 = EDGE_CURVE ( 'NONE', #164, #279, #290, .T. ) ;
#48 = DIMENSIONAL_EXPONENTS ( 1.000000000000000000, 0.0000000000000000000, 0.0000000000000000000, 0.0000000000000000000, 0.0000000000000000000, 0.0000000000000000000, 0.0000000000000000000 ) ;
#49 = VERTEX_POINT ( 'NONE', #12 ) ;
#50 = AXIS2_PLACEMENT_3D ( 'NONE', #225, #9, #195 ) ;
#51 = COLOUR_RGB ( '',0.7921568627450980005, 0.8196078431372548767, 0.9333333333333333481 ) ;
#52 = ADVANCED_FACE ( 'NONE', ( #82 ), #191, .F. ) ;
#53 = EDGE_LOOP ( 'NONE', ( #5, #43, #73, #157 ) ) ;
#54 = VECTOR ( 'NONE', #282, 39.37007874015748143 ) ;
#55 = PRODUCT_CONTEXT ( 'NONE', #61, 'mechanical' ) ;
#56 = FACE_OUTER_BOUND ( 'NONE', #297, .T. ) ;
#57 = ORIENTED_EDGE ( 'NONE', *, *, #174, .T. ) ;
#58 = DIRECTION ( 'NONE',  ( -1.000000000000000000, 0.0000000000000000000, 0.0000000000000000000 ) ) ;
#59 = CONICAL_SURFACE ( 'NONE', #50, 0.1966536494999999996, 0.1745329251994338360 ) ;
#60 = DIRECTION ( 'NONE',  ( -1.224646799147353207E-16, -0.0000000000000000000, -1.000000000000000000 ) ) ;
#61 = APPLICATION_CONTEXT ( 'automotive_design' ) ;
#62 = LINE ( 'NONE', #182, #77 ) ;
#63 = DIRECTION ( 'NONE',  ( -0.0000000000000000000, -0.0000000000000000000, -1.000000000000000000 ) ) ;
#64 = EDGE_LOOP ( 'NONE', ( #286, #255, #287, #266 ) ) ;
#65 = VECTOR ( 'NONE', #13, 39.37007874015748143 ) ;
#66 = VECTOR ( 'NONE', #259, 39.37007874015748143 ) ;
#67 = ADVANCED_FACE ( 'NONE', ( #56 ), #126, .T. ) ;
#68 = ORIENTED_EDGE ( 'NONE', *, *, #108, .F. ) ;
#69 = DIRECTION ( 'NONE',  ( 0.0000000000000000000, 0.0000000000000000000, 1.000000000000000000 ) ) ;
#70 = ORIENTED_EDGE ( 'NONE', *, *, #75, .T. ) ;
#71 = LENGTH_MEASURE_WITH_UNIT ( LENGTH_MEASURE( 0.02539999999999999897 ), #7 );
#72 = ORIENTED_EDGE ( 'NONE', *, *, #220, .F. ) ;
#73 = ORIENTED_EDGE ( 'NONE', *, *, #133, .F. ) ;
#74 = EDGE_LOOP ( 'NONE', ( #78, #114, #281, #24 ) ) ;
#75 = EDGE_CURVE ( 'NONE', #160, #262, #34, .T. ) ;
#76 = CIRCLE ( 'NONE', #288, 0.1968504999999999838 ) ;
#77 = VECTOR ( 'NONE', #159, 39.37007874015748143 ) ;
#78 = ORIENTED_EDGE ( 'NONE', *, *, #174, .F. ) ;
#79 =( GEOMETRIC_REPRESENTATION_CONTEXT ( 3 ) GLOBAL_UNCERTAINTY_ASSIGNED_CONTEXT ( ( #208 ) ) GLOBAL_UNIT_ASSIGNED_CONTEXT ( ( #25, #140, #1 ) ) REPRESENTATION_CONTEXT ( 'NONE', 'WORKASPACE' ) );
#80 = DIMENSIONAL_EXPONENTS ( 1.000000000000000000, 0.0000000000000000000, 0.0000000000000000000, 0.0000000000000000000, 0.0000000000000000000, 0.0000000000000000000, 0.0000000000000000000 ) ;
#81 = CARTESIAN_POINT ( 'NONE',  ( 0.0000000000000000000, 0.0000000000000000000, 2.834646000000000665 ) ) ;
#82 = FACE_OUTER_BOUND ( 'NONE', #206, .T. ) ;
#83 = FILL_AREA_STYLE_COLOUR ( '', #162 ) ;
#84 = CIRCLE ( 'NONE', #252, 0.1818505000000002481 ) ;
#85 = DIRECTION ( 'NONE',  ( -1.000000000000000000, 0.0000000000000000000, 1.224646799147353207E-16 ) ) ;
#86 = CARTESIAN_POINT ( 'NONE',  ( -0.1966536494999999996, 0.0000000000000000000, 2.408312624008205170E-17 ) ) ;
#87 = LINE ( 'NONE', #86, #31 ) ;
#88 = ADVANCED_FACE ( 'NONE', ( #189 ), #151, .T. ) ;
#89 = AXIS2_PLACEMENT_3D ( 'NONE', #212, #102, #121 ) ;
#90 = CARTESIAN_POINT ( 'NONE',  ( -0.1818505000000002481, 0.0000000000000000000, 2.834646000000000665 ) ) ;
#91 = ORIENTED_EDGE ( 'NONE', *, *, #108, .T. ) ;
#92 =( NAMED_UNIT ( * ) SI_UNIT ( $, .STERADIAN. ) SOLID_ANGLE_UNIT ( ) );
#93 = ORIENTED_EDGE ( 'NONE', *, *, #217, .T. ) ;
#94 = ADVANCED_FACE ( 'NONE', ( #123 ), #59, .T. ) ;
#95 = FILL_AREA_STYLE_COLOUR ( '', #51 ) ;
#96 = AXIS2_PLACEMENT_3D ( 'NONE', #175, #147, #32 ) ;
#97 = DIRECTION ( 'NONE',  ( -1.000000000000000000, 0.0000000000000000000, 0.0000000000000000000 ) ) ;
#98 = UNCERTAINTY_MEASURE_WITH_UNIT (LENGTH_MEASURE( 1.000000000000000082E-05 ), #218, 'distance_accuracy_value', 'NONE');
#99 = FACE_OUTER_BOUND ( 'NONE', #211, .T. ) ;
#100 = CONICAL_SURFACE ( 'NONE', #105, 0.1818505000000002481, 0.7853981633974312926 ) ;
#101 = EDGE_CURVE ( 'NONE', #160, #164, #223, .T. ) ;
#102 = DIRECTION ( 'NONE',  ( 0.0000000000000000000, 0.0000000000000000000, 1.000000000000000000 ) ) ;
#103 = DIRECTION ( 'NONE',  ( 0.0000000000000000000, 0.0000000000000000000, 1.000000000000000000 ) ) ;
#104 = CIRCLE ( 'NONE', #168, 0.1966536494999999996 ) ;
#105 = AXIS2_PLACEMENT_3D ( 'NONE', #251, #36, #184 ) ;
#106 = DIRECTION ( 'NONE',  ( 0.0000000000000000000, 0.0000000000000000000, 1.000000000000000000 ) ) ;
#107 = ORIENTED_EDGE ( 'NONE', *, *, #241, .F. ) ;
#108 = EDGE_CURVE ( 'NONE', #49, #29, #131, .T. ) ;
#109 = DIRECTION ( 'NONE',  ( -1.000000000000000000, 0.0000000000000000000, 0.0000000000000000000 ) ) ;
#110 = CARTESIAN_POINT ( 'NONE',  ( 0.1968504999999999838, 2.410723347355560646E-17, 2.834646000000000665 ) ) ;
#111 = SURFACE_SIDE_STYLE ('',( #277 ) ) ;
#112 = DIRECTION ( 'NONE',  ( 1.000000000000000000, 0.0000000000000000000, 0.0000000000000000000 ) ) ;
#113 = ORIENTED_EDGE ( 'NONE', *, *, #244, .T. ) ;
#114 = ORIENTED_EDGE ( 'NONE', *, *, #244, .F. ) ;
#115 = APPLICATION_PROTOCOL_DEFINITION ( 'draft international standard', 'automotive_design', 1998, #61 ) ;
#116 = VERTEX_POINT ( 'NONE', #246 ) ;
#117 = CIRCLE ( 'NONE', #209, 0.1966536494999999996 ) ;
#118 = DIRECTION ( 'NONE',  ( 1.000000000000000000, 0.0000000000000000000, 0.0000000000000000000 ) ) ;
#119 = ADVANCED_FACE ( 'NONE', ( #275 ), #177, .T. ) ;
#120 = CIRCLE ( 'NONE', #292, 0.1966536494999999996 ) ;
#121 = DIRECTION ( 'NONE',  ( 1.000000000000000000, 0.0000000000000000000, 0.0000000000000000000 ) ) ;
#122 = CARTESIAN_POINT ( 'NONE',  ( -0.1818505000000002481, 0.0000000000000000000, 2.834646000000000665 ) ) ;
#123 = FACE_OUTER_BOUND ( 'NONE', #74, .T. ) ;
#124 = APPLICATION_PROTOCOL_DEFINITION ( 'draft international standard', 'automotive_design', 1998, #181 ) ;
#125 = EDGE_CURVE ( 'NONE', #116, #29, #87, .T. ) ;
#126 = CYLINDRICAL_SURFACE ( 'NONE', #270, 0.1968504999999999838 ) ;
#127 = MECHANICAL_DESIGN_GEOMETRIC_PRESENTATION_REPRESENTATION (  '', ( #224 ), #79 ) ;
#128 = CARTESIAN_POINT ( 'NONE',  ( -0.1966536494999999996, 0.0000000000000000000, 4.816625248016410340E-17 ) ) ;
#129 = FILL_AREA_STYLE ('',( #83 ) ) ;
#130 = CARTESIAN_POINT ( 'NONE',  ( 1.206728250503579029E-16, 0.0000000000000000000, 0.9853683946618325695 ) ) ;
#131 = CIRCLE ( 'NONE', #170, 0.1966536494999999996 ) ;
#132 = AXIS2_PLACEMENT_3D ( 'NONE', #284, #221, #33 ) ;
#133 = EDGE_CURVE ( 'NONE', #29, #49, #117, .T. ) ;
#134 = DIRECTION ( 'NONE',  ( 1.000000000000000000, 0.0000000000000000000, 0.0000000000000000000 ) ) ;
#135 = ORIENTED_EDGE ( 'NONE', *, *, #241, .T. ) ;
#136 = LINE ( 'NONE', #44, #28 ) ;
#137 =( NAMED_UNIT ( * ) PLANE_ANGLE_UNIT ( ) SI_UNIT ( $, .RADIAN. ) );
#138 = SURFACE_STYLE_USAGE ( .BOTH. , #163 ) ;
#139 = ORIENTED_EDGE ( 'NONE', *, *, #133, .T. ) ;
#140 =( NAMED_UNIT ( * ) PLANE_ANGLE_UNIT ( ) SI_UNIT ( $, .RADIAN. ) );
#141 = ORIENTED_EDGE ( 'NONE', *, *, #145, .T. ) ;
#142 = FACE_OUTER_BOUND ( 'NONE', #10, .T. ) ;
#143 = PRODUCT_RELATED_PRODUCT_CATEGORY ( 'part', '', ( #200 ) ) ;
#144 = LENGTH_MEASURE_WITH_UNIT ( LENGTH_MEASURE( 0.02539999999999999897 ), #285 );
#145 = EDGE_CURVE ( 'NONE', #164, #160, #84, .T. ) ;
#146 = PRODUCT_DEFINITION_SHAPE ( 'NONE', 'NONE',  #273 ) ;
#147 = DIRECTION ( 'NONE',  ( 0.0000000000000000000, 0.0000000000000000000, 1.000000000000000000 ) ) ;
#148 = DIRECTION ( 'NONE',  ( -0.7071067811865354713, 0.0000000000000000000, -0.7071067811865594521 ) ) ;
#149 = DIRECTION ( 'NONE',  ( -1.000000000000000000, 0.0000000000000000000, 1.224646799147353207E-16 ) ) ;
#150 = CIRCLE ( 'NONE', #21, 0.1968504999999999838 ) ;
#151 = CYLINDRICAL_SURFACE ( 'NONE', #132, 0.1966536494999999996 ) ;
#152 = CARTESIAN_POINT ( 'NONE',  ( 2.949332346337811403E-33, 0.0000000000000000000, 2.408312624008205170E-17 ) ) ;
#153 = CARTESIAN_POINT ( 'NONE',  ( 0.0000000000000000000, 0.0000000000000000000, 2.819646000000000097 ) ) ;
#154 = EDGE_CURVE ( 'NONE', #262, #231, #62, .T. ) ;
#155 = DIRECTION ( 'NONE',  ( -0.1736481776669311639, 2.126576849575782392E-17, 0.9848077530122080203 ) ) ;
#156 = AXIS2_PLACEMENT_3D ( 'NONE', #278, #63, #298 ) ;
#157 = ORIENTED_EDGE ( 'NONE', *, *, #125, .F. ) ;
#158 = ADVANCED_FACE ( 'NONE', ( #293 ), #19, .T. ) ;
#159 = DIRECTION ( 'NONE',  ( -0.0000000000000000000, -0.0000000000000000000, -1.000000000000000000 ) ) ;
#160 = VERTEX_POINT ( 'NONE', #90 ) ;
#161 = ORIENTED_EDGE ( 'NONE', *, *, #154, .F. ) ;
#162 = COLOUR_RGB ( '',0.7921568627450980005, 0.8196078431372548767, 0.9333333333333333481 ) ;
#163 = SURFACE_SIDE_STYLE ('',( #27 ) ) ;
#164 = VERTEX_POINT ( 'NONE', #256 ) ;
#165 = CARTESIAN_POINT ( 'NONE',  ( -0.1968504999999999838, 0.0000000000000000000, 2.819646000000000097 ) ) ;
#166 = DIRECTION ( 'NONE',  ( -1.000000000000000000, 0.0000000000000000000, 0.0000000000000000000 ) ) ;
#167 = PLANE ( 'NONE',  #201 ) ;
#168 = AXIS2_PLACEMENT_3D ( 'NONE', #172, #197, #166 ) ;
#169 = EDGE_CURVE ( 'NONE', #279, #262, #76, .T. ) ;
#170 = AXIS2_PLACEMENT_3D ( 'NONE', #173, #272, #149 ) ;
#171 =( GEOMETRIC_REPRESENTATION_CONTEXT ( 3 ) GLOBAL_UNCERTAINTY_ASSIGNED_CONTEXT ( ( #98 ) ) GLOBAL_UNIT_ASSIGNED_CONTEXT ( ( #218, #264, #92 ) ) REPRESENTATION_CONTEXT ( 'NONE', 'WORKASPACE' ) );
#172 = CARTESIAN_POINT ( 'NONE',  ( 1.205361061354380629E-16, 0.0000000000000000000, 0.9842519999999999047 ) ) ;
#173 = CARTESIAN_POINT ( 'NONE',  ( 2.949332346337811403E-33, 0.0000000000000000000, 2.408312624008205170E-17 ) ) ;
#174 = EDGE_CURVE ( 'NONE', #116, #231, #136, .T. ) ;
#175 = CARTESIAN_POINT ( 'NONE',  ( 0.0000000000000000000, 0.0000000000000000000, 0.0000000000000000000 ) ) ;
#176 = CIRCLE ( 'NONE', #261, 0.1968504999999999838 ) ;
#177 = CYLINDRICAL_SURFACE ( 'NONE', #247, 0.1966536494999999996 ) ;
#178 = DIRECTION ( 'NONE',  ( -1.224646799147353207E-16, -0.0000000000000000000, -1.000000000000000000 ) ) ;
#179 = FACE_OUTER_BOUND ( 'NONE', #234, .T. ) ;
#180 = EDGE_LOOP ( 'NONE', ( #237, #113, #46, #68 ) ) ;
#181 = APPLICATION_CONTEXT ( 'automotive_design' ) ;
#182 = CARTESIAN_POINT ( 'NONE',  ( -0.1968504999999999838, 0.0000000000000000000, 2.834646000000000665 ) ) ;
#183 = VECTOR ( 'NONE', #148, 39.37007874015748854 ) ;
#184 = DIRECTION ( 'NONE',  ( -1.000000000000000000, 0.0000000000000000000, 0.0000000000000000000 ) ) ;
#185 = CARTESIAN_POINT ( 'NONE',  ( 0.1966536494999999996, 2.408312624008205170E-17, -2.408312624008205170E-17 ) ) ;
#186 = LINE ( 'NONE', #185, #54 ) ;
#187 = PRESENTATION_LAYER_ASSIGNMENT (  '', '', ( #202 ) ) ;
#188 = EDGE_CURVE ( 'NONE', #299, #231, #150, .T. ) ;
#189 = FACE_OUTER_BOUND ( 'NONE', #180, .T. ) ;
#190 = PRESENTATION_STYLE_ASSIGNMENT (( #138 ) ) ;
#191 = PLANE ( 'NONE',  #96 ) ;
#192 = CARTESIAN_POINT ( 'NONE',  ( 0.1968505000000001226, 2.410723347355561878E-17, 0.9853683946618325695 ) ) ;
#193 = CIRCLE ( 'NONE', #238, 0.1968504999999999838 ) ;
#194 = SHAPE_DEFINITION_REPRESENTATION ( #146, #213 ) ;
#195 = DIRECTION ( 'NONE',  ( 1.000000000000000000, 0.0000000000000000000, 0.0000000000000000000 ) ) ;
#196 = AXIS2_PLACEMENT_3D ( 'NONE', #222, #106, #289 ) ;
#197 = DIRECTION ( 'NONE',  ( -1.224646799147353207E-16, -0.0000000000000000000, -1.000000000000000000 ) ) ;
#198 = DIRECTION ( 'NONE',  ( 1.000000000000000000, 0.0000000000000000000, -0.0000000000000000000 ) ) ;
#199 = DIRECTION ( 'NONE',  ( -1.224646799147353207E-16, -0.0000000000000000000, -1.000000000000000000 ) ) ;
#200 = PRODUCT ( 'Micro_SHRM-100-4X', 'Micro_SHRM-100-4X', '', ( #55 ) ) ;
#201 = AXIS2_PLACEMENT_3D ( 'NONE', #81, #103, #198 ) ;
#202 = STYLED_ITEM ( 'NONE', ( #230 ), #250 ) ;
#203 = SURFACE_STYLE_USAGE ( .BOTH. , #111 ) ;
#204 = CARTESIAN_POINT ( 'NONE',  ( 1.206728250503579029E-16, 0.0000000000000000000, 0.9853683946618325695 ) ) ;
#205 =( LENGTH_UNIT ( ) NAMED_UNIT ( * ) SI_UNIT ( $, .METRE. ) );
#206 = EDGE_LOOP ( 'NONE', ( #139, #91 ) ) ;
#207 = DIRECTION ( 'NONE',  ( -1.224646799147353207E-16, -0.0000000000000000000, -1.000000000000000000 ) ) ;
#208 = UNCERTAINTY_MEASURE_WITH_UNIT (LENGTH_MEASURE( 1.000000000000000082E-05 ), #25, 'distance_accuracy_value', 'NONE');
#209 = AXIS2_PLACEMENT_3D ( 'NONE', #152, #178, #85 ) ;
#210 = MECHANICAL_DESIGN_GEOMETRIC_PRESENTATION_REPRESENTATION (  '', ( #202 ), #269 ) ;
#211 = EDGE_LOOP ( 'NONE', ( #20, #2, #72, #216 ) ) ;
#212 = CARTESIAN_POINT ( 'NONE',  ( 0.0000000000000000000, 0.0000000000000000000, 0.0000000000000000000 ) ) ;
#213 = ADVANCED_BREP_SHAPE_REPRESENTATION ( 'Micro_SHRM-100-4X', ( #250, #89 ), #171 ) ;
#214 = ORIENTED_EDGE ( 'NONE', *, *, #258, .F. ) ;
#215 = CARTESIAN_POINT ( 'NONE',  ( 0.1966536495000001383, 0.0000000000000000000, 0.9842519999999999047 ) ) ;
#216 = ORIENTED_EDGE ( 'NONE', *, *, #75, .F. ) ;
#217 = EDGE_CURVE ( 'NONE', #279, #299, #226, .T. ) ;
#218 =( CONVERSION_BASED_UNIT ( 'INCH', #71 ) LENGTH_UNIT ( ) NAMED_UNIT ( #48 ) );
#219 = CARTESIAN_POINT ( 'NONE',  ( 0.1818505000000002481, 2.227026327483460228E-17, 2.834646000000000665 ) ) ;
#220 = EDGE_CURVE ( 'NONE', #262, #279, #193, .T. ) ;
#221 = DIRECTION ( 'NONE',  ( -1.224646799147353207E-16, -0.0000000000000000000, -1.000000000000000000 ) ) ;
#222 = CARTESIAN_POINT ( 'NONE',  ( 0.0000000000000000000, 0.0000000000000000000, 2.834646000000000665 ) ) ;
#223 = CIRCLE ( 'NONE', #196, 0.1818505000000002481 ) ;
#224 = STYLED_ITEM ( 'NONE', ( #190 ), #213 ) ;
#225 = CARTESIAN_POINT ( 'NONE',  ( 1.205361061354380629E-16, 0.0000000000000000000, 0.9842519999999999047 ) ) ;
#226 = LINE ( 'NONE', #110, #65 ) ;
#227 = CARTESIAN_POINT ( 'NONE',  ( 0.0000000000000000000, 0.0000000000000000000, 2.819646000000000097 ) ) ;
#228 = AXIS2_PLACEMENT_3D ( 'NONE', #35, #271, #118 ) ;
#229 = CARTESIAN_POINT ( 'NONE',  ( 1.205361061354380629E-16, 0.0000000000000000000, 0.9842519999999999047 ) ) ;
#230 = PRESENTATION_STYLE_ASSIGNMENT (( #203 ) ) ;
#231 = VERTEX_POINT ( 'NONE', #249 ) ;
#232 = ADVANCED_FACE ( 'NONE', ( #179 ), #100, .T. ) ;
#233 = DIRECTION ( 'NONE',  ( 1.000000000000000000, 0.0000000000000000000, 0.0000000000000000000 ) ) ;
#234 = EDGE_LOOP ( 'NONE', ( #236, #235, #70, #23 ) ) ;
#235 = ORIENTED_EDGE ( 'NONE', *, *, #101, .F. ) ;
#236 = ORIENTED_EDGE ( 'NONE', *, *, #47, .F. ) ;
#237 = ORIENTED_EDGE ( 'NONE', *, *, #294, .F. ) ;
#238 = AXIS2_PLACEMENT_3D ( 'NONE', #153, #296, #17 ) ;
#239 = VERTEX_POINT ( 'NONE', #38 ) ;
#240 = PRODUCT_DEFINITION_FORMATION_WITH_SPECIFIED_SOURCE ( 'ANY', '', #200, .NOT_KNOWN. ) ;
#241 = EDGE_CURVE ( 'NONE', #231, #299, #176, .T. ) ;
#242 = CONICAL_SURFACE ( 'NONE', #228, 0.1966536494999999996, 0.1745329251994338360 ) ;
#243 = DIRECTION ( 'NONE',  ( 0.0000000000000000000, 0.0000000000000000000, -1.000000000000000000 ) ) ;
#244 = EDGE_CURVE ( 'NONE', #239, #116, #120, .T. ) ;
#245 = DIRECTION ( 'NONE',  ( -0.0000000000000000000, -0.0000000000000000000, -1.000000000000000000 ) ) ;
#246 = CARTESIAN_POINT ( 'NONE',  ( -0.1966536494999998608, 2.409517985681882600E-17, 0.9842519999999999047 ) ) ;
#247 = AXIS2_PLACEMENT_3D ( 'NONE', #40, #207, #14 ) ;
#248 = CARTESIAN_POINT ( 'NONE',  ( 0.0000000000000000000, 0.0000000000000000000, 2.834646000000000665 ) ) ;
#249 = CARTESIAN_POINT ( 'NONE',  ( -0.1968504999999998450, 0.0000000000000000000, 0.9853683946618325695 ) ) ;
#250 = MANIFOLD_SOLID_BREP ( 'Cut-Revolve1', #30 ) ;
#251 = CARTESIAN_POINT ( 'NONE',  ( 0.0000000000000000000, 0.0000000000000000000, 2.834646000000000665 ) ) ;
#252 = AXIS2_PLACEMENT_3D ( 'NONE', #42, #69, #112 ) ;
#253 = DIRECTION ( 'NONE',  ( -1.224646799147353207E-16, -0.0000000000000000000, -1.000000000000000000 ) ) ;
#254 = LENGTH_MEASURE_WITH_UNIT ( LENGTH_MEASURE( 0.02539999999999999897 ), #205 );
#255 = ORIENTED_EDGE ( 'NONE', *, *, #169, .T. ) ;
#256 = CARTESIAN_POINT ( 'NONE',  ( 0.1818505000000002481, 2.318874837419510283E-17, 2.834646000000000665 ) ) ;
#257 = EDGE_LOOP ( 'NONE', ( #45, #141 ) ) ;
#258 = EDGE_CURVE ( 'NONE', #239, #299, #291, .T. ) ;
#259 = DIRECTION ( 'NONE',  ( 0.1736481776669313304, 0.0000000000000000000, 0.9848077530122077983 ) ) ;
#260 = PRODUCT_DEFINITION_CONTEXT ( 'detailed design', #181, 'design' ) ;
#261 = AXIS2_PLACEMENT_3D ( 'NONE', #130, #253, #233 ) ;
#262 = VERTEX_POINT ( 'NONE', #165 ) ;
#263 = ORIENTED_EDGE ( 'NONE', *, *, #15, .F. ) ;
#264 =( NAMED_UNIT ( * ) PLANE_ANGLE_UNIT ( ) SI_UNIT ( $, .RADIAN. ) );
#265 = UNCERTAINTY_MEASURE_WITH_UNIT (LENGTH_MEASURE( 1.000000000000000082E-05 ), #267, 'distance_accuracy_value', 'NONE');
#266 = ORIENTED_EDGE ( 'NONE', *, *, #188, .F. ) ;
#267 =( CONVERSION_BASED_UNIT ( 'INCH', #254 ) LENGTH_UNIT ( ) NAMED_UNIT ( #80 ) );
#268 = FACE_OUTER_BOUND ( 'NONE', #257, .T. ) ;
#269 =( GEOMETRIC_REPRESENTATION_CONTEXT ( 3 ) GLOBAL_UNCERTAINTY_ASSIGNED_CONTEXT ( ( #265 ) ) GLOBAL_UNIT_ASSIGNED_CONTEXT ( ( #267, #137, #22 ) ) REPRESENTATION_CONTEXT ( 'NONE', 'WORKASPACE' ) );
#270 = AXIS2_PLACEMENT_3D ( 'NONE', #274, #245, #58 ) ;
#271 = DIRECTION ( 'NONE',  ( 1.224646799147353207E-16, 0.0000000000000000000, 1.000000000000000000 ) ) ;
#272 = DIRECTION ( 'NONE',  ( -1.224646799147353207E-16, -0.0000000000000000000, -1.000000000000000000 ) ) ;
#273 = PRODUCT_DEFINITION ( 'UNKNOWN', '', #240, #260 ) ;
#274 = CARTESIAN_POINT ( 'NONE',  ( 0.0000000000000000000, 0.0000000000000000000, 2.834646000000000665 ) ) ;
#275 = FACE_OUTER_BOUND ( 'NONE', #53, .T. ) ;
#276 = DIRECTION ( 'NONE',  ( 1.000000000000000000, 0.0000000000000000000, 0.0000000000000000000 ) ) ;
#277 = SURFACE_STYLE_FILL_AREA ( #129 ) ;
#278 = CARTESIAN_POINT ( 'NONE',  ( 0.0000000000000000000, 0.0000000000000000000, 2.834646000000000665 ) ) ;
#279 = VERTEX_POINT ( 'NONE', #283 ) ;
#280 = DIRECTION ( 'NONE',  ( -1.224646799147353207E-16, -0.0000000000000000000, -1.000000000000000000 ) ) ;
#281 = ORIENTED_EDGE ( 'NONE', *, *, #258, .T. ) ;
#282 = DIRECTION ( 'NONE',  ( -1.224646799147353207E-16, -0.0000000000000000000, -1.000000000000000000 ) ) ;
#283 = CARTESIAN_POINT ( 'NONE',  ( 0.1968504999999999838, 2.410723347355560646E-17, 2.819646000000000097 ) ) ;
#284 = CARTESIAN_POINT ( 'NONE',  ( 0.0000000000000000000, 0.0000000000000000000, 0.0000000000000000000 ) ) ;
#285 =( LENGTH_UNIT ( ) NAMED_UNIT ( * ) SI_UNIT ( $, .METRE. ) );
#286 = ORIENTED_EDGE ( 'NONE', *, *, #217, .F. ) ;
#287 = ORIENTED_EDGE ( 'NONE', *, *, #154, .T. ) ;
#288 = AXIS2_PLACEMENT_3D ( 'NONE', #227, #295, #134 ) ;
#289 = DIRECTION ( 'NONE',  ( 1.000000000000000000, 0.0000000000000000000, 0.0000000000000000000 ) ) ;
#290 = LINE ( 'NONE', #219, #8 ) ;
#291 = LINE ( 'NONE', #215, #66 ) ;
#292 = AXIS2_PLACEMENT_3D ( 'NONE', #229, #199, #109 ) ;
#293 = FACE_OUTER_BOUND ( 'NONE', #64, .T. ) ;
#294 = EDGE_CURVE ( 'NONE', #239, #49, #186, .T. ) ;
#295 = DIRECTION ( 'NONE',  ( 0.0000000000000000000, 0.0000000000000000000, -1.000000000000000000 ) ) ;
#296 = DIRECTION ( 'NONE',  ( 0.0000000000000000000, 0.0000000000000000000, -1.000000000000000000 ) ) ;
#297 = EDGE_LOOP ( 'NONE', ( #41, #93, #107, #161 ) ) ;
#298 = DIRECTION ( 'NONE',  ( -1.000000000000000000, 0.0000000000000000000, 0.0000000000000000000 ) ) ;
#299 = VERTEX_POINT ( 'NONE', #192 ) ;
ENDSEC;
END-ISO-10303-21;
