ISO-10303-21;
HEADER;
FILE_DESCRIPTION (( 'STEP AP214' ),
    '1' );
FILE_NAME ('81638.STEP',
    '2023-06-23T02:11:53',
    ( '' ),
    ( '' ),
    'SwSTEP 2.0',
    'SolidWorks 2023',
    '' );
FILE_SCHEMA (( 'AUTOMOTIVE_DESIGN' ));
ENDSEC;

DATA;
#1 = FILL_AREA_STYLE_COLOUR ( '', #279 ) ;
#2 =( GEOMETRIC_REPRESENTATION_CONTEXT ( 3 ) GLOBAL_UNCERTAINTY_ASSIGNED_CONTEXT ( ( #209 ) ) GLOBAL_UNIT_ASSIGNED_CONTEXT ( ( #323, #18, #299 ) ) REPRESENTATION_CONTEXT ( 'NONE', 'WORKASPACE' ) );
#3 = DIRECTION ( 'NONE',  ( -7.559981121716913287E-17, 1.000000000000000000, -0.000000000000000000 ) ) ;
#4 = ORIENTED_EDGE ( 'NONE', *, *, #318, .F. ) ;
#5 = SURFACE_STYLE_USAGE ( .BOTH. , #81 ) ;
#6 = VERTEX_POINT ( 'NONE', #284 ) ;
#7 = PRESENTATION_LAYER_ASSIGNMENT (  '', '', ( #13 ) ) ;
#8 = CARTESIAN_POINT ( 'NONE',  ( 0.09374999999999984734, 2.500000000000000000, 1.148106374200643863E-17 ) ) ;
#9 = ORIENTED_EDGE ( 'NONE', *, *, #274, .T. ) ;
#10 = DIRECTION ( 'NONE',  ( -0.000000000000000000, -1.000000000000000000, -0.000000000000000000 ) ) ;
#11 = PRODUCT_DEFINITION ( 'UNKNOWN', '', #339, #90 ) ;
#12 = ORIENTED_EDGE ( 'NONE', *, *, #336, .F. ) ;
#13 = STYLED_ITEM ( 'NONE', ( #332 ), #163 ) ;
#14 = ORIENTED_EDGE ( 'NONE', *, *, #154, .T. ) ;
#15 = ADVANCED_FACE ( 'NONE', ( #206 ), #42, .T. ) ;
#16 = PRESENTATION_LAYER_ASSIGNMENT (  '', '', ( #125 ) ) ;
#17 = FACE_OUTER_BOUND ( 'NONE', #204, .T. ) ;
#18 =( NAMED_UNIT ( * ) PLANE_ANGLE_UNIT ( ) SI_UNIT ( $, .RADIAN. ) );
#19 = DIRECTION ( 'NONE',  ( 0.000000000000000000, 0.000000000000000000, -1.000000000000000000 ) ) ;
#20 =( NAMED_UNIT ( * ) PLANE_ANGLE_UNIT ( ) SI_UNIT ( $, .RADIAN. ) );
#21 = DIRECTION ( 'NONE',  ( -7.559981121716913287E-17, 1.000000000000000000, -0.000000000000000000 ) ) ;
#22 = SURFACE_STYLE_FILL_AREA ( #130 ) ;
#23 = DIRECTION ( 'NONE',  ( -0.000000000000000000, -1.000000000000000000, -0.000000000000000000 ) ) ;
#24 =( GEOMETRIC_REPRESENTATION_CONTEXT ( 3 ) GLOBAL_UNCERTAINTY_ASSIGNED_CONTEXT ( ( #97 ) ) GLOBAL_UNIT_ASSIGNED_CONTEXT ( ( #92, #60, #322 ) ) REPRESENTATION_CONTEXT ( 'NONE', 'WORKASPACE' ) );
#25 = ORIENTED_EDGE ( 'NONE', *, *, #247, .F. ) ;
#26 = VECTOR ( 'NONE', #256, 39.37007874015748854 ) ;
#27 = LINE ( 'NONE', #30, #220 ) ;
#28 = EDGE_LOOP ( 'NONE', ( #346, #176, #307, #153 ) ) ;
#29 = DIMENSIONAL_EXPONENTS ( 1.000000000000000000, 0.000000000000000000, 0.000000000000000000, 0.000000000000000000, 0.000000000000000000, 0.000000000000000000, 0.000000000000000000 ) ;
#30 = CARTESIAN_POINT ( 'NONE',  ( 9.564491501340826783E-18, 0.000000000000000000, 0.07809999999999997500 ) ) ;
#31 = ORIENTED_EDGE ( 'NONE', *, *, #308, .F. ) ;
#32 =( NAMED_UNIT ( * ) PLANE_ANGLE_UNIT ( ) SI_UNIT ( $, .RADIAN. ) );
#33 = ORIENTED_EDGE ( 'NONE', *, *, #235, .F. ) ;
#34 = ORIENTED_EDGE ( 'NONE', *, *, #137, .F. ) ;
#35 = PRESENTATION_LAYER_ASSIGNMENT (  '', '', ( #113 ) ) ;
#36 = SURFACE_STYLE_FILL_AREA ( #147 ) ;
#37 = ORIENTED_EDGE ( 'NONE', *, *, #122, .F. ) ;
#38 = DIRECTION ( 'NONE',  ( -0.000000000000000000, -1.000000000000000000, -0.000000000000000000 ) ) ;
#39 = PRODUCT_RELATED_PRODUCT_CATEGORY ( 'part', '', ( #295 ) ) ;
#40 = AXIS2_PLACEMENT_3D ( 'NONE', #198, #304, #52 ) ;
#41 = PLANE ( 'NONE',  #164 ) ;
#42 = PLANE ( 'NONE',  #173 ) ;
#43 = APPLICATION_PROTOCOL_DEFINITION ( 'draft international standard', 'automotive_design', 1998, #114 ) ;
#44 = AXIS2_PLACEMENT_3D ( 'NONE', #158, #244, #192 ) ;
#45 = ADVANCED_FACE ( 'NONE', ( #319 ), #348, .T. ) ;
#46 = CARTESIAN_POINT ( 'NONE',  ( 0.000000000000000000, 0.5625000000000001110, 0.000000000000000000 ) ) ;
#47 = AXIS2_PLACEMENT_3D ( 'NONE', #231, #345, #88 ) ;
#48 = DIMENSIONAL_EXPONENTS ( 1.000000000000000000, 0.000000000000000000, 0.000000000000000000, 0.000000000000000000, 0.000000000000000000, 0.000000000000000000, 0.000000000000000000 ) ;
#49 = CARTESIAN_POINT ( 'NONE',  ( 0.000000000000000000, 0.000000000000000000, -0.07809999999999997500 ) ) ;
#50 = DIRECTION ( 'NONE',  ( 0.000000000000000000, 0.000000000000000000, -1.000000000000000000 ) ) ;
#51 = PRESENTATION_LAYER_ASSIGNMENT (  '', '', ( #263 ) ) ;
#52 = DIRECTION ( 'NONE',  ( -1.000000000000000000, 0.000000000000000000, 0.000000000000000000 ) ) ;
#53 = DIMENSIONAL_EXPONENTS ( 1.000000000000000000, 0.000000000000000000, 0.000000000000000000, 0.000000000000000000, 0.000000000000000000, 0.000000000000000000, 0.000000000000000000 ) ;
#54 = FILL_AREA_STYLE_COLOUR ( '', #188 ) ;
#55 = ORIENTED_EDGE ( 'NONE', *, *, #168, .F. ) ;
#56 = EDGE_LOOP ( 'NONE', ( #228, #197 ) ) ;
#57 = MECHANICAL_DESIGN_GEOMETRIC_PRESENTATION_REPRESENTATION (  '', ( #125 ), #96 ) ;
#58 = DIRECTION ( 'NONE',  ( -1.000000000000000000, 0.000000000000000000, 0.000000000000000000 ) ) ;
#59 = CARTESIAN_POINT ( 'NONE',  ( -1.464746342332652088E-16, 2.500000000000000000, 0.000000000000000000 ) ) ;
#60 =( NAMED_UNIT ( * ) PLANE_ANGLE_UNIT ( ) SI_UNIT ( $, .RADIAN. ) );
#61 =( GEOMETRIC_REPRESENTATION_CONTEXT ( 3 ) GLOBAL_UNCERTAINTY_ASSIGNED_CONTEXT ( ( #286 ) ) GLOBAL_UNIT_ASSIGNED_CONTEXT ( ( #243, #136, #104 ) ) REPRESENTATION_CONTEXT ( 'NONE', 'WORKASPACE' ) );
#62 = DIRECTION ( 'NONE',  ( 0.000000000000000000, 0.000000000000000000, -1.000000000000000000 ) ) ;
#63 = FACE_OUTER_BOUND ( 'NONE', #28, .T. ) ;
#64 = FILL_AREA_STYLE ('',( #213 ) ) ;
#65 = PRODUCT_CONTEXT ( 'NONE', #342, 'mechanical' ) ;
#66 = ADVANCED_FACE ( 'NONE', ( #185 ), #41, .F. ) ;
#67 = CARTESIAN_POINT ( 'NONE',  ( 0.000000000000000000, 0.5625000000000000000, 0.000000000000000000 ) ) ;
#68 = STYLED_ITEM ( 'NONE', ( #260 ), #298 ) ;
#69 =( LENGTH_UNIT ( ) NAMED_UNIT ( * ) SI_UNIT ( $, .METRE. ) );
#70 =( NAMED_UNIT ( * ) SI_UNIT ( $, .STERADIAN. ) SOLID_ANGLE_UNIT ( ) );
#71 = SHAPE_DEFINITION_REPRESENTATION ( #128, #73 ) ;
#72 = DIRECTION ( 'NONE',  ( 0.000000000000000000, -0.000000000000000000, 1.000000000000000000 ) ) ;
#73 = ADVANCED_BREP_SHAPE_REPRESENTATION ( '81638', ( #84, #89, #183 ), #2 ) ;
#74 = LENGTH_MEASURE_WITH_UNIT ( LENGTH_MEASURE( 0.02539999999999999897 ), #191 );
#75 = AXIS2_PLACEMENT_3D ( 'NONE', #67, #131, #72 ) ;
#76 = FILL_AREA_STYLE ('',( #100 ) ) ;
#77 = CONICAL_SURFACE ( 'NONE', #133, 0.07809999999999997500, 0.3490658503988668948 ) ;
#78 = LENGTH_MEASURE_WITH_UNIT ( LENGTH_MEASURE( 0.02539999999999999897 ), #82 );
#79 = DIRECTION ( 'NONE',  ( -7.559981121716913287E-17, 1.000000000000000000, -0.000000000000000000 ) ) ;
#80 = ADVANCED_FACE ( 'NONE', ( #17 ), #180, .T. ) ;
#81 = SURFACE_SIDE_STYLE ('',( #36 ) ) ;
#82 =( LENGTH_UNIT ( ) NAMED_UNIT ( * ) SI_UNIT ( $, .METRE. ) );
#83 = ORIENTED_EDGE ( 'NONE', *, *, #247, .T. ) ;
#84 = MANIFOLD_SOLID_BREP ( 'Revolve - Cutting Edge', #156 ) ;
#85 = SURFACE_SIDE_STYLE ('',( #186 ) ) ;
#86 = ORIENTED_EDGE ( 'NONE', *, *, #331, .T. ) ;
#87 = AXIS2_PLACEMENT_3D ( 'NONE', #333, #142, #203 ) ;
#88 = DIRECTION ( 'NONE',  ( -1.000000000000000000, 0.000000000000000000, 0.000000000000000000 ) ) ;
#89 = MANIFOLD_SOLID_BREP ( 'Revolve - Tool Body (Reduced Cut Diameter)', #329 ) ;
#90 = PRODUCT_DEFINITION_CONTEXT ( 'detailed design', #114, 'design' ) ;
#91 = CYLINDRICAL_SURFACE ( 'NONE', #330, 0.07809999999999997500 ) ;
#92 =( CONVERSION_BASED_UNIT ( 'INCH', #233 ) LENGTH_UNIT ( ) NAMED_UNIT ( #170 ) );
#93 = FACE_OUTER_BOUND ( 'NONE', #207, .T. ) ;
#94 = LENGTH_MEASURE_WITH_UNIT ( LENGTH_MEASURE( 0.02539999999999999897 ), #211 );
#95 = PRESENTATION_LAYER_ASSIGNMENT (  '', '', ( #338 ) ) ;
#96 =( GEOMETRIC_REPRESENTATION_CONTEXT ( 3 ) GLOBAL_UNCERTAINTY_ASSIGNED_CONTEXT ( ( #189 ) ) GLOBAL_UNIT_ASSIGNED_CONTEXT ( ( #354, #326, #219 ) ) REPRESENTATION_CONTEXT ( 'NONE', 'WORKASPACE' ) );
#97 = UNCERTAINTY_MEASURE_WITH_UNIT (LENGTH_MEASURE( 1.000000000000000082E-05 ), #92, 'distance_accuracy_value', 'NONE');
#98 = EDGE_LOOP ( 'NONE', ( #115, #334, #14, #337 ) ) ;
#99 = DIRECTION ( 'NONE',  ( -7.559981121716913287E-17, 1.000000000000000000, -0.000000000000000000 ) ) ;
#100 = FILL_AREA_STYLE_COLOUR ( '', #118 ) ;
#101 = MECHANICAL_DESIGN_GEOMETRIC_PRESENTATION_REPRESENTATION (  '', ( #13 ), #151 ) ;
#102 = LENGTH_MEASURE_WITH_UNIT ( LENGTH_MEASURE( 0.02539999999999999897 ), #69 );
#103 = CARTESIAN_POINT ( 'NONE',  ( 0.09374999999999984734, 2.500000000000000000, 1.148106374200643863E-17 ) ) ;
#104 =( NAMED_UNIT ( * ) SI_UNIT ( $, .STERADIAN. ) SOLID_ANGLE_UNIT ( ) );
#105 = CARTESIAN_POINT ( 'NONE',  ( -3.250642316765289747E-18, 0.6054980216144648653, 0.000000000000000000 ) ) ;
#106 = SURFACE_SIDE_STYLE ('',( #359 ) ) ;
#107 = AXIS2_PLACEMENT_3D ( 'NONE', #184, #38, #205 ) ;
#108 = CYLINDRICAL_SURFACE ( 'NONE', #245, 0.07809999999999997500 ) ;
#109 = ORIENTED_EDGE ( 'NONE', *, *, #215, .F. ) ;
#110 =( CONVERSION_BASED_UNIT ( 'INCH', #78 ) LENGTH_UNIT ( ) NAMED_UNIT ( #48 ) );
#111 = COLOUR_RGB ( '',1.000000000000000000, 0.000000000000000000, 0.000000000000000000 ) ;
#112 = ADVANCED_FACE ( 'NONE', ( #190 ), #300, .F. ) ;
#113 = STYLED_ITEM ( 'NONE', ( #134 ), #89 ) ;
#114 = APPLICATION_CONTEXT ( 'automotive_design' ) ;
#115 = ORIENTED_EDGE ( 'NONE', *, *, #331, .F. ) ;
#116 = DIRECTION ( 'NONE',  ( -0.000000000000000000, -1.000000000000000000, -0.000000000000000000 ) ) ;
#117 = SURFACE_STYLE_USAGE ( .BOTH. , #267 ) ;
#118 = COLOUR_RGB ( '',0.7921568627450980005, 0.8196078431372548767, 0.9333333333333333481 ) ;
#119 = CYLINDRICAL_SURFACE ( 'NONE', #224, 0.09375000000000001388 ) ;
#120 = SURFACE_STYLE_FILL_AREA ( #64 ) ;
#121 = DIRECTION ( 'NONE',  ( 0.000000000000000000, 0.000000000000000000, -1.000000000000000000 ) ) ;
#122 = EDGE_CURVE ( 'NONE', #146, #312, #232, .T. ) ;
#123 = EDGE_LOOP ( 'NONE', ( #9, #278 ) ) ;
#124 = CARTESIAN_POINT ( 'NONE',  ( 2.231836933595964060E-34, 0.5625000000000000000, 0.000000000000000000 ) ) ;
#125 = STYLED_ITEM ( 'NONE', ( #301 ), #84 ) ;
#126 = VECTOR ( 'NONE', #309, 39.37007874015748143 ) ;
#127 = APPLICATION_PROTOCOL_DEFINITION ( 'draft international standard', 'automotive_design', 1998, #342 ) ;
#128 = PRODUCT_DEFINITION_SHAPE ( 'NONE', 'NONE',  #11 ) ;
#129 = DIRECTION ( 'NONE',  ( 1.000000000000000000, 0.000000000000000000, 0.000000000000000000 ) ) ;
#130 = FILL_AREA_STYLE ('',( #1 ) ) ;
#131 = DIRECTION ( 'NONE',  ( 0.000000000000000000, 1.000000000000000000, 0.000000000000000000 ) ) ;
#132 = DIRECTION ( 'NONE',  ( 0.000000000000000000, 0.000000000000000000, 1.000000000000000000 ) ) ;
#133 = AXIS2_PLACEMENT_3D ( 'NONE', #237, #343, #347 ) ;
#134 = PRESENTATION_STYLE_ASSIGNMENT (( #196 ) ) ;
#135 = CARTESIAN_POINT ( 'NONE',  ( -1.464746342332652088E-16, 2.500000000000000000, 0.000000000000000000 ) ) ;
#136 =( NAMED_UNIT ( * ) PLANE_ANGLE_UNIT ( ) SI_UNIT ( $, .RADIAN. ) );
#137 = EDGE_CURVE ( 'NONE', #285, #201, #27, .T. ) ;
#138 = LINE ( 'NONE', #49, #290 ) ;
#139 = CARTESIAN_POINT ( 'NONE',  ( 0.09375000000000001388, 0.6054980216144648653, 1.148106374200643863E-17 ) ) ;
#140 = EDGE_LOOP ( 'NONE', ( #33, #316, #83, #4 ) ) ;
#141 = LINE ( 'NONE', #253, #126 ) ;
#142 = DIRECTION ( 'NONE',  ( -7.559981121716913287E-17, 1.000000000000000000, -0.000000000000000000 ) ) ;
#143 = COLOUR_RGB ( '',1.000000000000000000, 0.000000000000000000, 0.000000000000000000 ) ;
#144 = ORIENTED_EDGE ( 'NONE', *, *, #235, .T. ) ;
#145 = AXIS2_PLACEMENT_3D ( 'NONE', #105, #352, #193 ) ;
#146 = VERTEX_POINT ( 'NONE', #340 ) ;
#147 = FILL_AREA_STYLE ('',( #54 ) ) ;
#148 = SURFACE_STYLE_USAGE ( .BOTH. , #187 ) ;
#149 = EDGE_CURVE ( 'NONE', #178, #6, #138, .T. ) ;
#150 = DIRECTION ( 'NONE',  ( -7.559981121716913287E-17, 1.000000000000000000, 0.000000000000000000 ) ) ;
#151 =( GEOMETRIC_REPRESENTATION_CONTEXT ( 3 ) GLOBAL_UNCERTAINTY_ASSIGNED_CONTEXT ( ( #313 ) ) GLOBAL_UNIT_ASSIGNED_CONTEXT ( ( #110, #32, #335 ) ) REPRESENTATION_CONTEXT ( 'NONE', 'WORKASPACE' ) );
#152 = DIRECTION ( 'NONE',  ( -1.000000000000000000, -7.559981121716913287E-17, 0.000000000000000000 ) ) ;
#153 = ORIENTED_EDGE ( 'NONE', *, *, #149, .F. ) ;
#154 = EDGE_CURVE ( 'NONE', #273, #162, #141, .T. ) ;
#155 = CARTESIAN_POINT ( 'NONE',  ( 0.000000000000000000, 0.000000000000000000, 0.000000000000000000 ) ) ;
#156 = CLOSED_SHELL ( 'NONE', ( #298, #80, #163, #15 ) ) ;
#157 = DIRECTION ( 'NONE',  ( -1.000000000000000000, 0.000000000000000000, 0.000000000000000000 ) ) ;
#158 = CARTESIAN_POINT ( 'NONE',  ( 0.09374999999999984734, 2.500000000000000000, 0.000000000000000000 ) ) ;
#159 = AXIS2_PLACEMENT_3D ( 'NONE', #46, #3, #277 ) ;
#160 = CIRCLE ( 'NONE', #257, 0.09375000000000001388 ) ;
#161 = EDGE_CURVE ( 'NONE', #178, #285, #305, .T. ) ;
#162 = VERTEX_POINT ( 'NONE', #169 ) ;
#163 = ADVANCED_FACE ( 'NONE', ( #341 ), #108, .T. ) ;
#164 = AXIS2_PLACEMENT_3D ( 'NONE', #124, #150, #152 ) ;
#165 = VECTOR ( 'NONE', #303, 39.37007874015748143 ) ;
#166 = LINE ( 'NONE', #259, #165 ) ;
#167 = ORIENTED_EDGE ( 'NONE', *, *, #308, .T. ) ;
#168 = EDGE_CURVE ( 'NONE', #162, #258, #249, .T. ) ;
#169 = CARTESIAN_POINT ( 'NONE',  ( -0.09375000000000016653, 2.500000000000000000, 0.000000000000000000 ) ) ;
#170 = DIMENSIONAL_EXPONENTS ( 1.000000000000000000, 0.000000000000000000, 0.000000000000000000, 0.000000000000000000, 0.000000000000000000, 0.000000000000000000, 0.000000000000000000 ) ;
#171 = DIRECTION ( 'NONE',  ( -0.000000000000000000, -1.000000000000000000, -0.000000000000000000 ) ) ;
#172 = CARTESIAN_POINT ( 'NONE',  ( 0.000000000000000000, 0.5625000000000000000, -0.07809999999999997500 ) ) ;
#173 = AXIS2_PLACEMENT_3D ( 'NONE', #155, #239, #121 ) ;
#174 = VERTEX_POINT ( 'NONE', #139 ) ;
#175 = CIRCLE ( 'NONE', #212, 0.07810000000000000275 ) ;
#176 = ORIENTED_EDGE ( 'NONE', *, *, #137, .T. ) ;
#177 =( CONVERSION_BASED_UNIT ( 'INCH', #283 ) LENGTH_UNIT ( ) NAMED_UNIT ( #53 ) );
#178 = VERTEX_POINT ( 'NONE', #172 ) ;
#179 =( NAMED_UNIT ( * ) PLANE_ANGLE_UNIT ( ) SI_UNIT ( $, .RADIAN. ) );
#180 = PLANE ( 'NONE',  #75 ) ;
#181 = FILL_AREA_STYLE_COLOUR ( '', #314 ) ;
#182 = CARTESIAN_POINT ( 'NONE',  ( -1.464746342332652088E-16, 2.500000000000000000, 0.000000000000000000 ) ) ;
#183 = AXIS2_PLACEMENT_3D ( 'NONE', #296, #132, #129 ) ;
#184 = CARTESIAN_POINT ( 'NONE',  ( 0.000000000000000000, 0.5625000000000000000, 0.000000000000000000 ) ) ;
#185 = FACE_OUTER_BOUND ( 'NONE', #282, .T. ) ;
#186 = SURFACE_STYLE_FILL_AREA ( #349 ) ;
#187 = SURFACE_SIDE_STYLE ('',( #120 ) ) ;
#188 = COLOUR_RGB ( '',1.000000000000000000, 0.000000000000000000, 0.000000000000000000 ) ;
#189 = UNCERTAINTY_MEASURE_WITH_UNIT (LENGTH_MEASURE( 1.000000000000000082E-05 ), #354, 'distance_accuracy_value', 'NONE');
#190 = FACE_OUTER_BOUND ( 'NONE', #56, .T. ) ;
#191 =( LENGTH_UNIT ( ) NAMED_UNIT ( * ) SI_UNIT ( $, .METRE. ) );
#192 = DIRECTION ( 'NONE',  ( 1.000000000000000000, 7.559981121716913287E-17, 0.000000000000000000 ) ) ;
#193 = DIRECTION ( 'NONE',  ( -1.000000000000000000, 0.000000000000000000, 0.000000000000000000 ) ) ;
#194 = MECHANICAL_DESIGN_GEOMETRIC_PRESENTATION_REPRESENTATION (  '', ( #263 ), #240 ) ;
#195 = CIRCLE ( 'NONE', #356, 0.07810000000000000275 ) ;
#196 = SURFACE_STYLE_USAGE ( .BOTH. , #106 ) ;
#197 = ORIENTED_EDGE ( 'NONE', *, *, #357, .T. ) ;
#198 = CARTESIAN_POINT ( 'NONE',  ( 0.000000000000000000, 0.5625000000000001110, 0.000000000000000000 ) ) ;
#199 = AXIS2_PLACEMENT_3D ( 'NONE', #306, #79, #250 ) ;
#200 = FACE_OUTER_BOUND ( 'NONE', #310, .T. ) ;
#201 = VERTEX_POINT ( 'NONE', #281 ) ;
#202 = UNCERTAINTY_MEASURE_WITH_UNIT (LENGTH_MEASURE( 1.000000000000000082E-05 ), #270, 'distance_accuracy_value', 'NONE');
#203 = DIRECTION ( 'NONE',  ( -1.000000000000000000, 0.000000000000000000, 0.000000000000000000 ) ) ;
#204 = EDGE_LOOP ( 'NONE', ( #265, #226 ) ) ;
#205 = DIRECTION ( 'NONE',  ( 0.000000000000000000, 0.000000000000000000, -1.000000000000000000 ) ) ;
#206 = FACE_OUTER_BOUND ( 'NONE', #123, .T. ) ;
#207 = EDGE_LOOP ( 'NONE', ( #167, #86, #55, #251 ) ) ;
#208 = ADVANCED_FACE ( 'NONE', ( #200 ), #280, .T. ) ;
#209 = UNCERTAINTY_MEASURE_WITH_UNIT (LENGTH_MEASURE( 1.000000000000000082E-05 ), #323, 'distance_accuracy_value', 'NONE');
#210 =( LENGTH_UNIT ( ) NAMED_UNIT ( * ) SI_UNIT ( $, .METRE. ) );
#211 =( LENGTH_UNIT ( ) NAMED_UNIT ( * ) SI_UNIT ( $, .METRE. ) );
#212 = AXIS2_PLACEMENT_3D ( 'NONE', #266, #238, #62 ) ;
#213 = FILL_AREA_STYLE_COLOUR ( '', #111 ) ;
#214 = PRESENTATION_STYLE_ASSIGNMENT (( #117 ) ) ;
#215 = EDGE_CURVE ( 'NONE', #312, #146, #297, .T. ) ;
#216 = PRESENTATION_LAYER_ASSIGNMENT (  '', '', ( #68 ) ) ;
#217 = CARTESIAN_POINT ( 'NONE',  ( 0.000000000000000000, 0.000000000000000000, 0.000000000000000000 ) ) ;
#218 = LINE ( 'NONE', #103, #351 ) ;
#219 =( NAMED_UNIT ( * ) SI_UNIT ( $, .STERADIAN. ) SOLID_ANGLE_UNIT ( ) );
#220 = VECTOR ( 'NONE', #311, 39.37007874015748143 ) ;
#221 = DIRECTION ( 'NONE',  ( 0.000000000000000000, 0.000000000000000000, -1.000000000000000000 ) ) ;
#222 = CARTESIAN_POINT ( 'NONE',  ( 0.000000000000000000, 0.000000000000000000, 0.000000000000000000 ) ) ;
#223 = EDGE_LOOP ( 'NONE', ( #34, #271, #321, #12 ) ) ;
#224 = AXIS2_PLACEMENT_3D ( 'NONE', #59, #289, #358 ) ;
#225 = CARTESIAN_POINT ( 'NONE',  ( 0.000000000000000000, 0.5625000000000000000, 0.000000000000000000 ) ) ;
#226 = ORIENTED_EDGE ( 'NONE', *, *, #294, .F. ) ;
#227 = CARTESIAN_POINT ( 'NONE',  ( -0.09375000000000001388, 0.6054980216144648653, 0.000000000000000000 ) ) ;
#228 = ORIENTED_EDGE ( 'NONE', *, *, #168, .T. ) ;
#229 = UNCERTAINTY_MEASURE_WITH_UNIT (LENGTH_MEASURE( 1.000000000000000082E-05 ), #177, 'distance_accuracy_value', 'NONE');
#230 = CARTESIAN_POINT ( 'NONE',  ( 9.564491501340826783E-18, 0.5625000000000000000, 0.07809999999999997500 ) ) ;
#231 = CARTESIAN_POINT ( 'NONE',  ( -3.250642316765289747E-18, 0.6054980216144648653, 0.000000000000000000 ) ) ;
#232 = CIRCLE ( 'NONE', #159, 0.07809999999999997500 ) ;
#233 = LENGTH_MEASURE_WITH_UNIT ( LENGTH_MEASURE( 0.02539999999999999897 ), #261 );
#234 =( NAMED_UNIT ( * ) SI_UNIT ( $, .STERADIAN. ) SOLID_ANGLE_UNIT ( ) );
#235 = EDGE_CURVE ( 'NONE', #312, #174, #166, .T. ) ;
#236 = PRESENTATION_STYLE_ASSIGNMENT (( #148 ) ) ;
#237 = CARTESIAN_POINT ( 'NONE',  ( 0.000000000000000000, 0.5625000000000001110, 0.000000000000000000 ) ) ;
#238 = DIRECTION ( 'NONE',  ( -0.000000000000000000, -1.000000000000000000, -0.000000000000000000 ) ) ;
#239 = DIRECTION ( 'NONE',  ( 0.000000000000000000, -1.000000000000000000, -0.000000000000000000 ) ) ;
#240 =( GEOMETRIC_REPRESENTATION_CONTEXT ( 3 ) GLOBAL_UNCERTAINTY_ASSIGNED_CONTEXT ( ( #202 ) ) GLOBAL_UNIT_ASSIGNED_CONTEXT ( ( #270, #20, #70 ) ) REPRESENTATION_CONTEXT ( 'NONE', 'WORKASPACE' ) );
#241 = CIRCLE ( 'NONE', #47, 0.09375000000000002776 ) ;
#242 = ORIENTED_EDGE ( 'NONE', *, *, #122, .T. ) ;
#243 =( CONVERSION_BASED_UNIT ( 'INCH', #325 ) LENGTH_UNIT ( ) NAMED_UNIT ( #254 ) );
#244 = DIRECTION ( 'NONE',  ( 7.559981121716913287E-17, -1.000000000000000000, 0.000000000000000000 ) ) ;
#245 = AXIS2_PLACEMENT_3D ( 'NONE', #222, #23, #50 ) ;
#246 = SURFACE_STYLE_USAGE ( .BOTH. , #302 ) ;
#247 = EDGE_CURVE ( 'NONE', #146, #273, #276, .T. ) ;
#248 = DIMENSIONAL_EXPONENTS ( 1.000000000000000000, 0.000000000000000000, 0.000000000000000000, 0.000000000000000000, 0.000000000000000000, 0.000000000000000000, 0.000000000000000000 ) ;
#249 = CIRCLE ( 'NONE', #87, 0.09375000000000001388 ) ;
#250 = DIRECTION ( 'NONE',  ( -1.000000000000000000, 0.000000000000000000, 0.000000000000000000 ) ) ;
#251 = ORIENTED_EDGE ( 'NONE', *, *, #154, .F. ) ;
#252 = CARTESIAN_POINT ( 'NONE',  ( -0.07809999999999997500, 0.5625000000000001110, 0.000000000000000000 ) ) ;
#253 = CARTESIAN_POINT ( 'NONE',  ( -0.09375000000000016653, 2.500000000000000000, 0.000000000000000000 ) ) ;
#254 = DIMENSIONAL_EXPONENTS ( 1.000000000000000000, 0.000000000000000000, 0.000000000000000000, 0.000000000000000000, 0.000000000000000000, 0.000000000000000000, 0.000000000000000000 ) ;
#255 = CIRCLE ( 'NONE', #145, 0.09375000000000002776 ) ;
#256 = DIRECTION ( 'NONE',  ( -0.3420201433256696566, 0.9396926207859079838, 0.000000000000000000 ) ) ;
#257 = AXIS2_PLACEMENT_3D ( 'NONE', #135, #99, #157 ) ;
#258 = VERTEX_POINT ( 'NONE', #8 ) ;
#259 = CARTESIAN_POINT ( 'NONE',  ( 0.07809999999999997500, 0.5625000000000001110, 9.564491501340826783E-18 ) ) ;
#260 = PRESENTATION_STYLE_ASSIGNMENT (( #293 ) ) ;
#261 =( LENGTH_UNIT ( ) NAMED_UNIT ( * ) SI_UNIT ( $, .METRE. ) );
#262 = CARTESIAN_POINT ( 'NONE',  ( 0.000000000000000000, 0.000000000000000000, 0.000000000000000000 ) ) ;
#263 = STYLED_ITEM ( 'NONE', ( #214 ), #80 ) ;
#264 = AXIS2_PLACEMENT_3D ( 'NONE', #225, #171, #221 ) ;
#265 = ORIENTED_EDGE ( 'NONE', *, *, #161, .F. ) ;
#266 = CARTESIAN_POINT ( 'NONE',  ( 0.000000000000000000, 0.000000000000000000, 0.000000000000000000 ) ) ;
#267 = SURFACE_SIDE_STYLE ('',( #353 ) ) ;
#268 = DIRECTION ( 'NONE',  ( -7.559981121716913287E-17, 1.000000000000000000, -0.000000000000000000 ) ) ;
#269 = CIRCLE ( 'NONE', #107, 0.07809999999999997500 ) ;
#270 =( CONVERSION_BASED_UNIT ( 'INCH', #94 ) LENGTH_UNIT ( ) NAMED_UNIT ( #29 ) );
#271 = ORIENTED_EDGE ( 'NONE', *, *, #294, .T. ) ;
#272 = DIMENSIONAL_EXPONENTS ( 1.000000000000000000, 0.000000000000000000, 0.000000000000000000, 0.000000000000000000, 0.000000000000000000, 0.000000000000000000, 0.000000000000000000 ) ;
#273 = VERTEX_POINT ( 'NONE', #227 ) ;
#274 = EDGE_CURVE ( 'NONE', #6, #201, #175, .T. ) ;
#275 = MECHANICAL_DESIGN_GEOMETRIC_PRESENTATION_REPRESENTATION (  '', ( #68 ), #344 ) ;
#276 = LINE ( 'NONE', #252, #26 ) ;
#277 = DIRECTION ( 'NONE',  ( -1.000000000000000000, 0.000000000000000000, 0.000000000000000000 ) ) ;
#278 = ORIENTED_EDGE ( 'NONE', *, *, #336, .T. ) ;
#279 = COLOUR_RGB ( '',0.7921568627450980005, 0.8196078431372548767, 0.9333333333333333481 ) ;
#280 = CONICAL_SURFACE ( 'NONE', #199, 0.07809999999999997500, 0.3490658503988668948 ) ;
#281 = CARTESIAN_POINT ( 'NONE',  ( 9.564491501340828324E-18, 0.000000000000000000, 0.07810000000000000275 ) ) ;
#282 = EDGE_LOOP ( 'NONE', ( #37, #109 ) ) ;
#283 = LENGTH_MEASURE_WITH_UNIT ( LENGTH_MEASURE( 0.02539999999999999897 ), #210 );
#284 = CARTESIAN_POINT ( 'NONE',  ( 0.000000000000000000, 0.000000000000000000, -0.07810000000000000275 ) ) ;
#285 = VERTEX_POINT ( 'NONE', #230 ) ;
#286 = UNCERTAINTY_MEASURE_WITH_UNIT (LENGTH_MEASURE( 1.000000000000000082E-05 ), #243, 'distance_accuracy_value', 'NONE');
#287 = FACE_OUTER_BOUND ( 'NONE', #140, .T. ) ;
#288 = FILL_AREA_STYLE ('',( #292 ) ) ;
#289 = DIRECTION ( 'NONE',  ( -7.559981121716913287E-17, 1.000000000000000000, -0.000000000000000000 ) ) ;
#290 = VECTOR ( 'NONE', #10, 39.37007874015748143 ) ;
#291 = ADVANCED_FACE ( 'NONE', ( #287 ), #77, .T. ) ;
#292 = FILL_AREA_STYLE_COLOUR ( '', #143 ) ;
#293 = SURFACE_STYLE_USAGE ( .BOTH. , #85 ) ;
#294 = EDGE_CURVE ( 'NONE', #285, #178, #269, .T. ) ;
#295 = PRODUCT ( '81638', '81638', '', ( #65 ) ) ;
#296 = CARTESIAN_POINT ( 'NONE',  ( 0.000000000000000000, 0.000000000000000000, 0.000000000000000000 ) ) ;
#297 = CIRCLE ( 'NONE', #40, 0.07809999999999997500 ) ;
#298 = ADVANCED_FACE ( 'NONE', ( #63 ), #91, .T. ) ;
#299 =( NAMED_UNIT ( * ) SI_UNIT ( $, .STERADIAN. ) SOLID_ANGLE_UNIT ( ) );
#300 = PLANE ( 'NONE',  #44 ) ;
#301 = PRESENTATION_STYLE_ASSIGNMENT (( #246 ) ) ;
#302 = SURFACE_SIDE_STYLE ('',( #22 ) ) ;
#303 = DIRECTION ( 'NONE',  ( 0.3420201433256696011, 0.9396926207859080948, 4.188538737677003475E-17 ) ) ;
#304 = DIRECTION ( 'NONE',  ( -7.559981121716913287E-17, 1.000000000000000000, -0.000000000000000000 ) ) ;
#305 = CIRCLE ( 'NONE', #264, 0.07809999999999997500 ) ;
#306 = CARTESIAN_POINT ( 'NONE',  ( 0.000000000000000000, 0.5625000000000001110, 0.000000000000000000 ) ) ;
#307 = ORIENTED_EDGE ( 'NONE', *, *, #274, .F. ) ;
#308 = EDGE_CURVE ( 'NONE', #273, #174, #241, .T. ) ;
#309 = DIRECTION ( 'NONE',  ( -7.559981121716913287E-17, 1.000000000000000000, -0.000000000000000000 ) ) ;
#310 = EDGE_LOOP ( 'NONE', ( #242, #144, #31, #25 ) ) ;
#311 = DIRECTION ( 'NONE',  ( -0.000000000000000000, -1.000000000000000000, -0.000000000000000000 ) ) ;
#312 = VERTEX_POINT ( 'NONE', #317 ) ;
#313 = UNCERTAINTY_MEASURE_WITH_UNIT (LENGTH_MEASURE( 1.000000000000000082E-05 ), #110, 'distance_accuracy_value', 'NONE');
#314 = COLOUR_RGB ( '',1.000000000000000000, 0.000000000000000000, 0.000000000000000000 ) ;
#315 = ADVANCED_FACE ( 'NONE', ( #93 ), #119, .T. ) ;
#316 = ORIENTED_EDGE ( 'NONE', *, *, #215, .T. ) ;
#317 = CARTESIAN_POINT ( 'NONE',  ( 0.07809999999999997500, 0.5625000000000001110, 1.052277762167363194E-17 ) ) ;
#318 = EDGE_CURVE ( 'NONE', #174, #273, #255, .T. ) ;
#319 = FACE_OUTER_BOUND ( 'NONE', #98, .T. ) ;
#320 = DIRECTION ( 'NONE',  ( 0.000000000000000000, 0.000000000000000000, -1.000000000000000000 ) ) ;
#321 = ORIENTED_EDGE ( 'NONE', *, *, #149, .T. ) ;
#322 =( NAMED_UNIT ( * ) SI_UNIT ( $, .STERADIAN. ) SOLID_ANGLE_UNIT ( ) );
#323 =( CONVERSION_BASED_UNIT ( 'INCH', #74 ) LENGTH_UNIT ( ) NAMED_UNIT ( #272 ) );
#324 = MECHANICAL_DESIGN_GEOMETRIC_PRESENTATION_REPRESENTATION (  '', ( #338 ), #24 ) ;
#325 = LENGTH_MEASURE_WITH_UNIT ( LENGTH_MEASURE( 0.02539999999999999897 ), #328 );
#326 =( NAMED_UNIT ( * ) PLANE_ANGLE_UNIT ( ) SI_UNIT ( $, .RADIAN. ) );
#327 = DIRECTION ( 'NONE',  ( -0.000000000000000000, -1.000000000000000000, -0.000000000000000000 ) ) ;
#328 =( LENGTH_UNIT ( ) NAMED_UNIT ( * ) SI_UNIT ( $, .METRE. ) );
#329 = CLOSED_SHELL ( 'NONE', ( #315, #208, #66, #291, #45, #112 ) ) ;
#330 = AXIS2_PLACEMENT_3D ( 'NONE', #262, #116, #320 ) ;
#331 = EDGE_CURVE ( 'NONE', #174, #258, #218, .T. ) ;
#332 = PRESENTATION_STYLE_ASSIGNMENT (( #5 ) ) ;
#333 = CARTESIAN_POINT ( 'NONE',  ( -1.464746342332652088E-16, 2.500000000000000000, 0.000000000000000000 ) ) ;
#334 = ORIENTED_EDGE ( 'NONE', *, *, #318, .T. ) ;
#335 =( NAMED_UNIT ( * ) SI_UNIT ( $, .STERADIAN. ) SOLID_ANGLE_UNIT ( ) );
#336 = EDGE_CURVE ( 'NONE', #201, #6, #195, .T. ) ;
#337 = ORIENTED_EDGE ( 'NONE', *, *, #357, .F. ) ;
#338 = STYLED_ITEM ( 'NONE', ( #236 ), #15 ) ;
#339 = PRODUCT_DEFINITION_FORMATION_WITH_SPECIFIED_SOURCE ( 'ANY', '', #295, .NOT_KNOWN. ) ;
#340 = CARTESIAN_POINT ( 'NONE',  ( -0.07809999999999997500, 0.5625000000000001110, 0.000000000000000000 ) ) ;
#341 = FACE_OUTER_BOUND ( 'NONE', #223, .T. ) ;
#342 = APPLICATION_CONTEXT ( 'automotive_design' ) ;
#343 = DIRECTION ( 'NONE',  ( -7.559981121716913287E-17, 1.000000000000000000, -0.000000000000000000 ) ) ;
#344 =( GEOMETRIC_REPRESENTATION_CONTEXT ( 3 ) GLOBAL_UNCERTAINTY_ASSIGNED_CONTEXT ( ( #229 ) ) GLOBAL_UNIT_ASSIGNED_CONTEXT ( ( #177, #179, #234 ) ) REPRESENTATION_CONTEXT ( 'NONE', 'WORKASPACE' ) );
#345 = DIRECTION ( 'NONE',  ( -7.559981121716913287E-17, 1.000000000000000000, -0.000000000000000000 ) ) ;
#346 = ORIENTED_EDGE ( 'NONE', *, *, #161, .T. ) ;
#347 = DIRECTION ( 'NONE',  ( -1.000000000000000000, 0.000000000000000000, 0.000000000000000000 ) ) ;
#348 = CYLINDRICAL_SURFACE ( 'NONE', #350, 0.09375000000000001388 ) ;
#349 = FILL_AREA_STYLE ('',( #181 ) ) ;
#350 = AXIS2_PLACEMENT_3D ( 'NONE', #182, #268, #58 ) ;
#351 = VECTOR ( 'NONE', #21, 39.37007874015748143 ) ;
#352 = DIRECTION ( 'NONE',  ( -7.559981121716913287E-17, 1.000000000000000000, -0.000000000000000000 ) ) ;
#353 = SURFACE_STYLE_FILL_AREA ( #288 ) ;
#354 =( CONVERSION_BASED_UNIT ( 'INCH', #102 ) LENGTH_UNIT ( ) NAMED_UNIT ( #248 ) );
#355 = MECHANICAL_DESIGN_GEOMETRIC_PRESENTATION_REPRESENTATION (  '', ( #113 ), #61 ) ;
#356 = AXIS2_PLACEMENT_3D ( 'NONE', #217, #327, #19 ) ;
#357 = EDGE_CURVE ( 'NONE', #258, #162, #160, .T. ) ;
#358 = DIRECTION ( 'NONE',  ( -1.000000000000000000, 0.000000000000000000, 0.000000000000000000 ) ) ;
#359 = SURFACE_STYLE_FILL_AREA ( #76 ) ;
ENDSEC;
END-ISO-10303-21;
