ISO-10303-21;
HEADER;
FILE_DESCRIPTION (( 'STEP AP214' ),
    '1' );
FILE_NAME ('Micro_EMH-625-06.STEP',
    '2022-03-15T14:37:07',
    ( '' ),
    ( '' ),
    'SwSTEP 2.0',
    'SolidWorks 2022',
    '' );
FILE_SCHEMA (( 'AUTOMOTIVE_DESIGN' ));
ENDSEC;

DATA;
#1 = ORIENTED_EDGE ( 'NONE', *, *, #263, .T. ) ;
#2 = DIRECTION ( 'NONE',  ( -1.000000000000000000, 0.000000000000000000, 0.000000000000000000 ) ) ;
#3 = DIMENSIONAL_EXPONENTS ( 1.000000000000000000, 0.000000000000000000, 0.000000000000000000, 0.000000000000000000, 0.000000000000000000, 0.000000000000000000, 0.000000000000000000 ) ;
#4 = CYLINDRICAL_SURFACE ( 'NONE', #243, 0.3121874999999999512 ) ;
#5 = CARTESIAN_POINT ( 'NONE',  ( 0.000000000000000000, 0.000000000000000000, 3.500000000000000000 ) ) ;
#6 =( LENGTH_UNIT ( ) NAMED_UNIT ( * ) SI_UNIT ( $, .METRE. ) );
#7 = AXIS2_PLACEMENT_3D ( 'NONE', #207, #208, #2 ) ;
#8 =( NAMED_UNIT ( * ) SI_UNIT ( $, .STERADIAN. ) SOLID_ANGLE_UNIT ( ) );
#9 = DIRECTION ( 'NONE',  ( 1.000000000000000000, 0.000000000000000000, 0.000000000000000000 ) ) ;
#10 = EDGE_LOOP ( 'NONE', ( #13, #84, #225, #130 ) ) ;
#11 = EDGE_CURVE ( 'NONE', #218, #297, #223, .T. ) ;
#12 = ORIENTED_EDGE ( 'NONE', *, *, #11, .T. ) ;
#13 = ORIENTED_EDGE ( 'NONE', *, *, #263, .F. ) ;
#14 = AXIS2_PLACEMENT_3D ( 'NONE', #5, #65, #51 ) ;
#15 = ORIENTED_EDGE ( 'NONE', *, *, #194, .T. ) ;
#16 = ADVANCED_BREP_SHAPE_REPRESENTATION ( 'Micro_EMH-625-06', ( #46, #229 ), #30 ) ;
#17 = ORIENTED_EDGE ( 'NONE', *, *, #132, .T. ) ;
#18 = FACE_OUTER_BOUND ( 'NONE', #161, .T. ) ;
#19 = EDGE_LOOP ( 'NONE', ( #59, #15, #201, #181 ) ) ;
#20 = DIRECTION ( 'NONE',  ( -1.224646799147353207E-16, -0.000000000000000000, -1.000000000000000000 ) ) ;
#21 = VECTOR ( 'NONE', #111, 39.37007874015748143 ) ;
#22 = EDGE_LOOP ( 'NONE', ( #89, #230, #269, #248 ) ) ;
#23 = FILL_AREA_STYLE_COLOUR ( '', #81 ) ;
#24 = CARTESIAN_POINT ( 'NONE',  ( -0.2975000000000003197, 0.000000000000000000, 3.500000000000000000 ) ) ;
#25 = DIRECTION ( 'NONE',  ( 1.000000000000000000, 0.000000000000000000, 0.000000000000000000 ) ) ;
#26 = CARTESIAN_POINT ( 'NONE',  ( 0.3125000000000001665, 3.827021247335480159E-17, 1.251772275568630244 ) ) ;
#27 = ADVANCED_FACE ( 'NONE', ( #272 ), #254, .T. ) ;
#28 = CARTESIAN_POINT ( 'NONE',  ( 0.000000000000000000, 0.000000000000000000, 3.500000000000000000 ) ) ;
#29 = LINE ( 'NONE', #67, #35 ) ;
#30 =( GEOMETRIC_REPRESENTATION_CONTEXT ( 3 ) GLOBAL_UNCERTAINTY_ASSIGNED_CONTEXT ( ( #287 ) ) GLOBAL_UNIT_ASSIGNED_CONTEXT ( ( #283, #79, #148 ) ) REPRESENTATION_CONTEXT ( 'NONE', 'WORKASPACE' ) );
#31 = LENGTH_MEASURE_WITH_UNIT ( LENGTH_MEASURE( 0.02539999999999999897 ), #6 );
#32 = VERTEX_POINT ( 'NONE', #107 ) ;
#33 =( NAMED_UNIT ( * ) PLANE_ANGLE_UNIT ( ) SI_UNIT ( $, .RADIAN. ) );
#34 = CLOSED_SHELL ( 'NONE', ( #240, #27, #209, #275, #48, #151, #175, #57, #298, #204 ) ) ;
#35 = VECTOR ( 'NONE', #70, 39.37007874015747433 ) ;
#36 = ORIENTED_EDGE ( 'NONE', *, *, #238, .F. ) ;
#37 = ORIENTED_EDGE ( 'NONE', *, *, #194, .F. ) ;
#38 = CARTESIAN_POINT ( 'NONE',  ( 0.3121874999999998956, 3.823194226088143379E-17, 0.000000000000000000 ) ) ;
#39 = ORIENTED_EDGE ( 'NONE', *, *, #101, .T. ) ;
#40 = PRESENTATION_STYLE_ASSIGNMENT (( #90 ) ) ;
#41 = CARTESIAN_POINT ( 'NONE',  ( 1.532978910536521817E-16, 0.000000000000000000, 1.251772275568630244 ) ) ;
#42 = VERTEX_POINT ( 'NONE', #128 ) ;
#43 = CARTESIAN_POINT ( 'NONE',  ( 0.000000000000000000, 0.000000000000000000, 3.500000000000000000 ) ) ;
#44 =( CONVERSION_BASED_UNIT ( 'INCH', #253 ) LENGTH_UNIT ( ) NAMED_UNIT ( #192 ) );
#45 = FACE_OUTER_BOUND ( 'NONE', #126, .T. ) ;
#46 = MANIFOLD_SOLID_BREP ( 'Cut-Revolve1', #34 ) ;
#47 = DIRECTION ( 'NONE',  ( -1.224646799147353207E-16, -0.000000000000000000, -1.000000000000000000 ) ) ;
#48 = ADVANCED_FACE ( 'NONE', ( #136 ), #105, .T. ) ;
#49 = DIRECTION ( 'NONE',  ( -0.000000000000000000, -0.000000000000000000, -1.000000000000000000 ) ) ;
#50 = LINE ( 'NONE', #237, #222 ) ;
#51 = DIRECTION ( 'NONE',  ( -1.000000000000000000, 0.000000000000000000, 0.000000000000000000 ) ) ;
#52 = EDGE_CURVE ( 'NONE', #42, #218, #173, .T. ) ;
#53 = VECTOR ( 'NONE', #228, 39.37007874015748143 ) ;
#54 = CONICAL_SURFACE ( 'NONE', #234, 0.2975000000000003197, 0.7853981633974300713 ) ;
#55 = COLOUR_RGB ( '',0.7921568627450980005, 0.8196078431372548767, 0.9333333333333333481 ) ;
#56 = CARTESIAN_POINT ( 'NONE',  ( 0.000000000000000000, 0.000000000000000000, 0.000000000000000000 ) ) ;
#57 = ADVANCED_FACE ( 'NONE', ( #18 ), #242, .T. ) ;
#58 = DIRECTION ( 'NONE',  ( 0.000000000000000000, 0.000000000000000000, 1.000000000000000000 ) ) ;
#59 = ORIENTED_EDGE ( 'NONE', *, *, #214, .F. ) ;
#60 = CARTESIAN_POINT ( 'NONE',  ( 0.000000000000000000, 0.000000000000000000, 3.484999999999999432 ) ) ;
#61 = ORIENTED_EDGE ( 'NONE', *, *, #11, .F. ) ;
#62 = CARTESIAN_POINT ( 'NONE',  ( 0.000000000000000000, 0.000000000000000000, 3.500000000000000000 ) ) ;
#63 = ORIENTED_EDGE ( 'NONE', *, *, #52, .F. ) ;
#64 =( LENGTH_UNIT ( ) NAMED_UNIT ( * ) SI_UNIT ( $, .METRE. ) );
#65 = DIRECTION ( 'NONE',  ( 0.000000000000000000, 0.000000000000000000, -1.000000000000000000 ) ) ;
#66 = SURFACE_SIDE_STYLE ('',( #205 ) ) ;
#67 = CARTESIAN_POINT ( 'NONE',  ( -0.3121874999999998956, 3.823194226088143995E-17, 1.250000000000000000 ) ) ;
#68 = CARTESIAN_POINT ( 'NONE',  ( 1.530808498934191571E-16, 0.000000000000000000, 1.250000000000000000 ) ) ;
#69 = DIRECTION ( 'NONE',  ( -1.224646799147353207E-16, -0.000000000000000000, -1.000000000000000000 ) ) ;
#70 = DIRECTION ( 'NONE',  ( -0.1736481776669311639, 2.126576849575782392E-17, 0.9848077530122080203 ) ) ;
#71 = DIRECTION ( 'NONE',  ( 0.000000000000000000, 0.000000000000000000, 1.000000000000000000 ) ) ;
#72 = FACE_OUTER_BOUND ( 'NONE', #267, .T. ) ;
#73 = AXIS2_PLACEMENT_3D ( 'NONE', #60, #158, #224 ) ;
#74 = DIMENSIONAL_EXPONENTS ( 1.000000000000000000, 0.000000000000000000, 0.000000000000000000, 0.000000000000000000, 0.000000000000000000, 0.000000000000000000, 0.000000000000000000 ) ;
#75 = SURFACE_SIDE_STYLE ('',( #78 ) ) ;
#76 = SHAPE_DEFINITION_REPRESENTATION ( #93, #16 ) ;
#77 = VERTEX_POINT ( 'NONE', #38 ) ;
#78 = SURFACE_STYLE_FILL_AREA ( #264 ) ;
#79 =( NAMED_UNIT ( * ) PLANE_ANGLE_UNIT ( ) SI_UNIT ( $, .RADIAN. ) );
#80 = EDGE_CURVE ( 'NONE', #244, #32, #284, .T. ) ;
#81 = COLOUR_RGB ( '',0.7921568627450980005, 0.8196078431372548767, 0.9333333333333333481 ) ;
#82 = AXIS2_PLACEMENT_3D ( 'NONE', #103, #83, #183 ) ;
#83 = DIRECTION ( 'NONE',  ( 1.224646799147353207E-16, 0.000000000000000000, 1.000000000000000000 ) ) ;
#84 = ORIENTED_EDGE ( 'NONE', *, *, #270, .T. ) ;
#85 = ORIENTED_EDGE ( 'NONE', *, *, #189, .T. ) ;
#86 = VERTEX_POINT ( 'NONE', #178 ) ;
#87 = AXIS2_PLACEMENT_3D ( 'NONE', #43, #279, #212 ) ;
#88 = EDGE_CURVE ( 'NONE', #32, #218, #160, .T. ) ;
#89 = ORIENTED_EDGE ( 'NONE', *, *, #88, .F. ) ;
#90 = SURFACE_STYLE_USAGE ( .BOTH. , #66 ) ;
#91 = CARTESIAN_POINT ( 'NONE',  ( 0.000000000000000000, 0.000000000000000000, 3.500000000000000000 ) ) ;
#92 = ORIENTED_EDGE ( 'NONE', *, *, #80, .T. ) ;
#93 = PRODUCT_DEFINITION_SHAPE ( 'NONE', 'NONE',  #198 ) ;
#94 = PRESENTATION_LAYER_ASSIGNMENT (  '', '', ( #164 ) ) ;
#95 = AXIS2_PLACEMENT_3D ( 'NONE', #262, #69, #142 ) ;
#96 = CARTESIAN_POINT ( 'NONE',  ( 0.3121875000000001732, 0.000000000000000000, 1.250000000000000000 ) ) ;
#97 = FACE_OUTER_BOUND ( 'NONE', #22, .T. ) ;
#98 = DIRECTION ( 'NONE',  ( -0.000000000000000000, -0.000000000000000000, -1.000000000000000000 ) ) ;
#99 = DIRECTION ( 'NONE',  ( -0.7071067811865346942, 0.000000000000000000, -0.7071067811865603403 ) ) ;
#100 = VECTOR ( 'NONE', #203, 39.37007874015748143 ) ;
#101 = EDGE_CURVE ( 'NONE', #297, #86, #143, .T. ) ;
#102 = DIRECTION ( 'NONE',  ( 0.000000000000000000, 0.000000000000000000, 1.000000000000000000 ) ) ;
#103 = CARTESIAN_POINT ( 'NONE',  ( 1.530808498934191571E-16, 0.000000000000000000, 1.250000000000000000 ) ) ;
#104 = AXIS2_PLACEMENT_3D ( 'NONE', #68, #134, #112 ) ;
#105 = CYLINDRICAL_SURFACE ( 'NONE', #117, 0.3125000000000000000 ) ;
#106 = ORIENTED_EDGE ( 'NONE', *, *, #172, .F. ) ;
#107 = CARTESIAN_POINT ( 'NONE',  ( 0.2975000000000003197, 3.735172737399428256E-17, 3.500000000000000000 ) ) ;
#108 = ORIENTED_EDGE ( 'NONE', *, *, #52, .T. ) ;
#109 = PRODUCT_RELATED_PRODUCT_CATEGORY ( 'part', '', ( #135 ) ) ;
#110 = FACE_OUTER_BOUND ( 'NONE', #271, .T. ) ;
#111 = DIRECTION ( 'NONE',  ( -1.224646799147353207E-16, -0.000000000000000000, -1.000000000000000000 ) ) ;
#112 = DIRECTION ( 'NONE',  ( -1.000000000000000000, 0.000000000000000000, 0.000000000000000000 ) ) ;
#113 = AXIS2_PLACEMENT_3D ( 'NONE', #41, #20, #180 ) ;
#114 = CARTESIAN_POINT ( 'NONE',  ( 0.3125000000000000000, 3.827021247335478926E-17, 3.484999999999999432 ) ) ;
#115 = DIRECTION ( 'NONE',  ( -1.224646799147353207E-16, -0.000000000000000000, -1.000000000000000000 ) ) ;
#116 = DIRECTION ( 'NONE',  ( -1.000000000000000000, 0.000000000000000000, 0.000000000000000000 ) ) ;
#117 = AXIS2_PLACEMENT_3D ( 'NONE', #232, #219, #268 ) ;
#118 = ORIENTED_EDGE ( 'NONE', *, *, #140, .T. ) ;
#119 = CONICAL_SURFACE ( 'NONE', #14, 0.2975000000000003197, 0.7853981633974300713 ) ;
#120 =( GEOMETRIC_REPRESENTATION_CONTEXT ( 3 ) GLOBAL_UNCERTAINTY_ASSIGNED_CONTEXT ( ( #285 ) ) GLOBAL_UNIT_ASSIGNED_CONTEXT ( ( #215, #33, #8 ) ) REPRESENTATION_CONTEXT ( 'NONE', 'WORKASPACE' ) );
#121 = ORIENTED_EDGE ( 'NONE', *, *, #238, .T. ) ;
#122 = ORIENTED_EDGE ( 'NONE', *, *, #226, .T. ) ;
#123 = DIRECTION ( 'NONE',  ( -1.224646799147353207E-16, -0.000000000000000000, -1.000000000000000000 ) ) ;
#124 = MECHANICAL_DESIGN_GEOMETRIC_PRESENTATION_REPRESENTATION (  '', ( #164 ), #266 ) ;
#125 = FACE_OUTER_BOUND ( 'NONE', #216, .T. ) ;
#126 = EDGE_LOOP ( 'NONE', ( #108, #12, #106, #36 ) ) ;
#127 = EDGE_CURVE ( 'NONE', #77, #147, #255, .T. ) ;
#128 = CARTESIAN_POINT ( 'NONE',  ( -0.3125000000000000000, 0.000000000000000000, 3.484999999999999432 ) ) ;
#129 = DIRECTION ( 'NONE',  ( -1.000000000000000000, 0.000000000000000000, 1.224646799147353207E-16 ) ) ;
#130 = ORIENTED_EDGE ( 'NONE', *, *, #132, .F. ) ;
#131 = AXIS2_PLACEMENT_3D ( 'NONE', #199, #293, #290 ) ;
#132 = EDGE_CURVE ( 'NONE', #251, #297, #227, .T. ) ;
#133 = CARTESIAN_POINT ( 'NONE',  ( 0.3125000000000000000, 3.827021247335478926E-17, 3.500000000000000000 ) ) ;
#134 = DIRECTION ( 'NONE',  ( -1.224646799147353207E-16, -0.000000000000000000, -1.000000000000000000 ) ) ;
#135 = PRODUCT ( 'Micro_EMH-625-06', 'Micro_EMH-625-06', '', ( #195 ) ) ;
#136 = FACE_OUTER_BOUND ( 'NONE', #184, .T. ) ;
#137 = DIRECTION ( 'NONE',  ( 0.000000000000000000, 0.000000000000000000, -1.000000000000000000 ) ) ;
#138 = CARTESIAN_POINT ( 'NONE',  ( 0.000000000000000000, 0.000000000000000000, 3.500000000000000000 ) ) ;
#139 = DIRECTION ( 'NONE',  ( 1.000000000000000000, 0.000000000000000000, 0.000000000000000000 ) ) ;
#140 = EDGE_CURVE ( 'NONE', #147, #77, #187, .T. ) ;
#141 = DIRECTION ( 'NONE',  ( 0.000000000000000000, 0.000000000000000000, -1.000000000000000000 ) ) ;
#142 = DIRECTION ( 'NONE',  ( -1.000000000000000000, 0.000000000000000000, 1.224646799147353454E-16 ) ) ;
#143 = CIRCLE ( 'NONE', #113, 0.3125000000000000000 ) ;
#144 = ORIENTED_EDGE ( 'NONE', *, *, #256, .F. ) ;
#145 = UNCERTAINTY_MEASURE_WITH_UNIT (LENGTH_MEASURE( 1.000000000000000082E-05 ), #44, 'distance_accuracy_value', 'NONE');
#146 = APPLICATION_CONTEXT ( 'automotive_design' ) ;
#147 = VERTEX_POINT ( 'NONE', #153 ) ;
#148 =( NAMED_UNIT ( * ) SI_UNIT ( $, .STERADIAN. ) SOLID_ANGLE_UNIT ( ) );
#149 = AXIS2_PLACEMENT_3D ( 'NONE', #138, #49, #116 ) ;
#150 = PRESENTATION_LAYER_ASSIGNMENT (  '', '', ( #261 ) ) ;
#151 = ADVANCED_FACE ( 'NONE', ( #125 ), #233, .T. ) ;
#152 = CARTESIAN_POINT ( 'NONE',  ( 0.2975000000000003197, 3.643324227463378817E-17, 3.500000000000000000 ) ) ;
#153 = CARTESIAN_POINT ( 'NONE',  ( -0.3121874999999998956, 0.000000000000000000, 7.646388452176284293E-17 ) ) ;
#154 = EDGE_CURVE ( 'NONE', #244, #42, #166, .T. ) ;
#155 = DIRECTION ( 'NONE',  ( 1.224646799147353207E-16, 0.000000000000000000, 1.000000000000000000 ) ) ;
#156 = CIRCLE ( 'NONE', #104, 0.3121875000000000622 ) ;
#157 = AXIS2_PLACEMENT_3D ( 'NONE', #276, #47, #25 ) ;
#158 = DIRECTION ( 'NONE',  ( 0.000000000000000000, 0.000000000000000000, -1.000000000000000000 ) ) ;
#159 = ORIENTED_EDGE ( 'NONE', *, *, #214, .T. ) ;
#160 = LINE ( 'NONE', #152, #182 ) ;
#161 = EDGE_LOOP ( 'NONE', ( #176, #37, #17, #39 ) ) ;
#162 = CARTESIAN_POINT ( 'NONE',  ( 0.000000000000000000, 0.000000000000000000, 3.484999999999999432 ) ) ;
#163 = LINE ( 'NONE', #280, #21 ) ;
#164 = STYLED_ITEM ( 'NONE', ( #40 ), #46 ) ;
#165 = VECTOR ( 'NONE', #99, 39.37007874015748143 ) ;
#166 = LINE ( 'NONE', #24, #165 ) ;
#167 = CARTESIAN_POINT ( 'NONE',  ( -0.3125000000000000000, 0.000000000000000000, 3.500000000000000000 ) ) ;
#168 = DIRECTION ( 'NONE',  ( -1.000000000000000000, 0.000000000000000000, 0.000000000000000000 ) ) ;
#169 = CARTESIAN_POINT ( 'NONE',  ( 0.000000000000000000, 0.000000000000000000, 0.000000000000000000 ) ) ;
#170 = CYLINDRICAL_SURFACE ( 'NONE', #95, 0.3121874999999999512 ) ;
#171 = CIRCLE ( 'NONE', #196, 0.3125000000000000000 ) ;
#172 = EDGE_CURVE ( 'NONE', #86, #297, #281, .T. ) ;
#173 = CIRCLE ( 'NONE', #73, 0.3125000000000000000 ) ;
#174 = VERTEX_POINT ( 'NONE', #235 ) ;
#175 = ADVANCED_FACE ( 'NONE', ( #97 ), #119, .T. ) ;
#176 = ORIENTED_EDGE ( 'NONE', *, *, #270, .F. ) ;
#177 = PRODUCT_DEFINITION_CONTEXT ( 'detailed design', #292, 'design' ) ;
#178 = CARTESIAN_POINT ( 'NONE',  ( -0.3124999999999998890, 0.000000000000000000, 1.251772275568630244 ) ) ;
#179 = ORIENTED_EDGE ( 'NONE', *, *, #127, .T. ) ;
#180 = DIRECTION ( 'NONE',  ( 1.000000000000000000, 0.000000000000000000, 0.000000000000000000 ) ) ;
#181 = ORIENTED_EDGE ( 'NONE', *, *, #127, .F. ) ;
#182 = VECTOR ( 'NONE', #250, 39.37007874015748143 ) ;
#183 = DIRECTION ( 'NONE',  ( 1.000000000000000000, 0.000000000000000000, 0.000000000000000000 ) ) ;
#184 = EDGE_LOOP ( 'NONE', ( #61, #85, #121, #246 ) ) ;
#185 = DIRECTION ( 'NONE',  ( 0.000000000000000000, 0.000000000000000000, 1.000000000000000000 ) ) ;
#186 = ORIENTED_EDGE ( 'NONE', *, *, #140, .F. ) ;
#187 = CIRCLE ( 'NONE', #131, 0.3121874999999998956 ) ;
#188 = FACE_OUTER_BOUND ( 'NONE', #206, .T. ) ;
#189 = EDGE_CURVE ( 'NONE', #218, #42, #171, .T. ) ;
#190 =( LENGTH_UNIT ( ) NAMED_UNIT ( * ) SI_UNIT ( $, .METRE. ) );
#191 = CARTESIAN_POINT ( 'NONE',  ( 0.000000000000000000, 0.000000000000000000, 0.000000000000000000 ) ) ;
#192 = DIMENSIONAL_EXPONENTS ( 1.000000000000000000, 0.000000000000000000, 0.000000000000000000, 0.000000000000000000, 0.000000000000000000, 0.000000000000000000, 0.000000000000000000 ) ;
#193 = APPLICATION_PROTOCOL_DEFINITION ( 'draft international standard', 'automotive_design', 1998, #292 ) ;
#194 = EDGE_CURVE ( 'NONE', #251, #174, #156, .T. ) ;
#195 = PRODUCT_CONTEXT ( 'NONE', #146, 'mechanical' ) ;
#196 = AXIS2_PLACEMENT_3D ( 'NONE', #162, #137, #139 ) ;
#197 = SURFACE_STYLE_USAGE ( .BOTH. , #75 ) ;
#198 = PRODUCT_DEFINITION ( 'UNKNOWN', '', #282, #177 ) ;
#199 = CARTESIAN_POINT ( 'NONE',  ( 4.682062571497486343E-33, 0.000000000000000000, 3.823194226088142147E-17 ) ) ;
#200 = DIRECTION ( 'NONE',  ( 1.000000000000000000, 0.000000000000000000, 0.000000000000000000 ) ) ;
#201 = ORIENTED_EDGE ( 'NONE', *, *, #256, .T. ) ;
#202 = CARTESIAN_POINT ( 'NONE',  ( 1.530808498934191571E-16, 0.000000000000000000, 1.250000000000000000 ) ) ;
#203 = DIRECTION ( 'NONE',  ( 0.1736481776669313304, 0.000000000000000000, 0.9848077530122077983 ) ) ;
#204 = ADVANCED_FACE ( 'NONE', ( #188 ), #231, .F. ) ;
#205 = SURFACE_STYLE_FILL_AREA ( #294 ) ;
#206 = EDGE_LOOP ( 'NONE', ( #118, #179 ) ) ;
#207 = CARTESIAN_POINT ( 'NONE',  ( 1.530808498934191571E-16, 0.000000000000000000, 1.250000000000000000 ) ) ;
#208 = DIRECTION ( 'NONE',  ( -1.224646799147353207E-16, -0.000000000000000000, -1.000000000000000000 ) ) ;
#209 = ADVANCED_FACE ( 'NONE', ( #110 ), #54, .T. ) ;
#210 = AXIS2_PLACEMENT_3D ( 'NONE', #247, #123, #129 ) ;
#211 = FACE_OUTER_BOUND ( 'NONE', #19, .T. ) ;
#212 = DIRECTION ( 'NONE',  ( 1.000000000000000000, 0.000000000000000000, 0.000000000000000000 ) ) ;
#213 = LINE ( 'NONE', #167, #260 ) ;
#214 = EDGE_CURVE ( 'NONE', #251, #77, #50, .T. ) ;
#215 =( CONVERSION_BASED_UNIT ( 'INCH', #31 ) LENGTH_UNIT ( ) NAMED_UNIT ( #74 ) );
#216 = EDGE_LOOP ( 'NONE', ( #92, #122 ) ) ;
#217 = CIRCLE ( 'NONE', #7, 0.3121875000000000622 ) ;
#218 = VERTEX_POINT ( 'NONE', #114 ) ;
#219 = DIRECTION ( 'NONE',  ( -0.000000000000000000, -0.000000000000000000, -1.000000000000000000 ) ) ;
#220 = CARTESIAN_POINT ( 'NONE',  ( 0.3121875000000001732, 0.000000000000000000, 1.250000000000000000 ) ) ;
#221 =( NAMED_UNIT ( * ) PLANE_ANGLE_UNIT ( ) SI_UNIT ( $, .RADIAN. ) );
#222 = VECTOR ( 'NONE', #115, 39.37007874015748143 ) ;
#223 = LINE ( 'NONE', #133, #53 ) ;
#224 = DIRECTION ( 'NONE',  ( 1.000000000000000000, 0.000000000000000000, 0.000000000000000000 ) ) ;
#225 = ORIENTED_EDGE ( 'NONE', *, *, #172, .T. ) ;
#226 = EDGE_CURVE ( 'NONE', #32, #244, #295, .T. ) ;
#227 = LINE ( 'NONE', #220, #100 ) ;
#228 = DIRECTION ( 'NONE',  ( -0.000000000000000000, -0.000000000000000000, -1.000000000000000000 ) ) ;
#229 = AXIS2_PLACEMENT_3D ( 'NONE', #56, #102, #9 ) ;
#230 = ORIENTED_EDGE ( 'NONE', *, *, #80, .F. ) ;
#231 = PLANE ( 'NONE',  #278 ) ;
#232 = CARTESIAN_POINT ( 'NONE',  ( 0.000000000000000000, 0.000000000000000000, 3.500000000000000000 ) ) ;
#233 = PLANE ( 'NONE',  #289 ) ;
#234 = AXIS2_PLACEMENT_3D ( 'NONE', #28, #141, #168 ) ;
#235 = CARTESIAN_POINT ( 'NONE',  ( -0.3121874999999998956, 3.825107736711810845E-17, 1.250000000000000000 ) ) ;
#236 = DIRECTION ( 'NONE',  ( -1.000000000000000000, 0.000000000000000000, 1.224646799147353454E-16 ) ) ;
#237 = CARTESIAN_POINT ( 'NONE',  ( 0.3121874999999999512, 3.823194226088143379E-17, -3.823194226088143379E-17 ) ) ;
#238 = EDGE_CURVE ( 'NONE', #42, #86, #213, .T. ) ;
#239 = AXIS2_PLACEMENT_3D ( 'NONE', #62, #58, #200 ) ;
#240 = ADVANCED_FACE ( 'NONE', ( #72 ), #170, .T. ) ;
#241 = PRESENTATION_STYLE_ASSIGNMENT (( #197 ) ) ;
#242 = CONICAL_SURFACE ( 'NONE', #82, 0.3121875000000000622, 0.1745329251994338360 ) ;
#243 = AXIS2_PLACEMENT_3D ( 'NONE', #169, #299, #236 ) ;
#244 = VERTEX_POINT ( 'NONE', #274 ) ;
#245 = LENGTH_MEASURE_WITH_UNIT ( LENGTH_MEASURE( 0.02539999999999999897 ), #190 );
#246 = ORIENTED_EDGE ( 'NONE', *, *, #101, .F. ) ;
#247 = CARTESIAN_POINT ( 'NONE',  ( 4.682062571497486343E-33, 0.000000000000000000, 3.823194226088142147E-17 ) ) ;
#248 = ORIENTED_EDGE ( 'NONE', *, *, #189, .F. ) ;
#249 = ORIENTED_EDGE ( 'NONE', *, *, #88, .T. ) ;
#250 = DIRECTION ( 'NONE',  ( 0.7071067811865346942, 8.659560562354773853E-17, -0.7071067811865603403 ) ) ;
#251 = VERTEX_POINT ( 'NONE', #96 ) ;
#252 = DIRECTION ( 'NONE',  ( 1.000000000000000000, 0.000000000000000000, -0.000000000000000000 ) ) ;
#253 = LENGTH_MEASURE_WITH_UNIT ( LENGTH_MEASURE( 0.02539999999999999897 ), #64 );
#254 = CONICAL_SURFACE ( 'NONE', #288, 0.3121875000000000622, 0.1745329251994338360 ) ;
#255 = CIRCLE ( 'NONE', #210, 0.3121874999999998956 ) ;
#256 = EDGE_CURVE ( 'NONE', #174, #147, #163, .T. ) ;
#257 =( NAMED_UNIT ( * ) SI_UNIT ( $, .STERADIAN. ) SOLID_ANGLE_UNIT ( ) );
#258 = DIRECTION ( 'NONE',  ( 1.000000000000000000, 0.000000000000000000, -0.000000000000000000 ) ) ;
#259 = CYLINDRICAL_SURFACE ( 'NONE', #149, 0.3125000000000000000 ) ;
#260 = VECTOR ( 'NONE', #98, 39.37007874015748143 ) ;
#261 = STYLED_ITEM ( 'NONE', ( #241 ), #16 ) ;
#262 = CARTESIAN_POINT ( 'NONE',  ( 0.000000000000000000, 0.000000000000000000, 0.000000000000000000 ) ) ;
#263 = EDGE_CURVE ( 'NONE', #174, #251, #217, .T. ) ;
#264 = FILL_AREA_STYLE ('',( #265 ) ) ;
#265 = FILL_AREA_STYLE_COLOUR ( '', #55 ) ;
#266 =( GEOMETRIC_REPRESENTATION_CONTEXT ( 3 ) GLOBAL_UNCERTAINTY_ASSIGNED_CONTEXT ( ( #145 ) ) GLOBAL_UNIT_ASSIGNED_CONTEXT ( ( #44, #221, #257 ) ) REPRESENTATION_CONTEXT ( 'NONE', 'WORKASPACE' ) );
#267 = EDGE_LOOP ( 'NONE', ( #1, #159, #186, #144 ) ) ;
#268 = DIRECTION ( 'NONE',  ( -1.000000000000000000, 0.000000000000000000, 0.000000000000000000 ) ) ;
#269 = ORIENTED_EDGE ( 'NONE', *, *, #154, .T. ) ;
#270 = EDGE_CURVE ( 'NONE', #174, #86, #29, .T. ) ;
#271 = EDGE_LOOP ( 'NONE', ( #291, #249, #63, #273 ) ) ;
#272 = FACE_OUTER_BOUND ( 'NONE', #10, .T. ) ;
#273 = ORIENTED_EDGE ( 'NONE', *, *, #154, .F. ) ;
#274 = CARTESIAN_POINT ( 'NONE',  ( -0.2975000000000003197, 0.000000000000000000, 3.500000000000000000 ) ) ;
#275 = ADVANCED_FACE ( 'NONE', ( #45 ), #259, .T. ) ;
#276 = CARTESIAN_POINT ( 'NONE',  ( 1.532978910536521817E-16, 0.000000000000000000, 1.251772275568630244 ) ) ;
#277 = DIRECTION ( 'NONE',  ( 1.000000000000000000, 0.000000000000000000, 0.000000000000000000 ) ) ;
#278 = AXIS2_PLACEMENT_3D ( 'NONE', #191, #71, #252 ) ;
#279 = DIRECTION ( 'NONE',  ( 0.000000000000000000, 0.000000000000000000, 1.000000000000000000 ) ) ;
#280 = CARTESIAN_POINT ( 'NONE',  ( -0.3121874999999999512, 0.000000000000000000, 3.823194226088143379E-17 ) ) ;
#281 = CIRCLE ( 'NONE', #157, 0.3125000000000000000 ) ;
#282 = PRODUCT_DEFINITION_FORMATION_WITH_SPECIFIED_SOURCE ( 'ANY', '', #135, .NOT_KNOWN. ) ;
#283 =( CONVERSION_BASED_UNIT ( 'INCH', #245 ) LENGTH_UNIT ( ) NAMED_UNIT ( #3 ) );
#284 = CIRCLE ( 'NONE', #239, 0.2975000000000003197 ) ;
#285 = UNCERTAINTY_MEASURE_WITH_UNIT (LENGTH_MEASURE( 1.000000000000000082E-05 ), #215, 'distance_accuracy_value', 'NONE');
#286 = APPLICATION_PROTOCOL_DEFINITION ( 'draft international standard', 'automotive_design', 1998, #146 ) ;
#287 = UNCERTAINTY_MEASURE_WITH_UNIT (LENGTH_MEASURE( 1.000000000000000082E-05 ), #283, 'distance_accuracy_value', 'NONE');
#288 = AXIS2_PLACEMENT_3D ( 'NONE', #202, #155, #277 ) ;
#289 = AXIS2_PLACEMENT_3D ( 'NONE', #91, #185, #258 ) ;
#290 = DIRECTION ( 'NONE',  ( -1.000000000000000000, 0.000000000000000000, 1.224646799147353207E-16 ) ) ;
#291 = ORIENTED_EDGE ( 'NONE', *, *, #226, .F. ) ;
#292 = APPLICATION_CONTEXT ( 'automotive_design' ) ;
#293 = DIRECTION ( 'NONE',  ( -1.224646799147353207E-16, -0.000000000000000000, -1.000000000000000000 ) ) ;
#294 = FILL_AREA_STYLE ('',( #23 ) ) ;
#295 = CIRCLE ( 'NONE', #87, 0.2975000000000003197 ) ;
#296 = MECHANICAL_DESIGN_GEOMETRIC_PRESENTATION_REPRESENTATION (  '', ( #261 ), #120 ) ;
#297 = VERTEX_POINT ( 'NONE', #26 ) ;
#298 = ADVANCED_FACE ( 'NONE', ( #211 ), #4, .T. ) ;
#299 = DIRECTION ( 'NONE',  ( -1.224646799147353207E-16, -0.000000000000000000, -1.000000000000000000 ) ) ;
ENDSEC;
END-ISO-10303-21;
