ISO-10303-21;
HEADER;
FILE_DESCRIPTION (( 'STEP AP214' ),
    '1' );
FILE_NAME ('Micro_CREM-060-200.STEP',
    '2021-09-02T15:21:59',
    ( '' ),
    ( '' ),
    'SwSTEP 2.0',
    'SolidWorks 2020',
    '' );
FILE_SCHEMA (( 'AUTOMOTIVE_DESIGN' ));
ENDSEC;

DATA;
#1 = CIRCLE ( 'NONE', #69, 0.02952398323758126386 ) ;
#2 = CARTESIAN_POINT ( 'NONE',  ( 8.537024980200822558E-18, 0.0000000000000000000, -5.510910596163092637E-18 ) ) ;
#3 = FACE_BOUND ( 'NONE', #20, .T. ) ;
#4 = AXIS2_PLACEMENT_3D ( 'NONE', #244, #316, #264 ) ;
#5 = EDGE_CURVE ( 'NONE', #248, #201, #18, .T. ) ;
#6 = DIRECTION ( 'NONE',  ( -0.0000000000000000000, -0.0000000000000000000, -1.000000000000000000 ) ) ;
#7 = ORIENTED_EDGE ( 'NONE', *, *, #155, .T. ) ;
#8 =( CONVERSION_BASED_UNIT ( 'INCH', #139 ) LENGTH_UNIT ( ) NAMED_UNIT ( #226 ) );
#9 = VERTEX_POINT ( 'NONE', #129 ) ;
#10 = AXIS2_PLACEMENT_3D ( 'NONE', #46, #326, #228 ) ;
#11 = CARTESIAN_POINT ( 'NONE',  ( 0.1181100000000000344, 1.446430334472939084E-17, 2.244094000000000033 ) ) ;
#12 = UNCERTAINTY_MEASURE_WITH_UNIT (LENGTH_MEASURE( 1.000000000000000082E-05 ), #8, 'distance_accuracy_value', 'NONE');
#13 = CARTESIAN_POINT ( 'NONE',  ( 0.0000000000000000000, 0.0000000000000000000, 2.229093999999999465 ) ) ;
#14 = DIRECTION ( 'NONE',  ( -1.000000000000000000, 0.0000000000000000000, 1.445605787858914658E-16 ) ) ;
#15 = ORIENTED_EDGE ( 'NONE', *, *, #253, .T. ) ;
#16 = AXIS2_PLACEMENT_3D ( 'NONE', #158, #134, #311 ) ;
#17 = LINE ( 'NONE', #322, #177 ) ;
#18 = LINE ( 'NONE', #99, #173 ) ;
#19 = AXIS2_PLACEMENT_3D ( 'NONE', #133, #162, #243 ) ;
#20 = EDGE_LOOP ( 'NONE', ( #227, #146 ) ) ;
#21 = CARTESIAN_POINT ( 'NONE',  ( 0.0000000000000000000, 0.0000000000000000000, 0.0000000000000000000 ) ) ;
#22 = CARTESIAN_POINT ( 'NONE',  ( -0.1082639832375812405, 0.0000000000000000000, 0.08385799879175270810 ) ) ;
#23 = CONICAL_SURFACE ( 'NONE', #127, 0.1031100000000002709, 0.7853981633974318477 ) ;
#24 = PLANE ( 'NONE',  #19 ) ;
#25 = EDGE_LOOP ( 'NONE', ( #168, #246, #285, #72 ) ) ;
#26 = DIRECTION ( 'NONE',  ( -1.250499981774462892E-16, -0.0000000000000000000, -1.000000000000000000 ) ) ;
#27 = ORIENTED_EDGE ( 'NONE', *, *, #302, .F. ) ;
#28 = CARTESIAN_POINT ( 'NONE',  ( 0.0000000000000000000, 0.0000000000000000000, 0.08385799879175277749 ) ) ;
#29 = FACE_OUTER_BOUND ( 'NONE', #269, .T. ) ;
#30 = AXIS2_PLACEMENT_3D ( 'NONE', #292, #235, #256 ) ;
#31 = STYLED_ITEM ( 'NONE', ( #274 ), #208 ) ;
#32 = CARTESIAN_POINT ( 'NONE',  ( 0.0000000000000000000, 0.0000000000000000000, 0.08385799879175277749 ) ) ;
#33 = ORIENTED_EDGE ( 'NONE', *, *, #189, .F. ) ;
#34 = DIRECTION ( 'NONE',  ( 1.000000000000000000, 0.0000000000000000000, 0.0000000000000000000 ) ) ;
#35 = ORIENTED_EDGE ( 'NONE', *, *, #135, .T. ) ;
#36 = ORIENTED_EDGE ( 'NONE', *, *, #135, .F. ) ;
#37 = CIRCLE ( 'NONE', #142, 0.1082639832375812683 ) ;
#38 = CIRCLE ( 'NONE', #325, 0.1181100000000000344 ) ;
#39 = EDGE_LOOP ( 'NONE', ( #123, #195 ) ) ;
#40 =( CONVERSION_BASED_UNIT ( 'INCH', #44 ) LENGTH_UNIT ( ) NAMED_UNIT ( #66 ) );
#41 = CARTESIAN_POINT ( 'NONE',  ( 0.0000000000000000000, 0.0000000000000000000, 0.005117998791752699332 ) ) ;
#42 = VERTEX_POINT ( 'NONE', #176 ) ;
#43 = UNCERTAINTY_MEASURE_WITH_UNIT (LENGTH_MEASURE( 1.000000000000000082E-05 ), #300, 'distance_accuracy_value', 'NONE');
#44 = LENGTH_MEASURE_WITH_UNIT ( LENGTH_MEASURE( 0.02539999999999999897 ), #225 );
#45 =( GEOMETRIC_REPRESENTATION_CONTEXT ( 3 ) GLOBAL_UNCERTAINTY_ASSIGNED_CONTEXT ( ( #43 ) ) GLOBAL_UNIT_ASSIGNED_CONTEXT ( ( #300, #151, #249 ) ) REPRESENTATION_CONTEXT ( 'NONE', 'WORKASPACE' ) );
#46 = CARTESIAN_POINT ( 'NONE',  ( 0.0000000000000000000, 0.0000000000000000000, 2.244094000000000033 ) ) ;
#47 = CARTESIAN_POINT ( 'NONE',  ( -0.02952398323758125345, 0.0000000000000000000, 0.0000000000000000000 ) ) ;
#48 = ADVANCED_FACE ( 'NONE', ( #283 ), #204, .F. ) ;
#49 = CARTESIAN_POINT ( 'NONE',  ( 1.902346757627379015E-17, 0.0000000000000000000, 0.08385799879175269422 ) ) ;
#50 = PRODUCT_DEFINITION_SHAPE ( 'NONE', 'NONE',  #138 ) ;
#51 = CARTESIAN_POINT ( 'NONE',  ( 0.1031100000000002709, 1.354581824536889030E-17, 2.244094000000000033 ) ) ;
#52 = EDGE_CURVE ( 'NONE', #118, #248, #17, .T. ) ;
#53 = DIRECTION ( 'NONE',  ( -1.224646799147353207E-16, 1.000000000000000000, 1.531420800013919374E-32 ) ) ;
#54 = VECTOR ( 'NONE', #57, 39.37007874015748143 ) ;
#55 = PRESENTATION_LAYER_ASSIGNMENT (  '', '', ( #259 ) ) ;
#56 = CARTESIAN_POINT ( 'NONE',  ( 0.0000000000000000000, 0.0000000000000000000, 2.244094000000000033 ) ) ;
#57 = DIRECTION ( 'NONE',  ( -0.0000000000000000000, -0.0000000000000000000, -1.000000000000000000 ) ) ;
#58 = CARTESIAN_POINT ( 'NONE',  ( 1.902346757627379015E-17, 0.0000000000000000000, 0.08385799879175269422 ) ) ;
#59 = CIRCLE ( 'NONE', #152, 0.1031100000000002709 ) ;
#60 = PRODUCT_DEFINITION_FORMATION_WITH_SPECIFIED_SOURCE ( 'ANY', '', #159, .NOT_KNOWN. ) ;
#61 = DIRECTION ( 'NONE',  ( -1.000000000000000000, 0.0000000000000000000, 0.0000000000000000000 ) ) ;
#62 = EDGE_LOOP ( 'NONE', ( #307, #207, #328, #126 ) ) ;
#63 = PRESENTATION_STYLE_ASSIGNMENT (( #213 ) ) ;
#64 = VERTEX_POINT ( 'NONE', #198 ) ;
#65 = EDGE_LOOP ( 'NONE', ( #15, #323, #35, #150 ) ) ;
#66 = DIMENSIONAL_EXPONENTS ( 1.000000000000000000, 0.0000000000000000000, 0.0000000000000000000, 0.0000000000000000000, 0.0000000000000000000, 0.0000000000000000000, 0.0000000000000000000 ) ;
#67 = VECTOR ( 'NONE', #136, 39.37007874015748854 ) ;
#68 = PRODUCT_RELATED_PRODUCT_CATEGORY ( 'part', '', ( #159 ) ) ;
#69 = AXIS2_PLACEMENT_3D ( 'NONE', #141, #240, #188 ) ;
#70 = VERTEX_POINT ( 'NONE', #252 ) ;
#71 = ADVANCED_FACE ( 'NONE', ( #122 ), #223, .T. ) ;
#72 = ORIENTED_EDGE ( 'NONE', *, *, #232, .F. ) ;
#73 = CIRCLE ( 'NONE', #119, 0.1181100000000000344 ) ;
#74 = FACE_OUTER_BOUND ( 'NONE', #298, .T. ) ;
#75 = ORIENTED_EDGE ( 'NONE', *, *, #172, .T. ) ;
#76 = CARTESIAN_POINT ( 'NONE',  ( 0.0000000000000000000, 0.0000000000000000000, 0.005117998791752699332 ) ) ;
#77 = DIRECTION ( 'NONE',  ( -1.250499981774462892E-16, -0.0000000000000000000, -1.000000000000000000 ) ) ;
#78 = DIRECTION ( 'NONE',  ( 0.0000000000000000000, 0.0000000000000000000, -1.000000000000000000 ) ) ;
#79 = CIRCLE ( 'NONE', #30, 0.02952398323758126386 ) ;
#80 = ADVANCED_FACE ( 'NONE', ( #304 ), #320, .T. ) ;
#81 =( NAMED_UNIT ( * ) PLANE_ANGLE_UNIT ( ) SI_UNIT ( $, .RADIAN. ) );
#82 = APPLICATION_CONTEXT ( 'automotive_design' ) ;
#83 = PRODUCT_DEFINITION_CONTEXT ( 'detailed design', #200, 'design' ) ;
#84 = FILL_AREA_STYLE ('',( #109 ) ) ;
#85 = EDGE_LOOP ( 'NONE', ( #202, #92 ) ) ;
#86 = ADVANCED_FACE ( 'NONE', ( #91 ), #103, .T. ) ;
#87 = AXIS2_PLACEMENT_3D ( 'NONE', #76, #182, #183 ) ;
#88 = FACE_OUTER_BOUND ( 'NONE', #25, .T. ) ;
#89 = DIRECTION ( 'NONE',  ( -0.0000000000000000000, -0.0000000000000000000, -1.000000000000000000 ) ) ;
#90 = CARTESIAN_POINT ( 'NONE',  ( 0.0000000000000000000, 0.0000000000000000000, 2.244094000000000033 ) ) ;
#91 = FACE_OUTER_BOUND ( 'NONE', #65, .T. ) ;
#92 = ORIENTED_EDGE ( 'NONE', *, *, #312, .T. ) ;
#93 = LENGTH_MEASURE_WITH_UNIT ( LENGTH_MEASURE( 0.02539999999999999897 ), #319 );
#94 = VERTEX_POINT ( 'NONE', #131 ) ;
#95 = AXIS2_PLACEMENT_3D ( 'NONE', #157, #53, #288 ) ;
#96 = CIRCLE ( 'NONE', #106, 0.1031100000000002709 ) ;
#97 = APPLICATION_PROTOCOL_DEFINITION ( 'draft international standard', 'automotive_design', 1998, #200 ) ;
#98 = EDGE_CURVE ( 'NONE', #64, #239, #147, .T. ) ;
#99 = CARTESIAN_POINT ( 'NONE',  ( -0.1181100000000000344, 0.0000000000000000000, 2.244094000000000033 ) ) ;
#100 = DIRECTION ( 'NONE',  ( 1.000000000000000000, 0.0000000000000000000, 0.0000000000000000000 ) ) ;
#101 = CARTESIAN_POINT ( 'NONE',  ( 0.1031100000000002709, 1.262733314600839129E-17, 2.244094000000000033 ) ) ;
#102 = DIRECTION ( 'NONE',  ( -1.000000000000000000, 0.0000000000000000000, 1.250499981774462892E-16 ) ) ;
#103 = CYLINDRICAL_SURFACE ( 'NONE', #104, 0.02952398323758126386 ) ;
#104 = AXIS2_PLACEMENT_3D ( 'NONE', #2, #77, #257 ) ;
#105 = ADVANCED_FACE ( 'NONE', ( #179 ), #238, .F. ) ;
#106 = AXIS2_PLACEMENT_3D ( 'NONE', #90, #199, #121 ) ;
#107 = DIRECTION ( 'NONE',  ( -1.250499981774462892E-16, -0.0000000000000000000, -1.000000000000000000 ) ) ;
#108 = EDGE_LOOP ( 'NONE', ( #116, #222, #230, #254 ) ) ;
#109 = FILL_AREA_STYLE_COLOUR ( '', #233 ) ;
#110 = ADVANCED_FACE ( 'NONE', ( #29 ), #203, .F. ) ;
#111 = CARTESIAN_POINT ( 'NONE',  ( -0.1082639832375812544, 0.0000000000000000000, 0.08385799879175270810 ) ) ;
#112 = EDGE_LOOP ( 'NONE', ( #278, #265, #229, #27 ) ) ;
#113 =( NAMED_UNIT ( * ) SI_UNIT ( $, .STERADIAN. ) SOLID_ANGLE_UNIT ( ) );
#114 = SURFACE_SIDE_STYLE ('',( #315 ) ) ;
#115 = EDGE_CURVE ( 'NONE', #64, #144, #181, .T. ) ;
#116 = ORIENTED_EDGE ( 'NONE', *, *, #155, .F. ) ;
#117 =( LENGTH_UNIT ( ) NAMED_UNIT ( * ) SI_UNIT ( $, .METRE. ) );
#118 = VERTEX_POINT ( 'NONE', #290 ) ;
#119 = AXIS2_PLACEMENT_3D ( 'NONE', #218, #78, #34 ) ;
#120 = AXIS2_PLACEMENT_3D ( 'NONE', #145, #6, #61 ) ;
#121 = DIRECTION ( 'NONE',  ( 1.000000000000000000, 0.0000000000000000000, 0.0000000000000000000 ) ) ;
#122 = FACE_OUTER_BOUND ( 'NONE', #62, .T. ) ;
#123 = ORIENTED_EDGE ( 'NONE', *, *, #180, .T. ) ;
#124 =( NAMED_UNIT ( * ) PLANE_ANGLE_UNIT ( ) SI_UNIT ( $, .RADIAN. ) );
#125 = ADVANCED_FACE ( 'NONE', ( #74 ), #23, .T. ) ;
#126 = ORIENTED_EDGE ( 'NONE', *, *, #5, .F. ) ;
#127 = AXIS2_PLACEMENT_3D ( 'NONE', #261, #313, #286 ) ;
#128 = FILL_AREA_STYLE ('',( #154 ) ) ;
#129 = CARTESIAN_POINT ( 'NONE',  ( 0.1082639832375812960, 1.325851405348466160E-17, 0.08385799879175268035 ) ) ;
#130 = DIRECTION ( 'NONE',  ( -0.7071067811865358044, 0.0000000000000000000, -0.7071067811865590080 ) ) ;
#131 = CARTESIAN_POINT ( 'NONE',  ( 0.02952398323758127080, 3.615645156998400008E-18, 0.0000000000000000000 ) ) ;
#132 = PRESENTATION_LAYER_ASSIGNMENT (  '', '', ( #31 ) ) ;
#133 = CARTESIAN_POINT ( 'NONE',  ( 0.0000000000000000000, 0.0000000000000000000, 2.244094000000000033 ) ) ;
#134 = DIRECTION ( 'NONE',  ( 0.0000000000000000000, -1.000000000000000000, 0.0000000000000000000 ) ) ;
#135 = EDGE_CURVE ( 'NONE', #94, #144, #79, .T. ) ;
#136 = DIRECTION ( 'NONE',  ( 0.7071067811865358044, 8.659560562354788645E-17, -0.7071067811865590080 ) ) ;
#137 = VECTOR ( 'NONE', #178, 39.37007874015748143 ) ;
#138 = PRODUCT_DEFINITION ( 'UNKNOWN', '', #60, #83 ) ;
#139 = LENGTH_MEASURE_WITH_UNIT ( LENGTH_MEASURE( 0.02539999999999999897 ), #117 );
#140 = ORIENTED_EDGE ( 'NONE', *, *, #169, .T. ) ;
#141 = CARTESIAN_POINT ( 'NONE',  ( 8.537024980200822558E-18, 0.0000000000000000000, 0.0000000000000000000 ) ) ;
#142 = AXIS2_PLACEMENT_3D ( 'NONE', #49, #107, #260 ) ;
#143 = DIRECTION ( 'NONE',  ( -1.250499981774462892E-16, -0.0000000000000000000, -1.000000000000000000 ) ) ;
#144 = VERTEX_POINT ( 'NONE', #47 ) ;
#145 = CARTESIAN_POINT ( 'NONE',  ( 0.0000000000000000000, 0.0000000000000000000, 2.244094000000000033 ) ) ;
#146 = ORIENTED_EDGE ( 'NONE', *, *, #169, .F. ) ;
#147 = CIRCLE ( 'NONE', #16, 0.07874000000000000443 ) ;
#148 = MECHANICAL_DESIGN_GEOMETRIC_PRESENTATION_REPRESENTATION (  '', ( #259 ), #216 ) ;
#149 = SURFACE_STYLE_USAGE ( .BOTH. , #247 ) ;
#150 = ORIENTED_EDGE ( 'NONE', *, *, #115, .F. ) ;
#151 =( NAMED_UNIT ( * ) PLANE_ANGLE_UNIT ( ) SI_UNIT ( $, .RADIAN. ) );
#152 = AXIS2_PLACEMENT_3D ( 'NONE', #56, #164, #317 ) ;
#153 = AXIS2_PLACEMENT_3D ( 'NONE', #58, #143, #220 ) ;
#154 = FILL_AREA_STYLE_COLOUR ( '', #275 ) ;
#155 = EDGE_CURVE ( 'NONE', #262, #9, #197, .T. ) ;
#156 = DIRECTION ( 'NONE',  ( -1.250499981774462892E-16, -0.0000000000000000000, -1.000000000000000000 ) ) ;
#157 = CARTESIAN_POINT ( 'NONE',  ( 0.1082639832375812544, 1.325851405348465852E-17, 0.005117998791752685454 ) ) ;
#158 = CARTESIAN_POINT ( 'NONE',  ( -0.1082639832375812544, 0.0000000000000000000, 0.005117998791752713210 ) ) ;
#159 = PRODUCT ( 'Micro_CREM-060-200', 'Micro_CREM-060-200', '', ( #282 ) ) ;
#160 = DIRECTION ( 'NONE',  ( -1.250499981774462892E-16, 0.0000000000000000000, -1.000000000000000000 ) ) ;
#161 = LINE ( 'NONE', #101, #67 ) ;
#162 = DIRECTION ( 'NONE',  ( 0.0000000000000000000, 0.0000000000000000000, 1.000000000000000000 ) ) ;
#163 = CLOSED_SHELL ( 'NONE', ( #48, #86, #125, #71, #295, #194, #308, #184, #80, #105, #110 ) ) ;
#164 = DIRECTION ( 'NONE',  ( 0.0000000000000000000, 0.0000000000000000000, 1.000000000000000000 ) ) ;
#165 = VERTEX_POINT ( 'NONE', #51 ) ;
#166 = DIRECTION ( 'NONE',  ( 0.0000000000000000000, 0.0000000000000000000, -1.000000000000000000 ) ) ;
#167 = CYLINDRICAL_SURFACE ( 'NONE', #120, 0.1181100000000000344 ) ;
#168 = ORIENTED_EDGE ( 'NONE', *, *, #172, .F. ) ;
#169 = EDGE_CURVE ( 'NONE', #9, #239, #37, .T. ) ;
#170 = DIRECTION ( 'NONE',  ( -1.000000000000000000, 0.0000000000000000000, 1.084333486377355109E-16 ) ) ;
#171 = ORIENTED_EDGE ( 'NONE', *, *, #277, .T. ) ;
#172 = EDGE_CURVE ( 'NONE', #165, #42, #161, .T. ) ;
#173 = VECTOR ( 'NONE', #89, 39.37007874015748143 ) ;
#174 =( GEOMETRIC_REPRESENTATION_CONTEXT ( 3 ) GLOBAL_UNCERTAINTY_ASSIGNED_CONTEXT ( ( #192 ) ) GLOBAL_UNIT_ASSIGNED_CONTEXT ( ( #40, #124, #321 ) ) REPRESENTATION_CONTEXT ( 'NONE', 'WORKASPACE' ) );
#175 = APPLICATION_PROTOCOL_DEFINITION ( 'draft international standard', 'automotive_design', 1998, #82 ) ;
#176 = CARTESIAN_POINT ( 'NONE',  ( 0.1181100000000000344, 1.446430334472939084E-17, 2.229093999999999465 ) ) ;
#177 = VECTOR ( 'NONE', #130, 39.37007874015748854 ) ;
#178 = DIRECTION ( 'NONE',  ( -1.250499981774462892E-16, -0.0000000000000000000, -1.000000000000000000 ) ) ;
#179 = FACE_OUTER_BOUND ( 'NONE', #108, .T. ) ;
#180 = EDGE_CURVE ( 'NONE', #201, #70, #258, .T. ) ;
#181 = LINE ( 'NONE', #309, #137 ) ;
#182 = DIRECTION ( 'NONE',  ( -1.250499981774462892E-16, -0.0000000000000000000, -1.000000000000000000 ) ) ;
#183 = DIRECTION ( 'NONE',  ( -1.000000000000000000, 0.0000000000000000000, 1.250499981774462892E-16 ) ) ;
#184 = ADVANCED_FACE ( 'NONE', ( #3, #206 ), #212, .T. ) ;
#185 = CARTESIAN_POINT ( 'NONE',  ( 9.177030719781672087E-18, 0.0000000000000000000, 0.005117998791752715812 ) ) ;
#186 = CIRCLE ( 'NONE', #4, 0.02952398323758126386 ) ;
#187 = AXIS2_PLACEMENT_3D ( 'NONE', #185, #294, #170 ) ;
#188 = DIRECTION ( 'NONE',  ( 1.000000000000000000, 0.0000000000000000000, 0.0000000000000000000 ) ) ;
#189 = EDGE_CURVE ( 'NONE', #262, #94, #236, .T. ) ;
#190 = FACE_OUTER_BOUND ( 'NONE', #112, .T. ) ;
#191 = ORIENTED_EDGE ( 'NONE', *, *, #52, .F. ) ;
#192 = UNCERTAINTY_MEASURE_WITH_UNIT (LENGTH_MEASURE( 1.000000000000000082E-05 ), #40, 'distance_accuracy_value', 'NONE');
#193 = CARTESIAN_POINT ( 'NONE',  ( 0.0000000000000000000, 0.0000000000000000000, 2.244094000000000033 ) ) ;
#194 = ADVANCED_FACE ( 'NONE', ( #209 ), #24, .T. ) ;
#195 = ORIENTED_EDGE ( 'NONE', *, *, #302, .T. ) ;
#196 = SHAPE_DEFINITION_REPRESENTATION ( #50, #208 ) ;
#197 = CIRCLE ( 'NONE', #95, 0.07874000000000000443 ) ;
#198 = CARTESIAN_POINT ( 'NONE',  ( -0.02952398323758125345, 0.0000000000000000000, 0.005117998791752718414 ) ) ;
#199 = DIRECTION ( 'NONE',  ( 0.0000000000000000000, 0.0000000000000000000, 1.000000000000000000 ) ) ;
#200 = APPLICATION_CONTEXT ( 'automotive_design' ) ;
#201 = VERTEX_POINT ( 'NONE', #270 ) ;
#202 = ORIENTED_EDGE ( 'NONE', *, *, #250, .T. ) ;
#203 = PLANE ( 'NONE',  #324 ) ;
#204 = TOROIDAL_SURFACE ( 'NONE', #242, 0.1082639832375812544, 0.07874000000000000443 ) ;
#205 = CIRCLE ( 'NONE', #153, 0.1082639832375812683 ) ;
#206 = FACE_OUTER_BOUND ( 'NONE', #39, .T. ) ;
#207 = ORIENTED_EDGE ( 'NONE', *, *, #214, .T. ) ;
#208 = ADVANCED_BREP_SHAPE_REPRESENTATION ( 'Micro_CREM-060-200', ( #263, #284 ), #45 ) ;
#209 = FACE_OUTER_BOUND ( 'NONE', #85, .T. ) ;
#210 = AXIS2_PLACEMENT_3D ( 'NONE', #13, #166, #215 ) ;
#211 = MECHANICAL_DESIGN_GEOMETRIC_PRESENTATION_REPRESENTATION (  '', ( #31 ), #174 ) ;
#212 = PLANE ( 'NONE',  #221 ) ;
#213 = SURFACE_STYLE_USAGE ( .BOTH. , #114 ) ;
#214 = EDGE_CURVE ( 'NONE', #42, #70, #296, .T. ) ;
#215 = DIRECTION ( 'NONE',  ( 1.000000000000000000, 0.0000000000000000000, 0.0000000000000000000 ) ) ;
#216 =( GEOMETRIC_REPRESENTATION_CONTEXT ( 3 ) GLOBAL_UNCERTAINTY_ASSIGNED_CONTEXT ( ( #12 ) ) GLOBAL_UNIT_ASSIGNED_CONTEXT ( ( #8, #81, #113 ) ) REPRESENTATION_CONTEXT ( 'NONE', 'WORKASPACE' ) );
#217 = ORIENTED_EDGE ( 'NONE', *, *, #277, .F. ) ;
#218 = CARTESIAN_POINT ( 'NONE',  ( 0.0000000000000000000, 0.0000000000000000000, 2.229093999999999465 ) ) ;
#219 = EDGE_CURVE ( 'NONE', #248, #42, #297, .T. ) ;
#220 = DIRECTION ( 'NONE',  ( -1.000000000000000000, 0.0000000000000000000, 1.577075722674389449E-16 ) ) ;
#221 = AXIS2_PLACEMENT_3D ( 'NONE', #22, #160, #102 ) ;
#222 = ORIENTED_EDGE ( 'NONE', *, *, #253, .F. ) ;
#223 = CYLINDRICAL_SURFACE ( 'NONE', #10, 0.1181100000000000344 ) ;
#224 = DIRECTION ( 'NONE',  ( -1.250499981774462892E-16, -0.0000000000000000000, -1.000000000000000000 ) ) ;
#225 =( LENGTH_UNIT ( ) NAMED_UNIT ( * ) SI_UNIT ( $, .METRE. ) );
#226 = DIMENSIONAL_EXPONENTS ( 1.000000000000000000, 0.0000000000000000000, 0.0000000000000000000, 0.0000000000000000000, 0.0000000000000000000, 0.0000000000000000000, 0.0000000000000000000 ) ;
#227 = ORIENTED_EDGE ( 'NONE', *, *, #303, .F. ) ;
#228 = DIRECTION ( 'NONE',  ( -1.000000000000000000, 0.0000000000000000000, 0.0000000000000000000 ) ) ;
#229 = ORIENTED_EDGE ( 'NONE', *, *, #5, .T. ) ;
#230 = ORIENTED_EDGE ( 'NONE', *, *, #98, .T. ) ;
#231 = CARTESIAN_POINT ( 'NONE',  ( 0.0000000000000000000, 0.0000000000000000000, 0.0000000000000000000 ) ) ;
#232 = EDGE_CURVE ( 'NONE', #42, #248, #73, .T. ) ;
#233 = COLOUR_RGB ( '',0.7921568627450980005, 0.8196078431372548767, 0.9333333333333333481 ) ;
#234 = CONICAL_SURFACE ( 'NONE', #268, 0.1031100000000002709, 0.7853981633974318477 ) ;
#235 = DIRECTION ( 'NONE',  ( 0.0000000000000000000, 0.0000000000000000000, 1.000000000000000000 ) ) ;
#236 = LINE ( 'NONE', #310, #330 ) ;
#237 = DIRECTION ( 'NONE',  ( -1.000000000000000000, 0.0000000000000000000, 1.445605787858914658E-16 ) ) ;
#238 = TOROIDAL_SURFACE ( 'NONE', #87, 0.1082639832375812544, 0.07874000000000000443 ) ;
#239 = VERTEX_POINT ( 'NONE', #111 ) ;
#240 = DIRECTION ( 'NONE',  ( 0.0000000000000000000, 0.0000000000000000000, 1.000000000000000000 ) ) ;
#241 = EDGE_LOOP ( 'NONE', ( #217, #7, #140, #251 ) ) ;
#242 = AXIS2_PLACEMENT_3D ( 'NONE', #41, #224, #305 ) ;
#243 = DIRECTION ( 'NONE',  ( 1.000000000000000000, 0.0000000000000000000, -0.0000000000000000000 ) ) ;
#244 = CARTESIAN_POINT ( 'NONE',  ( 9.177030719781672087E-18, 0.0000000000000000000, 0.005117998791752715812 ) ) ;
#245 = DIRECTION ( 'NONE',  ( -1.250499981774462892E-16, -0.0000000000000000000, -1.000000000000000000 ) ) ;
#246 = ORIENTED_EDGE ( 'NONE', *, *, #250, .F. ) ;
#247 = SURFACE_SIDE_STYLE ('',( #279 ) ) ;
#248 = VERTEX_POINT ( 'NONE', #267 ) ;
#249 =( NAMED_UNIT ( * ) SI_UNIT ( $, .STERADIAN. ) SOLID_ANGLE_UNIT ( ) );
#250 = EDGE_CURVE ( 'NONE', #118, #165, #59, .T. ) ;
#251 = ORIENTED_EDGE ( 'NONE', *, *, #98, .F. ) ;
#252 = CARTESIAN_POINT ( 'NONE',  ( 0.1181100000000000344, 1.446430334472939084E-17, 0.08385799879175276361 ) ) ;
#253 = EDGE_CURVE ( 'NONE', #64, #262, #186, .T. ) ;
#254 = ORIENTED_EDGE ( 'NONE', *, *, #303, .T. ) ;
#255 = DIRECTION ( 'NONE',  ( -1.000000000000000000, 0.0000000000000000000, 1.250499981774462892E-16 ) ) ;
#256 = DIRECTION ( 'NONE',  ( 1.000000000000000000, 0.0000000000000000000, 0.0000000000000000000 ) ) ;
#257 = DIRECTION ( 'NONE',  ( -1.000000000000000000, 0.0000000000000000000, 1.250499981774462892E-16 ) ) ;
#258 = CIRCLE ( 'NONE', #314, 0.1181100000000000344 ) ;
#259 = STYLED_ITEM ( 'NONE', ( #63 ), #263 ) ;
#260 = DIRECTION ( 'NONE',  ( -1.000000000000000000, 0.0000000000000000000, 1.577075722674389449E-16 ) ) ;
#261 = CARTESIAN_POINT ( 'NONE',  ( 0.0000000000000000000, 0.0000000000000000000, 2.244094000000000033 ) ) ;
#262 = VERTEX_POINT ( 'NONE', #266 ) ;
#263 = MANIFOLD_SOLID_BREP ( 'Cut-Revolve1', #163 ) ;
#264 = DIRECTION ( 'NONE',  ( -1.000000000000000000, 0.0000000000000000000, 1.084333486377355109E-16 ) ) ;
#265 = ORIENTED_EDGE ( 'NONE', *, *, #232, .T. ) ;
#266 = CARTESIAN_POINT ( 'NONE',  ( 0.02952398323758127080, 3.615645156998400008E-18, 0.005117998791752712343 ) ) ;
#267 = CARTESIAN_POINT ( 'NONE',  ( -0.1181100000000000344, 0.0000000000000000000, 2.229093999999999465 ) ) ;
#268 = AXIS2_PLACEMENT_3D ( 'NONE', #193, #299, #271 ) ;
#269 = EDGE_LOOP ( 'NONE', ( #318, #36 ) ) ;
#270 = CARTESIAN_POINT ( 'NONE',  ( -0.1181100000000000344, 0.0000000000000000000, 0.08385799879175280525 ) ) ;
#271 = DIRECTION ( 'NONE',  ( -1.000000000000000000, 0.0000000000000000000, 0.0000000000000000000 ) ) ;
#272 = ORIENTED_EDGE ( 'NONE', *, *, #291, .T. ) ;
#273 = ORIENTED_EDGE ( 'NONE', *, *, #312, .F. ) ;
#274 = PRESENTATION_STYLE_ASSIGNMENT (( #149 ) ) ;
#275 = COLOUR_RGB ( '',0.7921568627450980005, 0.8196078431372548767, 0.9333333333333333481 ) ;
#276 = ORIENTED_EDGE ( 'NONE', *, *, #219, .F. ) ;
#277 = EDGE_CURVE ( 'NONE', #262, #64, #293, .T. ) ;
#278 = ORIENTED_EDGE ( 'NONE', *, *, #214, .F. ) ;
#279 = SURFACE_STYLE_FILL_AREA ( #128 ) ;
#280 = DIMENSIONAL_EXPONENTS ( 1.000000000000000000, 0.0000000000000000000, 0.0000000000000000000, 0.0000000000000000000, 0.0000000000000000000, 0.0000000000000000000, 0.0000000000000000000 ) ;
#281 = CARTESIAN_POINT ( 'NONE',  ( 8.537024980200822558E-18, 0.0000000000000000000, -5.510910596163092637E-18 ) ) ;
#282 = PRODUCT_CONTEXT ( 'NONE', #82, 'mechanical' ) ;
#283 = FACE_OUTER_BOUND ( 'NONE', #241, .T. ) ;
#284 = AXIS2_PLACEMENT_3D ( 'NONE', #21, #327, #100 ) ;
#285 = ORIENTED_EDGE ( 'NONE', *, *, #52, .T. ) ;
#286 = DIRECTION ( 'NONE',  ( -1.000000000000000000, 0.0000000000000000000, 0.0000000000000000000 ) ) ;
#287 = DIRECTION ( 'NONE',  ( -1.250499981774462892E-16, -0.0000000000000000000, -1.000000000000000000 ) ) ;
#288 = DIRECTION ( 'NONE',  ( -1.000000000000000000, -1.224646799147352961E-16, 0.0000000000000000000 ) ) ;
#289 = AXIS2_PLACEMENT_3D ( 'NONE', #281, #156, #255 ) ;
#290 = CARTESIAN_POINT ( 'NONE',  ( -0.1031100000000002709, 0.0000000000000000000, 2.244094000000000033 ) ) ;
#291 = EDGE_CURVE ( 'NONE', #144, #94, #1, .T. ) ;
#292 = CARTESIAN_POINT ( 'NONE',  ( 8.537024980200822558E-18, 0.0000000000000000000, 0.0000000000000000000 ) ) ;
#293 = CIRCLE ( 'NONE', #187, 0.02952398323758126386 ) ;
#294 = DIRECTION ( 'NONE',  ( -1.250499981774462892E-16, -0.0000000000000000000, -1.000000000000000000 ) ) ;
#295 = ADVANCED_FACE ( 'NONE', ( #190 ), #167, .T. ) ;
#296 = LINE ( 'NONE', #11, #54 ) ;
#297 = CIRCLE ( 'NONE', #210, 0.1181100000000000344 ) ;
#298 = EDGE_LOOP ( 'NONE', ( #273, #75, #276, #191 ) ) ;
#299 = DIRECTION ( 'NONE',  ( 0.0000000000000000000, 0.0000000000000000000, -1.000000000000000000 ) ) ;
#300 =( CONVERSION_BASED_UNIT ( 'INCH', #93 ) LENGTH_UNIT ( ) NAMED_UNIT ( #280 ) );
#301 = EDGE_LOOP ( 'NONE', ( #33, #171, #306, #272 ) ) ;
#302 = EDGE_CURVE ( 'NONE', #70, #201, #38, .T. ) ;
#303 = EDGE_CURVE ( 'NONE', #239, #9, #205, .T. ) ;
#304 = FACE_OUTER_BOUND ( 'NONE', #301, .T. ) ;
#305 = DIRECTION ( 'NONE',  ( -1.000000000000000000, 0.0000000000000000000, 1.250499981774462892E-16 ) ) ;
#306 = ORIENTED_EDGE ( 'NONE', *, *, #115, .T. ) ;
#307 = ORIENTED_EDGE ( 'NONE', *, *, #219, .T. ) ;
#308 = ADVANCED_FACE ( 'NONE', ( #88 ), #234, .T. ) ;
#309 = CARTESIAN_POINT ( 'NONE',  ( -0.02952398323758125345, 0.0000000000000000000, -1.818936546112600652E-18 ) ) ;
#310 = CARTESIAN_POINT ( 'NONE',  ( 0.02952398323758127080, 3.615645156998400008E-18, -9.202884646213584237E-18 ) ) ;
#311 = DIRECTION ( 'NONE',  ( 0.0000000000000000000, 0.0000000000000000000, -1.000000000000000000 ) ) ;
#312 = EDGE_CURVE ( 'NONE', #165, #118, #96, .T. ) ;
#313 = DIRECTION ( 'NONE',  ( 0.0000000000000000000, 0.0000000000000000000, -1.000000000000000000 ) ) ;
#314 = AXIS2_PLACEMENT_3D ( 'NONE', #28, #26, #237 ) ;
#315 = SURFACE_STYLE_FILL_AREA ( #84 ) ;
#316 = DIRECTION ( 'NONE',  ( -1.250499981774462892E-16, -0.0000000000000000000, -1.000000000000000000 ) ) ;
#317 = DIRECTION ( 'NONE',  ( 1.000000000000000000, 0.0000000000000000000, 0.0000000000000000000 ) ) ;
#318 = ORIENTED_EDGE ( 'NONE', *, *, #291, .F. ) ;
#319 =( LENGTH_UNIT ( ) NAMED_UNIT ( * ) SI_UNIT ( $, .METRE. ) );
#320 = CYLINDRICAL_SURFACE ( 'NONE', #289, 0.02952398323758126386 ) ;
#321 =( NAMED_UNIT ( * ) SI_UNIT ( $, .STERADIAN. ) SOLID_ANGLE_UNIT ( ) );
#322 = CARTESIAN_POINT ( 'NONE',  ( -0.1031100000000002709, 0.0000000000000000000, 2.244094000000000033 ) ) ;
#323 = ORIENTED_EDGE ( 'NONE', *, *, #189, .T. ) ;
#324 = AXIS2_PLACEMENT_3D ( 'NONE', #231, #331, #329 ) ;
#325 = AXIS2_PLACEMENT_3D ( 'NONE', #32, #245, #14 ) ;
#326 = DIRECTION ( 'NONE',  ( -0.0000000000000000000, -0.0000000000000000000, -1.000000000000000000 ) ) ;
#327 = DIRECTION ( 'NONE',  ( 0.0000000000000000000, 0.0000000000000000000, 1.000000000000000000 ) ) ;
#328 = ORIENTED_EDGE ( 'NONE', *, *, #180, .F. ) ;
#329 = DIRECTION ( 'NONE',  ( 1.000000000000000000, 0.0000000000000000000, -0.0000000000000000000 ) ) ;
#330 = VECTOR ( 'NONE', #287, 39.37007874015748143 ) ;
#331 = DIRECTION ( 'NONE',  ( 0.0000000000000000000, 0.0000000000000000000, 1.000000000000000000 ) ) ;
ENDSEC;
END-ISO-10303-21;
