ISO-10303-21;
HEADER;
FILE_DESCRIPTION (( 'STEP AP214' ),
    '1' );
FILE_NAME ('83764.STEP',
    '2023-07-05T19:24:13',
    ( '' ),
    ( '' ),
    'SwSTEP 2.0',
    'SolidWorks 2023',
    '' );
FILE_SCHEMA (( 'AUTOMOTIVE_DESIGN' ));
ENDSEC;

DATA;
#1 = DIRECTION ( 'NONE',  ( 0.000000000000000000, 0.000000000000000000, -1.000000000000000000 ) ) ;
#2 = MECHANICAL_DESIGN_GEOMETRIC_PRESENTATION_REPRESENTATION (  '', ( #29 ), #71 ) ;
#3 = LINE ( 'NONE', #193, #306 ) ;
#4 = EDGE_CURVE ( 'NONE', #134, #195, #57, .T. ) ;
#5 =( NAMED_UNIT ( * ) PLANE_ANGLE_UNIT ( ) SI_UNIT ( $, .RADIAN. ) );
#6 = CARTESIAN_POINT ( 'NONE',  ( 9.390727478220904197E-17, 0.7500000000000001110, 0.000000000000000000 ) ) ;
#7 = VECTOR ( 'NONE', #89, 39.37007874015748143 ) ;
#8 = CIRCLE ( 'NONE', #54, 0.1250000000000000000 ) ;
#9 = CARTESIAN_POINT ( 'NONE',  ( 0.000000000000000000, 0.1048874538971596021, 0.000000000000000000 ) ) ;
#10 = DIMENSIONAL_EXPONENTS ( 1.000000000000000000, 0.000000000000000000, 0.000000000000000000, 0.000000000000000000, 0.000000000000000000, 0.000000000000000000, 0.000000000000000000 ) ;
#11 = DIRECTION ( 'NONE',  ( -0.000000000000000000, -1.000000000000000000, -0.000000000000000000 ) ) ;
#12 = PRESENTATION_STYLE_ASSIGNMENT (( #204 ) ) ;
#13 = CARTESIAN_POINT ( 'NONE',  ( 0.000000000000000000, 0.7500000000000001110, -0.1250000000000000000 ) ) ;
#14 = FACE_OUTER_BOUND ( 'NONE', #300, .T. ) ;
#15 = MECHANICAL_DESIGN_GEOMETRIC_PRESENTATION_REPRESENTATION (  '', ( #104 ), #129 ) ;
#16 = PRODUCT_DEFINITION_CONTEXT ( 'detailed design', #33, 'design' ) ;
#17 = LINE ( 'NONE', #226, #83 ) ;
#18 = ORIENTED_EDGE ( 'NONE', *, *, #4, .F. ) ;
#19 =( NAMED_UNIT ( * ) PLANE_ANGLE_UNIT ( ) SI_UNIT ( $, .RADIAN. ) );
#20 = PLANE ( 'NONE',  #307 ) ;
#21 = FILL_AREA_STYLE_COLOUR ( '', #114 ) ;
#22 =( GEOMETRIC_REPRESENTATION_CONTEXT ( 3 ) GLOBAL_UNCERTAINTY_ASSIGNED_CONTEXT ( ( #288 ) ) GLOBAL_UNIT_ASSIGNED_CONTEXT ( ( #93, #261, #283 ) ) REPRESENTATION_CONTEXT ( 'NONE', 'WORKASPACE' ) );
#23 = SURFACE_STYLE_FILL_AREA ( #67 ) ;
#24 = SURFACE_SIDE_STYLE ('',( #23 ) ) ;
#25 = PRESENTATION_LAYER_ASSIGNMENT (  '', '', ( #104 ) ) ;
#26 = PRESENTATION_LAYER_ASSIGNMENT (  '', '', ( #180 ) ) ;
#27 = SURFACE_STYLE_USAGE ( .BOTH. , #131 ) ;
#28 = EDGE_LOOP ( 'NONE', ( #162, #344, #53, #230 ) ) ;
#29 = STYLED_ITEM ( 'NONE', ( #108 ), #218 ) ;
#30 = ORIENTED_EDGE ( 'NONE', *, *, #271, .T. ) ;
#31 = DIMENSIONAL_EXPONENTS ( 1.000000000000000000, 0.000000000000000000, 0.000000000000000000, 0.000000000000000000, 0.000000000000000000, 0.000000000000000000, 0.000000000000000000 ) ;
#32 = CARTESIAN_POINT ( 'NONE',  ( 1.530808498934191201E-17, 0.000000000000000000, 0.1249999999999999861 ) ) ;
#33 = APPLICATION_CONTEXT ( 'automotive_design' ) ;
#34 = PRODUCT_DEFINITION_FORMATION_WITH_SPECIFIED_SOURCE ( 'ANY', '', #338, .NOT_KNOWN. ) ;
#35 = DIRECTION ( 'NONE',  ( -1.236411169696824577E-16, 1.000000000000000000, -0.000000000000000000 ) ) ;
#36 = EDGE_LOOP ( 'NONE', ( #18, #262 ) ) ;
#37 = UNCERTAINTY_MEASURE_WITH_UNIT (LENGTH_MEASURE( 1.000000000000000082E-05 ), #252, 'distance_accuracy_value', 'NONE');
#38 = SURFACE_STYLE_USAGE ( .BOTH. , #257 ) ;
#39 =( NAMED_UNIT ( * ) PLANE_ANGLE_UNIT ( ) SI_UNIT ( $, .RADIAN. ) );
#40 = EDGE_CURVE ( 'NONE', #118, #341, #319, .T. ) ;
#41 = PRODUCT_DEFINITION_SHAPE ( 'NONE', 'NONE',  #206 ) ;
#42 = AXIS2_PLACEMENT_3D ( 'NONE', #326, #325, #161 ) ;
#43 = LINE ( 'NONE', #178, #126 ) ;
#44 = UNCERTAINTY_MEASURE_WITH_UNIT (LENGTH_MEASURE( 1.000000000000000082E-05 ), #346, 'distance_accuracy_value', 'NONE');
#45 =( CONVERSION_BASED_UNIT ( 'INCH', #266 ) LENGTH_UNIT ( ) NAMED_UNIT ( #10 ) );
#46 = PRODUCT_CONTEXT ( 'NONE', #113, 'mechanical' ) ;
#47 = DIRECTION ( 'NONE',  ( 0.000000000000000000, 1.000000000000000000, 0.000000000000000000 ) ) ;
#48 = CLOSED_SHELL ( 'NONE', ( #311, #302, #246, #112 ) ) ;
#49 = CARTESIAN_POINT ( 'NONE',  ( 1.530808498934191817E-17, 0.7500000000000001110, 0.1250000000000000278 ) ) ;
#50 = CYLINDRICAL_SURFACE ( 'NONE', #141, 0.1249999999999999861 ) ;
#51 = CIRCLE ( 'NONE', #124, 0.1249999999999999584 ) ;
#52 = DIRECTION ( 'NONE',  ( 0.000000000000000000, 0.000000000000000000, -1.000000000000000000 ) ) ;
#53 = ORIENTED_EDGE ( 'NONE', *, *, #40, .F. ) ;
#54 = AXIS2_PLACEMENT_3D ( 'NONE', #223, #55, #102 ) ;
#55 = DIRECTION ( 'NONE',  ( -0.000000000000000000, -1.000000000000000000, -0.000000000000000000 ) ) ;
#56 =( GEOMETRIC_REPRESENTATION_CONTEXT ( 3 ) GLOBAL_UNCERTAINTY_ASSIGNED_CONTEXT ( ( #44 ) ) GLOBAL_UNIT_ASSIGNED_CONTEXT ( ( #346, #237, #122 ) ) REPRESENTATION_CONTEXT ( 'NONE', 'WORKASPACE' ) );
#57 = CIRCLE ( 'NONE', #203, 0.1249999999999999029 ) ;
#58 = EDGE_LOOP ( 'NONE', ( #80, #138, #333 ) ) ;
#59 = CARTESIAN_POINT ( 'NONE',  ( -1.224646799147352961E-16, 2.500000000000000000, 0.000000000000000000 ) ) ;
#60 = VERTEX_POINT ( 'NONE', #61 ) ;
#61 = CARTESIAN_POINT ( 'NONE',  ( 0.000000000000000000, 0.000000000000000000, 0.000000000000000000 ) ) ;
#62 =( NAMED_UNIT ( * ) SI_UNIT ( $, .STERADIAN. ) SOLID_ANGLE_UNIT ( ) );
#63 = DIRECTION ( 'NONE',  ( 9.381338752702743107E-17, 0.6427876096865380307, -0.7660444431189791237 ) ) ;
#64 = EDGE_CURVE ( 'NONE', #60, #146, #313, .T. ) ;
#65 = DIRECTION ( 'NONE',  ( -1.000000000000000000, 0.000000000000000000, 0.000000000000000000 ) ) ;
#66 = CARTESIAN_POINT ( 'NONE',  ( 0.000000000000000000, 0.000000000000000000, 0.000000000000000000 ) ) ;
#67 = FILL_AREA_STYLE ('',( #213 ) ) ;
#68 = APPLICATION_PROTOCOL_DEFINITION ( 'draft international standard', 'automotive_design', 1998, #33 ) ;
#69 = DIRECTION ( 'NONE',  ( 0.000000000000000000, 0.000000000000000000, 1.000000000000000000 ) ) ;
#70 =( GEOMETRIC_REPRESENTATION_CONTEXT ( 3 ) GLOBAL_UNCERTAINTY_ASSIGNED_CONTEXT ( ( #173 ) ) GLOBAL_UNIT_ASSIGNED_CONTEXT ( ( #148, #5, #133 ) ) REPRESENTATION_CONTEXT ( 'NONE', 'WORKASPACE' ) );
#71 =( GEOMETRIC_REPRESENTATION_CONTEXT ( 3 ) GLOBAL_UNCERTAINTY_ASSIGNED_CONTEXT ( ( #37 ) ) GLOBAL_UNIT_ASSIGNED_CONTEXT ( ( #252, #304, #247 ) ) REPRESENTATION_CONTEXT ( 'NONE', 'WORKASPACE' ) );
#72 =( CONVERSION_BASED_UNIT ( 'INCH', #182 ) LENGTH_UNIT ( ) NAMED_UNIT ( #240 ) );
#73 = DIRECTION ( 'NONE',  ( 1.000000000000000000, 1.236411169696824577E-16, 0.000000000000000000 ) ) ;
#74 = CARTESIAN_POINT ( 'NONE',  ( 0.000000000000000000, 0.000000000000000000, 0.000000000000000000 ) ) ;
#75 = PRESENTATION_LAYER_ASSIGNMENT (  '', '', ( #318 ) ) ;
#76 = DIRECTION ( 'NONE',  ( -1.236411169696824577E-16, 1.000000000000000000, -0.000000000000000000 ) ) ;
#77 = AXIS2_PLACEMENT_3D ( 'NONE', #238, #94, #205 ) ;
#78 = EDGE_CURVE ( 'NONE', #341, #118, #249, .T. ) ;
#79 = PLANE ( 'NONE',  #42 ) ;
#80 = ORIENTED_EDGE ( 'NONE', *, *, #64, .F. ) ;
#81 = DIRECTION ( 'NONE',  ( -0.000000000000000000, -1.000000000000000000, -0.000000000000000000 ) ) ;
#82 = DIMENSIONAL_EXPONENTS ( 1.000000000000000000, 0.000000000000000000, 0.000000000000000000, 0.000000000000000000, 0.000000000000000000, 0.000000000000000000, 0.000000000000000000 ) ;
#83 = VECTOR ( 'NONE', #137, 39.37007874015748143 ) ;
#84 = AXIS2_PLACEMENT_3D ( 'NONE', #175, #287, #260 ) ;
#85 =( CONVERSION_BASED_UNIT ( 'INCH', #312 ) LENGTH_UNIT ( ) NAMED_UNIT ( #31 ) );
#86 = ORIENTED_EDGE ( 'NONE', *, *, #100, .F. ) ;
#87 = SURFACE_STYLE_FILL_AREA ( #229 ) ;
#88 = CARTESIAN_POINT ( 'NONE',  ( -1.224646799147352961E-16, 2.500000000000000000, 0.000000000000000000 ) ) ;
#89 = DIRECTION ( 'NONE',  ( -0.000000000000000000, -1.000000000000000000, -0.000000000000000000 ) ) ;
#90 = ORIENTED_EDGE ( 'NONE', *, *, #235, .T. ) ;
#91 = EDGE_CURVE ( 'NONE', #195, #341, #43, .T. ) ;
#92 = PRESENTATION_LAYER_ASSIGNMENT (  '', '', ( #351 ) ) ;
#93 =( CONVERSION_BASED_UNIT ( 'INCH', #169 ) LENGTH_UNIT ( ) NAMED_UNIT ( #236 ) );
#94 = DIRECTION ( 'NONE',  ( -0.000000000000000000, -1.000000000000000000, -0.000000000000000000 ) ) ;
#95 = VERTEX_POINT ( 'NONE', #13 ) ;
#96 = FILL_AREA_STYLE_COLOUR ( '', #166 ) ;
#97 = CLOSED_SHELL ( 'NONE', ( #128, #170, #218, #248, #336 ) ) ;
#98 = LENGTH_MEASURE_WITH_UNIT ( LENGTH_MEASURE( 0.02539999999999999897 ), #239 );
#99 = LENGTH_MEASURE_WITH_UNIT ( LENGTH_MEASURE( 0.02539999999999999897 ), #321 );
#100 = EDGE_CURVE ( 'NONE', #95, #136, #154, .T. ) ;
#101 = PRODUCT_RELATED_PRODUCT_CATEGORY ( 'part', '', ( #338 ) ) ;
#102 = DIRECTION ( 'NONE',  ( 0.000000000000000000, 0.000000000000000000, -1.000000000000000000 ) ) ;
#103 = EDGE_LOOP ( 'NONE', ( #140, #30, #227, #224 ) ) ;
#104 = STYLED_ITEM ( 'NONE', ( #295 ), #336 ) ;
#105 = FILL_AREA_STYLE_COLOUR ( '', #164 ) ;
#106 = AXIS2_PLACEMENT_3D ( 'NONE', #88, #147, #316 ) ;
#107 = DIRECTION ( 'NONE',  ( -1.000000000000000000, 0.000000000000000000, 0.000000000000000000 ) ) ;
#108 = PRESENTATION_STYLE_ASSIGNMENT (( #27 ) ) ;
#109 = ORIENTED_EDGE ( 'NONE', *, *, #149, .T. ) ;
#110 = DIRECTION ( 'NONE',  ( 0.000000000000000000, 0.000000000000000000, -1.000000000000000000 ) ) ;
#111 = ORIENTED_EDGE ( 'NONE', *, *, #345, .F. ) ;
#112 = ADVANCED_FACE ( 'NONE', ( #290 ), #20, .F. ) ;
#113 = APPLICATION_CONTEXT ( 'automotive_design' ) ;
#114 = COLOUR_RGB ( '',0.7921568627450980005, 0.8196078431372548767, 0.9333333333333333481 ) ;
#115 = MECHANICAL_DESIGN_GEOMETRIC_PRESENTATION_REPRESENTATION (  '', ( #318 ), #22 ) ;
#116 = MECHANICAL_DESIGN_GEOMETRIC_PRESENTATION_REPRESENTATION (  '', ( #180 ), #70 ) ;
#117 =( NAMED_UNIT ( * ) SI_UNIT ( $, .STERADIAN. ) SOLID_ANGLE_UNIT ( ) );
#118 = VERTEX_POINT ( 'NONE', #349 ) ;
#119 = CARTESIAN_POINT ( 'NONE',  ( 0.000000000000000000, 39.37007874015748143, 0.000000000000000000 ) ) ;
#120 = CARTESIAN_POINT ( 'NONE',  ( 0.1250000000000000000, 2.500000000000000000, 0.000000000000000000 ) ) ;
#121 = SURFACE_STYLE_FILL_AREA ( #350 ) ;
#122 =( NAMED_UNIT ( * ) SI_UNIT ( $, .STERADIAN. ) SOLID_ANGLE_UNIT ( ) );
#123 = SURFACE_STYLE_USAGE ( .BOTH. , #264 ) ;
#124 = AXIS2_PLACEMENT_3D ( 'NONE', #9, #11, #110 ) ;
#125 = UNCERTAINTY_MEASURE_WITH_UNIT (LENGTH_MEASURE( 1.000000000000000082E-05 ), #210, 'distance_accuracy_value', 'NONE');
#126 = VECTOR ( 'NONE', #263, 39.37007874015748143 ) ;
#127 = FACE_OUTER_BOUND ( 'NONE', #103, .T. ) ;
#128 = ADVANCED_FACE ( 'NONE', ( #14 ), #292, .T. ) ;
#129 =( GEOMETRIC_REPRESENTATION_CONTEXT ( 3 ) GLOBAL_UNCERTAINTY_ASSIGNED_CONTEXT ( ( #259 ) ) GLOBAL_UNIT_ASSIGNED_CONTEXT ( ( #45, #19, #117 ) ) REPRESENTATION_CONTEXT ( 'NONE', 'WORKASPACE' ) );
#130 = PRESENTATION_LAYER_ASSIGNMENT (  '', '', ( #186 ) ) ;
#131 = SURFACE_SIDE_STYLE ('',( #250 ) ) ;
#132 = ORIENTED_EDGE ( 'NONE', *, *, #78, .T. ) ;
#133 =( NAMED_UNIT ( * ) SI_UNIT ( $, .STERADIAN. ) SOLID_ANGLE_UNIT ( ) );
#134 = VERTEX_POINT ( 'NONE', #150 ) ;
#135 =( LENGTH_UNIT ( ) NAMED_UNIT ( * ) SI_UNIT ( $, .METRE. ) );
#136 = VERTEX_POINT ( 'NONE', #49 ) ;
#137 = DIRECTION ( 'NONE',  ( -1.236411169696824577E-16, 1.000000000000000000, -0.000000000000000000 ) ) ;
#138 = ORIENTED_EDGE ( 'NONE', *, *, #345, .T. ) ;
#139 = DIRECTION ( 'NONE',  ( -1.000000000000000000, 0.000000000000000000, 0.000000000000000000 ) ) ;
#140 = ORIENTED_EDGE ( 'NONE', *, *, #100, .T. ) ;
#141 = AXIS2_PLACEMENT_3D ( 'NONE', #308, #234, #256 ) ;
#142 = AXIS2_PLACEMENT_3D ( 'NONE', #119, #47, #69 ) ;
#143 = SURFACE_STYLE_FILL_AREA ( #284 ) ;
#144 = EDGE_LOOP ( 'NONE', ( #253, #109, #201, #194 ) ) ;
#145 = FACE_OUTER_BOUND ( 'NONE', #36, .T. ) ;
#146 = VERTEX_POINT ( 'NONE', #265 ) ;
#147 = DIRECTION ( 'NONE',  ( -1.236411169696824577E-16, 1.000000000000000000, -0.000000000000000000 ) ) ;
#148 =( CONVERSION_BASED_UNIT ( 'INCH', #215 ) LENGTH_UNIT ( ) NAMED_UNIT ( #198 ) );
#149 = EDGE_CURVE ( 'NONE', #195, #134, #285, .T. ) ;
#150 = CARTESIAN_POINT ( 'NONE',  ( -0.1249999999999997918, 0.7499999999999998890, 0.000000000000000000 ) ) ;
#151 = MANIFOLD_SOLID_BREP ( 'Revolve - Cutting Edge', #97 ) ;
#152 = CARTESIAN_POINT ( 'NONE',  ( 0.1249999999999999861, 2.500000000000000000, 1.530808498934192125E-17 ) ) ;
#153 = COLOUR_RGB ( '',1.000000000000000000, 0.000000000000000000, 0.000000000000000000 ) ;
#154 = CIRCLE ( 'NONE', #77, 0.1250000000000000000 ) ;
#155 =( LENGTH_UNIT ( ) NAMED_UNIT ( * ) SI_UNIT ( $, .METRE. ) );
#156 = CARTESIAN_POINT ( 'NONE',  ( 0.000000000000000000, 0.000000000000000000, 0.000000000000000000 ) ) ;
#157 = CYLINDRICAL_SURFACE ( 'NONE', #211, 0.1249999999999999861 ) ;
#158 = CARTESIAN_POINT ( 'NONE',  ( 0.1249999999999999584, 0.7499999999999998890, 1.530808498934192125E-17 ) ) ;
#159 = CARTESIAN_POINT ( 'NONE',  ( -1.224646799147352961E-16, 2.500000000000000000, 0.000000000000000000 ) ) ;
#160 = FILL_AREA_STYLE ('',( #105 ) ) ;
#161 = DIRECTION ( 'NONE',  ( 0.000000000000000000, -0.000000000000000000, 1.000000000000000000 ) ) ;
#162 = ORIENTED_EDGE ( 'NONE', *, *, #4, .T. ) ;
#163 = AXIS2_PLACEMENT_3D ( 'NONE', #6, #171, #286 ) ;
#164 = COLOUR_RGB ( '',1.000000000000000000, 0.000000000000000000, 0.000000000000000000 ) ;
#165 = SURFACE_STYLE_USAGE ( .BOTH. , #276 ) ;
#166 = COLOUR_RGB ( '',1.000000000000000000, 0.000000000000000000, 0.000000000000000000 ) ;
#167 = VERTEX_POINT ( 'NONE', #244 ) ;
#168 = SURFACE_SIDE_STYLE ('',( #317 ) ) ;
#169 = LENGTH_MEASURE_WITH_UNIT ( LENGTH_MEASURE( 0.02539999999999999897 ), #135 );
#170 = ADVANCED_FACE ( 'NONE', ( #127 ), #157, .T. ) ;
#171 = DIRECTION ( 'NONE',  ( -1.236411169696824577E-16, 1.000000000000000000, 0.000000000000000000 ) ) ;
#172 = COLOUR_RGB ( '',1.000000000000000000, 0.000000000000000000, 0.000000000000000000 ) ;
#173 = UNCERTAINTY_MEASURE_WITH_UNIT (LENGTH_MEASURE( 1.000000000000000082E-05 ), #148, 'distance_accuracy_value', 'NONE');
#174 = CARTESIAN_POINT ( 'NONE',  ( 0.000000000000000000, 39.37007874015748143, 0.000000000000000000 ) ) ;
#175 = CARTESIAN_POINT ( 'NONE',  ( -1.224646799147352961E-16, 2.500000000000000000, 0.000000000000000000 ) ) ;
#176 =( LENGTH_UNIT ( ) NAMED_UNIT ( * ) SI_UNIT ( $, .METRE. ) );
#177 = DIMENSIONAL_EXPONENTS ( 1.000000000000000000, 0.000000000000000000, 0.000000000000000000, 0.000000000000000000, 0.000000000000000000, 0.000000000000000000, 0.000000000000000000 ) ;
#178 = CARTESIAN_POINT ( 'NONE',  ( 0.1249999999999998751, 2.500000000000000000, 1.530808498934191509E-17 ) ) ;
#179 = PRESENTATION_LAYER_ASSIGNMENT (  '', '', ( #29 ) ) ;
#180 = STYLED_ITEM ( 'NONE', ( #291 ), #170 ) ;
#181 = CARTESIAN_POINT ( 'NONE',  ( 0.000000000000000000, 0.000000000000000000, 0.000000000000000000 ) ) ;
#182 = LENGTH_MEASURE_WITH_UNIT ( LENGTH_MEASURE( 0.02539999999999999897 ), #187 );
#183 = EDGE_CURVE ( 'NONE', #136, #95, #8, .T. ) ;
#184 = PRESENTATION_STYLE_ASSIGNMENT (( #123 ) ) ;
#185 = AXIS2_PLACEMENT_3D ( 'NONE', #272, #225, #52 ) ;
#186 = STYLED_ITEM ( 'NONE', ( #184 ), #151 ) ;
#187 =( LENGTH_UNIT ( ) NAMED_UNIT ( * ) SI_UNIT ( $, .METRE. ) );
#188 = FILL_AREA_STYLE_COLOUR ( '', #172 ) ;
#189 = SURFACE_STYLE_FILL_AREA ( #160 ) ;
#190 = CONICAL_SURFACE ( 'NONE', #273, 46.91943277929976119, 0.8726646259971664321 ) ;
#191 =( GEOMETRIC_REPRESENTATION_CONTEXT ( 3 ) GLOBAL_UNCERTAINTY_ASSIGNED_CONTEXT ( ( #320 ) ) GLOBAL_UNIT_ASSIGNED_CONTEXT ( ( #72, #298, #294 ) ) REPRESENTATION_CONTEXT ( 'NONE', 'WORKASPACE' ) );
#192 = FACE_OUTER_BOUND ( 'NONE', #278, .T. ) ;
#193 = CARTESIAN_POINT ( 'NONE',  ( 0.000000000000000000, 0.000000000000000000, -0.1249999999999999861 ) ) ;
#194 = ORIENTED_EDGE ( 'NONE', *, *, #78, .F. ) ;
#195 = VERTEX_POINT ( 'NONE', #158 ) ;
#196 =( GEOMETRIC_REPRESENTATION_CONTEXT ( 3 ) GLOBAL_UNCERTAINTY_ASSIGNED_CONTEXT ( ( #125 ) ) GLOBAL_UNIT_ASSIGNED_CONTEXT ( ( #210, #267, #348 ) ) REPRESENTATION_CONTEXT ( 'NONE', 'WORKASPACE' ) );
#197 = FACE_OUTER_BOUND ( 'NONE', #28, .T. ) ;
#198 = DIMENSIONAL_EXPONENTS ( 1.000000000000000000, 0.000000000000000000, 0.000000000000000000, 0.000000000000000000, 0.000000000000000000, 0.000000000000000000, 0.000000000000000000 ) ;
#199 = SURFACE_SIDE_STYLE ('',( #87 ) ) ;
#200 = ORIENTED_EDGE ( 'NONE', *, *, #40, .T. ) ;
#201 = ORIENTED_EDGE ( 'NONE', *, *, #275, .T. ) ;
#202 = STYLED_ITEM ( 'NONE', ( #12 ), #274 ) ;
#203 = AXIS2_PLACEMENT_3D ( 'NONE', #207, #335, #65 ) ;
#204 = SURFACE_STYLE_USAGE ( .BOTH. , #199 ) ;
#205 = DIRECTION ( 'NONE',  ( 0.000000000000000000, 0.000000000000000000, -1.000000000000000000 ) ) ;
#206 = PRODUCT_DEFINITION ( 'UNKNOWN', '', #34, #16 ) ;
#207 = CARTESIAN_POINT ( 'NONE',  ( 9.390727478220904197E-17, 0.7499999999999998890, 0.000000000000000000 ) ) ;
#208 = FILL_AREA_STYLE ('',( #96 ) ) ;
#209 = DIRECTION ( 'NONE',  ( 0.000000000000000000, 0.6427876096865380307, 0.7660444431189791237 ) ) ;
#210 =( CONVERSION_BASED_UNIT ( 'INCH', #99 ) LENGTH_UNIT ( ) NAMED_UNIT ( #334 ) );
#211 = AXIS2_PLACEMENT_3D ( 'NONE', #74, #81, #1 ) ;
#212 = DIRECTION ( 'NONE',  ( 1.000000000000000000, 0.000000000000000000, 0.000000000000000000 ) ) ;
#213 = FILL_AREA_STYLE_COLOUR ( '', #280 ) ;
#214 = EDGE_CURVE ( 'NONE', #146, #167, #329, .T. ) ;
#215 = LENGTH_MEASURE_WITH_UNIT ( LENGTH_MEASURE( 0.02539999999999999897 ), #155 );
#216 = VECTOR ( 'NONE', #209, 39.37007874015748143 ) ;
#217 = DIRECTION ( 'NONE',  ( -1.236411169696824577E-16, 1.000000000000000000, -0.000000000000000000 ) ) ;
#218 = ADVANCED_FACE ( 'NONE', ( #220 ), #79, .T. ) ;
#219 = FILL_AREA_STYLE ('',( #188 ) ) ;
#220 = FACE_OUTER_BOUND ( 'NONE', #258, .T. ) ;
#221 = PRESENTATION_LAYER_ASSIGNMENT (  '', '', ( #202 ) ) ;
#222 = MECHANICAL_DESIGN_GEOMETRIC_PRESENTATION_REPRESENTATION (  '', ( #351 ), #191 ) ;
#223 = CARTESIAN_POINT ( 'NONE',  ( 0.000000000000000000, 0.7500000000000001110, 0.000000000000000000 ) ) ;
#224 = ORIENTED_EDGE ( 'NONE', *, *, #235, .F. ) ;
#225 = DIRECTION ( 'NONE',  ( -0.000000000000000000, -1.000000000000000000, -0.000000000000000000 ) ) ;
#226 = CARTESIAN_POINT ( 'NONE',  ( -0.1250000000000001110, 2.500000000000000000, 0.000000000000000000 ) ) ;
#227 = ORIENTED_EDGE ( 'NONE', *, *, #214, .F. ) ;
#228 = MECHANICAL_DESIGN_GEOMETRIC_PRESENTATION_REPRESENTATION (  '', ( #202 ), #255 ) ;
#229 = FILL_AREA_STYLE ('',( #332 ) ) ;
#230 = ORIENTED_EDGE ( 'NONE', *, *, #275, .F. ) ;
#231 = FACE_OUTER_BOUND ( 'NONE', #58, .T. ) ;
#232 = ORIENTED_EDGE ( 'NONE', *, *, #271, .F. ) ;
#233 = ORIENTED_EDGE ( 'NONE', *, *, #324, .F. ) ;
#234 = DIRECTION ( 'NONE',  ( -0.000000000000000000, -1.000000000000000000, -0.000000000000000000 ) ) ;
#235 = EDGE_CURVE ( 'NONE', #95, #146, #3, .T. ) ;
#236 = DIMENSIONAL_EXPONENTS ( 1.000000000000000000, 0.000000000000000000, 0.000000000000000000, 0.000000000000000000, 0.000000000000000000, 0.000000000000000000, 0.000000000000000000 ) ;
#237 =( NAMED_UNIT ( * ) PLANE_ANGLE_UNIT ( ) SI_UNIT ( $, .RADIAN. ) );
#238 = CARTESIAN_POINT ( 'NONE',  ( 0.000000000000000000, 0.7500000000000001110, 0.000000000000000000 ) ) ;
#239 =( LENGTH_UNIT ( ) NAMED_UNIT ( * ) SI_UNIT ( $, .METRE. ) );
#240 = DIMENSIONAL_EXPONENTS ( 1.000000000000000000, 0.000000000000000000, 0.000000000000000000, 0.000000000000000000, 0.000000000000000000, 0.000000000000000000, 0.000000000000000000 ) ;
#241 = DIRECTION ( 'NONE',  ( 1.236411169696824577E-16, -1.000000000000000000, 0.000000000000000000 ) ) ;
#242 =( LENGTH_UNIT ( ) NAMED_UNIT ( * ) SI_UNIT ( $, .METRE. ) );
#243 = PRESENTATION_STYLE_ASSIGNMENT (( #282 ) ) ;
#244 = CARTESIAN_POINT ( 'NONE',  ( 1.530808498934191201E-17, 0.1048874538971596021, 0.1249999999999999584 ) ) ;
#245 = AXIS2_PLACEMENT_3D ( 'NONE', #156, #297, #212 ) ;
#246 = ADVANCED_FACE ( 'NONE', ( #331 ), #299, .T. ) ;
#247 =( NAMED_UNIT ( * ) SI_UNIT ( $, .STERADIAN. ) SOLID_ANGLE_UNIT ( ) );
#248 = ADVANCED_FACE ( 'NONE', ( #192 ), #50, .T. ) ;
#249 = CIRCLE ( 'NONE', #84, 0.1250000000000001110 ) ;
#250 = SURFACE_STYLE_FILL_AREA ( #219 ) ;
#251 = ORIENTED_EDGE ( 'NONE', *, *, #214, .T. ) ;
#252 =( CONVERSION_BASED_UNIT ( 'INCH', #303 ) LENGTH_UNIT ( ) NAMED_UNIT ( #82 ) );
#253 = ORIENTED_EDGE ( 'NONE', *, *, #91, .F. ) ;
#254 = PLANE ( 'NONE',  #163 ) ;
#255 =( GEOMETRIC_REPRESENTATION_CONTEXT ( 3 ) GLOBAL_UNCERTAINTY_ASSIGNED_CONTEXT ( ( #339 ) ) GLOBAL_UNIT_ASSIGNED_CONTEXT ( ( #85, #39, #62 ) ) REPRESENTATION_CONTEXT ( 'NONE', 'WORKASPACE' ) );
#256 = DIRECTION ( 'NONE',  ( 0.000000000000000000, 0.000000000000000000, -1.000000000000000000 ) ) ;
#257 = SURFACE_SIDE_STYLE ('',( #143 ) ) ;
#258 = EDGE_LOOP ( 'NONE', ( #86, #281 ) ) ;
#259 = UNCERTAINTY_MEASURE_WITH_UNIT (LENGTH_MEASURE( 1.000000000000000082E-05 ), #45, 'distance_accuracy_value', 'NONE');
#260 = DIRECTION ( 'NONE',  ( -1.000000000000000000, 0.000000000000000000, 0.000000000000000000 ) ) ;
#261 =( NAMED_UNIT ( * ) PLANE_ANGLE_UNIT ( ) SI_UNIT ( $, .RADIAN. ) );
#262 = ORIENTED_EDGE ( 'NONE', *, *, #149, .F. ) ;
#263 = DIRECTION ( 'NONE',  ( -1.236411169696824577E-16, 1.000000000000000000, -0.000000000000000000 ) ) ;
#264 = SURFACE_SIDE_STYLE ('',( #121 ) ) ;
#265 = CARTESIAN_POINT ( 'NONE',  ( 0.000000000000000000, 0.1048874538971596021, -0.1249999999999999584 ) ) ;
#266 = LENGTH_MEASURE_WITH_UNIT ( LENGTH_MEASURE( 0.02539999999999999897 ), #242 );
#267 =( NAMED_UNIT ( * ) PLANE_ANGLE_UNIT ( ) SI_UNIT ( $, .RADIAN. ) );
#268 = SHAPE_DEFINITION_REPRESENTATION ( #41, #315 ) ;
#269 = DIRECTION ( 'NONE',  ( 0.000000000000000000, 0.000000000000000000, 1.000000000000000000 ) ) ;
#270 = CARTESIAN_POINT ( 'NONE',  ( 9.390727478220904197E-17, 0.7499999999999998890, 0.000000000000000000 ) ) ;
#271 = EDGE_CURVE ( 'NONE', #136, #167, #340, .T. ) ;
#272 = CARTESIAN_POINT ( 'NONE',  ( 0.000000000000000000, 0.1048874538971596021, 0.000000000000000000 ) ) ;
#273 = AXIS2_PLACEMENT_3D ( 'NONE', #174, #343, #269 ) ;
#274 = MANIFOLD_SOLID_BREP ( 'Revolve - Tool Body (Straight Shanked)', #48 ) ;
#275 = EDGE_CURVE ( 'NONE', #134, #118, #17, .T. ) ;
#276 = SURFACE_SIDE_STYLE ('',( #189 ) ) ;
#277 = PRESENTATION_STYLE_ASSIGNMENT (( #165 ) ) ;
#278 = EDGE_LOOP ( 'NONE', ( #232, #347, #90, #233 ) ) ;
#279 = AXIS2_PLACEMENT_3D ( 'NONE', #159, #76, #107 ) ;
#280 = COLOUR_RGB ( '',1.000000000000000000, 0.000000000000000000, 0.000000000000000000 ) ;
#281 = ORIENTED_EDGE ( 'NONE', *, *, #183, .F. ) ;
#282 = SURFACE_STYLE_USAGE ( .BOTH. , #168 ) ;
#283 =( NAMED_UNIT ( * ) SI_UNIT ( $, .STERADIAN. ) SOLID_ANGLE_UNIT ( ) );
#284 = FILL_AREA_STYLE ('',( #310 ) ) ;
#285 = CIRCLE ( 'NONE', #342, 0.1249999999999999029 ) ;
#286 = DIRECTION ( 'NONE',  ( -1.000000000000000000, -1.236411169696824577E-16, 0.000000000000000000 ) ) ;
#287 = DIRECTION ( 'NONE',  ( -1.236411169696824577E-16, 1.000000000000000000, -0.000000000000000000 ) ) ;
#288 = UNCERTAINTY_MEASURE_WITH_UNIT (LENGTH_MEASURE( 1.000000000000000082E-05 ), #93, 'distance_accuracy_value', 'NONE');
#289 = AXIS2_PLACEMENT_3D ( 'NONE', #59, #35, #139 ) ;
#290 = FACE_OUTER_BOUND ( 'NONE', #328, .T. ) ;
#291 = PRESENTATION_STYLE_ASSIGNMENT (( #323 ) ) ;
#292 = CONICAL_SURFACE ( 'NONE', #142, 46.91943277929976119, 0.8726646259971664321 ) ;
#293 = LINE ( 'NONE', #181, #216 ) ;
#294 =( NAMED_UNIT ( * ) SI_UNIT ( $, .STERADIAN. ) SOLID_ANGLE_UNIT ( ) );
#295 = PRESENTATION_STYLE_ASSIGNMENT (( #38 ) ) ;
#296 = DIRECTION ( 'NONE',  ( -1.000000000000000000, 0.000000000000000000, 0.000000000000000000 ) ) ;
#297 = DIRECTION ( 'NONE',  ( 0.000000000000000000, 0.000000000000000000, 1.000000000000000000 ) ) ;
#298 =( NAMED_UNIT ( * ) PLANE_ANGLE_UNIT ( ) SI_UNIT ( $, .RADIAN. ) );
#299 = CYLINDRICAL_SURFACE ( 'NONE', #279, 0.1250000000000000000 ) ;
#300 = EDGE_LOOP ( 'NONE', ( #111, #337, #251 ) ) ;
#301 = COLOUR_RGB ( '',0.7921568627450980005, 0.8196078431372548767, 0.9333333333333333481 ) ;
#302 = ADVANCED_FACE ( 'NONE', ( #145 ), #254, .F. ) ;
#303 = LENGTH_MEASURE_WITH_UNIT ( LENGTH_MEASURE( 0.02539999999999999897 ), #305 );
#304 =( NAMED_UNIT ( * ) PLANE_ANGLE_UNIT ( ) SI_UNIT ( $, .RADIAN. ) );
#305 =( LENGTH_UNIT ( ) NAMED_UNIT ( * ) SI_UNIT ( $, .METRE. ) );
#306 = VECTOR ( 'NONE', #327, 39.37007874015748143 ) ;
#307 = AXIS2_PLACEMENT_3D ( 'NONE', #120, #241, #73 ) ;
#308 = CARTESIAN_POINT ( 'NONE',  ( 0.000000000000000000, 0.000000000000000000, 0.000000000000000000 ) ) ;
#309 = CYLINDRICAL_SURFACE ( 'NONE', #289, 0.1250000000000000000 ) ;
#310 = FILL_AREA_STYLE_COLOUR ( '', #153 ) ;
#311 = ADVANCED_FACE ( 'NONE', ( #197 ), #309, .T. ) ;
#312 = LENGTH_MEASURE_WITH_UNIT ( LENGTH_MEASURE( 0.02539999999999999897 ), #176 );
#313 = LINE ( 'NONE', #66, #314 ) ;
#314 = VECTOR ( 'NONE', #63, 39.37007874015748143 ) ;
#315 = ADVANCED_BREP_SHAPE_REPRESENTATION ( '83764', ( #151, #274, #245 ), #56 ) ;
#316 = DIRECTION ( 'NONE',  ( -1.000000000000000000, 0.000000000000000000, 0.000000000000000000 ) ) ;
#317 = SURFACE_STYLE_FILL_AREA ( #208 ) ;
#318 = STYLED_ITEM ( 'NONE', ( #277 ), #248 ) ;
#319 = CIRCLE ( 'NONE', #106, 0.1250000000000001110 ) ;
#320 = UNCERTAINTY_MEASURE_WITH_UNIT (LENGTH_MEASURE( 1.000000000000000082E-05 ), #72, 'distance_accuracy_value', 'NONE');
#321 =( LENGTH_UNIT ( ) NAMED_UNIT ( * ) SI_UNIT ( $, .METRE. ) );
#322 = APPLICATION_PROTOCOL_DEFINITION ( 'draft international standard', 'automotive_design', 1998, #113 ) ;
#323 = SURFACE_STYLE_USAGE ( .BOTH. , #24 ) ;
#324 = EDGE_CURVE ( 'NONE', #167, #146, #51, .T. ) ;
#325 = DIRECTION ( 'NONE',  ( 0.000000000000000000, 1.000000000000000000, 0.000000000000000000 ) ) ;
#326 = CARTESIAN_POINT ( 'NONE',  ( 0.000000000000000000, 0.7500000000000001110, 0.000000000000000000 ) ) ;
#327 = DIRECTION ( 'NONE',  ( -0.000000000000000000, -1.000000000000000000, -0.000000000000000000 ) ) ;
#328 = EDGE_LOOP ( 'NONE', ( #200, #132 ) ) ;
#329 = CIRCLE ( 'NONE', #185, 0.1249999999999999584 ) ;
#330 = MECHANICAL_DESIGN_GEOMETRIC_PRESENTATION_REPRESENTATION (  '', ( #186 ), #196 ) ;
#331 = FACE_OUTER_BOUND ( 'NONE', #144, .T. ) ;
#332 = FILL_AREA_STYLE_COLOUR ( '', #301 ) ;
#333 = ORIENTED_EDGE ( 'NONE', *, *, #324, .T. ) ;
#334 = DIMENSIONAL_EXPONENTS ( 1.000000000000000000, 0.000000000000000000, 0.000000000000000000, 0.000000000000000000, 0.000000000000000000, 0.000000000000000000, 0.000000000000000000 ) ;
#335 = DIRECTION ( 'NONE',  ( -1.236411169696824577E-16, 1.000000000000000000, -0.000000000000000000 ) ) ;
#336 = ADVANCED_FACE ( 'NONE', ( #231 ), #190, .T. ) ;
#337 = ORIENTED_EDGE ( 'NONE', *, *, #64, .T. ) ;
#338 = PRODUCT ( '83764', '83764', '', ( #46 ) ) ;
#339 = UNCERTAINTY_MEASURE_WITH_UNIT (LENGTH_MEASURE( 1.000000000000000082E-05 ), #85, 'distance_accuracy_value', 'NONE');
#340 = LINE ( 'NONE', #32, #7 ) ;
#341 = VERTEX_POINT ( 'NONE', #152 ) ;
#342 = AXIS2_PLACEMENT_3D ( 'NONE', #270, #217, #296 ) ;
#343 = DIRECTION ( 'NONE',  ( 0.000000000000000000, 1.000000000000000000, 0.000000000000000000 ) ) ;
#344 = ORIENTED_EDGE ( 'NONE', *, *, #91, .T. ) ;
#345 = EDGE_CURVE ( 'NONE', #60, #167, #293, .T. ) ;
#346 =( CONVERSION_BASED_UNIT ( 'INCH', #98 ) LENGTH_UNIT ( ) NAMED_UNIT ( #177 ) );
#347 = ORIENTED_EDGE ( 'NONE', *, *, #183, .T. ) ;
#348 =( NAMED_UNIT ( * ) SI_UNIT ( $, .STERADIAN. ) SOLID_ANGLE_UNIT ( ) );
#349 = CARTESIAN_POINT ( 'NONE',  ( -0.1250000000000002498, 2.500000000000000000, 0.000000000000000000 ) ) ;
#350 = FILL_AREA_STYLE ('',( #21 ) ) ;
#351 = STYLED_ITEM ( 'NONE', ( #243 ), #128 ) ;
ENDSEC;
END-ISO-10303-21;
