ISO-10303-21;
HEADER;
FILE_DESCRIPTION (( 'STEP AP214' ),
    '1' );
FILE_NAME ('81702.STEP',
    '2023-06-23T02:34:45',
    ( '' ),
    ( '' ),
    'SwSTEP 2.0',
    'SolidWorks 2023',
    '' );
FILE_SCHEMA (( 'AUTOMOTIVE_DESIGN' ));
ENDSEC;

DATA;
#1 = CARTESIAN_POINT ( 'NONE',  ( 0.000000000000000000, 0.6250000000000000000, 0.000000000000000000 ) ) ;
#2 = LINE ( 'NONE', #143, #255 ) ;
#3 = LENGTH_MEASURE_WITH_UNIT ( LENGTH_MEASURE( 0.02539999999999999897 ), #51 );
#4 = DIRECTION ( 'NONE',  ( 0.000000000000000000, 0.000000000000000000, -1.000000000000000000 ) ) ;
#5 =( CONVERSION_BASED_UNIT ( 'INCH', #227 ) LENGTH_UNIT ( ) NAMED_UNIT ( #200 ) );
#6 = ADVANCED_FACE ( 'NONE', ( #38 ), #136, .T. ) ;
#7 = DIRECTION ( 'NONE',  ( 3.265724797726275178E-17, -1.000000000000000000, 0.000000000000000000 ) ) ;
#8 = UNCERTAINTY_MEASURE_WITH_UNIT (LENGTH_MEASURE( 1.000000000000000082E-05 ), #161, 'distance_accuracy_value', 'NONE');
#9 = SURFACE_SIDE_STYLE ('',( #32 ) ) ;
#10 = VERTEX_POINT ( 'NONE', #22 ) ;
#11 = EDGE_CURVE ( 'NONE', #302, #88, #74, .T. ) ;
#12 = FILL_AREA_STYLE_COLOUR ( '', #281 ) ;
#13 = ORIENTED_EDGE ( 'NONE', *, *, #119, .F. ) ;
#14 = CARTESIAN_POINT ( 'NONE',  ( 0.000000000000000000, 0.6250000000000000000, 0.000000000000000000 ) ) ;
#15 = ORIENTED_EDGE ( 'NONE', *, *, #119, .T. ) ;
#16 = CARTESIAN_POINT ( 'NONE',  ( 0.06250000000000000000, 2.500000000000000000, 0.000000000000000000 ) ) ;
#17 = ORIENTED_EDGE ( 'NONE', *, *, #11, .F. ) ;
#18 = PRODUCT_DEFINITION_SHAPE ( 'NONE', 'NONE',  #248 ) ;
#19 =( GEOMETRIC_REPRESENTATION_CONTEXT ( 3 ) GLOBAL_UNCERTAINTY_ASSIGNED_CONTEXT ( ( #120 ) ) GLOBAL_UNIT_ASSIGNED_CONTEXT ( ( #5, #222, #229 ) ) REPRESENTATION_CONTEXT ( 'NONE', 'WORKASPACE' ) );
#20 = DIRECTION ( 'NONE',  ( 0.000000000000000000, 0.000000000000000000, -1.000000000000000000 ) ) ;
#21 = CARTESIAN_POINT ( 'NONE',  ( 0.000000000000000000, 0.000000000000000000, 0.000000000000000000 ) ) ;
#22 = CARTESIAN_POINT ( 'NONE',  ( 7.654042494670960626E-18, 0.000000000000000000, 0.06250000000000002776 ) ) ;
#23 = ADVANCED_FACE ( 'NONE', ( #78 ), #198, .T. ) ;
#24 = CIRCLE ( 'NONE', #67, 0.06250000000000005551 ) ;
#25 = DIRECTION ( 'NONE',  ( -0.000000000000000000, -1.000000000000000000, -0.000000000000000000 ) ) ;
#26 = PRESENTATION_STYLE_ASSIGNMENT (( #249 ) ) ;
#27 = VECTOR ( 'NONE', #106, 39.37007874015748143 ) ;
#28 = CARTESIAN_POINT ( 'NONE',  ( 0.000000000000000000, 0.000000000000000000, 0.000000000000000000 ) ) ;
#29 = SURFACE_SIDE_STYLE ('',( #150 ) ) ;
#30 = AXIS2_PLACEMENT_3D ( 'NONE', #137, #107, #158 ) ;
#31 = DIMENSIONAL_EXPONENTS ( 1.000000000000000000, 0.000000000000000000, 0.000000000000000000, 0.000000000000000000, 0.000000000000000000, 0.000000000000000000, 0.000000000000000000 ) ;
#32 = SURFACE_STYLE_FILL_AREA ( #72 ) ;
#33 = SURFACE_SIDE_STYLE ('',( #209 ) ) ;
#34 = EDGE_LOOP ( 'NONE', ( #282, #230, #15, #213 ) ) ;
#35 = AXIS2_PLACEMENT_3D ( 'NONE', #116, #109, #214 ) ;
#36 =( NAMED_UNIT ( * ) SI_UNIT ( $, .STERADIAN. ) SOLID_ANGLE_UNIT ( ) );
#37 =( NAMED_UNIT ( * ) PLANE_ANGLE_UNIT ( ) SI_UNIT ( $, .RADIAN. ) );
#38 = FACE_OUTER_BOUND ( 'NONE', #189, .T. ) ;
#39 = PRODUCT_CONTEXT ( 'NONE', #207, 'mechanical' ) ;
#40 = DIMENSIONAL_EXPONENTS ( 1.000000000000000000, 0.000000000000000000, 0.000000000000000000, 0.000000000000000000, 0.000000000000000000, 0.000000000000000000, 0.000000000000000000 ) ;
#41 =( LENGTH_UNIT ( ) NAMED_UNIT ( * ) SI_UNIT ( $, .METRE. ) );
#42 = STYLED_ITEM ( 'NONE', ( #46 ), #180 ) ;
#43 = CARTESIAN_POINT ( 'NONE',  ( -6.123233995736766036E-17, 2.500000000000000000, 0.000000000000000000 ) ) ;
#44 = CARTESIAN_POINT ( 'NONE',  ( 3.332799517026350632E-35, 0.6250000000000000000, 0.000000000000000000 ) ) ;
#45 = EDGE_CURVE ( 'NONE', #134, #10, #141, .T. ) ;
#46 = PRESENTATION_STYLE_ASSIGNMENT (( #264 ) ) ;
#47 =( NAMED_UNIT ( * ) PLANE_ANGLE_UNIT ( ) SI_UNIT ( $, .RADIAN. ) );
#48 = MECHANICAL_DESIGN_GEOMETRIC_PRESENTATION_REPRESENTATION (  '', ( #303 ), #286 ) ;
#49 = DIRECTION ( 'NONE',  ( 0.000000000000000000, 0.000000000000000000, -1.000000000000000000 ) ) ;
#50 = LENGTH_MEASURE_WITH_UNIT ( LENGTH_MEASURE( 0.02539999999999999897 ), #269 );
#51 =( LENGTH_UNIT ( ) NAMED_UNIT ( * ) SI_UNIT ( $, .METRE. ) );
#52 = CIRCLE ( 'NONE', #96, 0.06250000000000000000 ) ;
#53 = PRESENTATION_LAYER_ASSIGNMENT (  '', '', ( #309 ) ) ;
#54 = PLANE ( 'NONE',  #201 ) ;
#55 = CARTESIAN_POINT ( 'NONE',  ( 0.06249999999999997224, 2.500000000000000000, 7.654042494670960626E-18 ) ) ;
#56 = CARTESIAN_POINT ( 'NONE',  ( -6.123233995736766036E-17, 2.500000000000000000, 0.000000000000000000 ) ) ;
#57 = UNCERTAINTY_MEASURE_WITH_UNIT (LENGTH_MEASURE( 1.000000000000000082E-05 ), #283, 'distance_accuracy_value', 'NONE');
#58 = VECTOR ( 'NONE', #76, 39.37007874015748143 ) ;
#59 = DIRECTION ( 'NONE',  ( -1.000000000000000000, 0.000000000000000000, 0.000000000000000000 ) ) ;
#60 = EDGE_CURVE ( 'NONE', #233, #88, #24, .T. ) ;
#61 = EDGE_LOOP ( 'NONE', ( #215, #168, #165, #191 ) ) ;
#62 = SURFACE_STYLE_USAGE ( .BOTH. , #276 ) ;
#63 = PRODUCT_DEFINITION_CONTEXT ( 'detailed design', #153, 'design' ) ;
#64 = ORIENTED_EDGE ( 'NONE', *, *, #271, .F. ) ;
#65 = PRESENTATION_STYLE_ASSIGNMENT (( #62 ) ) ;
#66 = ORIENTED_EDGE ( 'NONE', *, *, #292, .F. ) ;
#67 = AXIS2_PLACEMENT_3D ( 'NONE', #43, #266, #287 ) ;
#68 =( NAMED_UNIT ( * ) PLANE_ANGLE_UNIT ( ) SI_UNIT ( $, .RADIAN. ) );
#69 = UNCERTAINTY_MEASURE_WITH_UNIT (LENGTH_MEASURE( 1.000000000000000082E-05 ), #293, 'distance_accuracy_value', 'NONE');
#70 = ORIENTED_EDGE ( 'NONE', *, *, #206, .F. ) ;
#71 = DIRECTION ( 'NONE',  ( 1.000000000000000000, 0.000000000000000000, 0.000000000000000000 ) ) ;
#72 = FILL_AREA_STYLE ('',( #117 ) ) ;
#73 = PRESENTATION_LAYER_ASSIGNMENT (  '', '', ( #211 ) ) ;
#74 = LINE ( 'NONE', #99, #250 ) ;
#75 = FACE_OUTER_BOUND ( 'NONE', #300, .T. ) ;
#76 = DIRECTION ( 'NONE',  ( -0.000000000000000000, -1.000000000000000000, -0.000000000000000000 ) ) ;
#77 = MECHANICAL_DESIGN_GEOMETRIC_PRESENTATION_REPRESENTATION (  '', ( #125 ), #105 ) ;
#78 = FACE_OUTER_BOUND ( 'NONE', #61, .T. ) ;
#79 =( LENGTH_UNIT ( ) NAMED_UNIT ( * ) SI_UNIT ( $, .METRE. ) );
#80 = AXIS2_PLACEMENT_3D ( 'NONE', #263, #239, #289 ) ;
#81 = CARTESIAN_POINT ( 'NONE',  ( 0.000000000000000000, 0.000000000000000000, -0.06250000000000001388 ) ) ;
#82 = SURFACE_STYLE_USAGE ( .BOTH. , #9 ) ;
#83 = STYLED_ITEM ( 'NONE', ( #159 ), #6 ) ;
#84 = PRODUCT_DEFINITION_FORMATION_WITH_SPECIFIED_SOURCE ( 'ANY', '', #140, .NOT_KNOWN. ) ;
#85 = ORIENTED_EDGE ( 'NONE', *, *, #299, .T. ) ;
#86 = ORIENTED_EDGE ( 'NONE', *, *, #260, .T. ) ;
#87 = SURFACE_STYLE_USAGE ( .BOTH. , #33 ) ;
#88 = VERTEX_POINT ( 'NONE', #170 ) ;
#89 = AXIS2_PLACEMENT_3D ( 'NONE', #196, #175, #49 ) ;
#90 = CIRCLE ( 'NONE', #35, 0.06250000000000001388 ) ;
#91 =( CONVERSION_BASED_UNIT ( 'INCH', #265 ) LENGTH_UNIT ( ) NAMED_UNIT ( #31 ) );
#92 = ORIENTED_EDGE ( 'NONE', *, *, #292, .T. ) ;
#93 = CYLINDRICAL_SURFACE ( 'NONE', #216, 0.06250000000000002776 ) ;
#94 = UNCERTAINTY_MEASURE_WITH_UNIT (LENGTH_MEASURE( 1.000000000000000082E-05 ), #204, 'distance_accuracy_value', 'NONE');
#95 = FILL_AREA_STYLE_COLOUR ( '', #182 ) ;
#96 = AXIS2_PLACEMENT_3D ( 'NONE', #14, #135, #113 ) ;
#97 = LENGTH_MEASURE_WITH_UNIT ( LENGTH_MEASURE( 0.02539999999999999897 ), #288 );
#98 =( NAMED_UNIT ( * ) SI_UNIT ( $, .STERADIAN. ) SOLID_ANGLE_UNIT ( ) );
#99 = CARTESIAN_POINT ( 'NONE',  ( -0.06250000000000009714, 2.500000000000000000, 0.000000000000000000 ) ) ;
#100 = DIRECTION ( 'NONE',  ( 0.000000000000000000, 0.000000000000000000, -1.000000000000000000 ) ) ;
#101 = CARTESIAN_POINT ( 'NONE',  ( 0.06250000000000000000, 2.500000000000000000, 7.654042494670963708E-18 ) ) ;
#102 = LINE ( 'NONE', #55, #27 ) ;
#103 = FACE_OUTER_BOUND ( 'NONE', #34, .T. ) ;
#104 = CLOSED_SHELL ( 'NONE', ( #6, #304, #252, #243 ) ) ;
#105 =( GEOMETRIC_REPRESENTATION_CONTEXT ( 3 ) GLOBAL_UNCERTAINTY_ASSIGNED_CONTEXT ( ( #69 ) ) GLOBAL_UNIT_ASSIGNED_CONTEXT ( ( #293, #128, #268 ) ) REPRESENTATION_CONTEXT ( 'NONE', 'WORKASPACE' ) );
#106 = DIRECTION ( 'NONE',  ( -3.265724797726275178E-17, 1.000000000000000000, -0.000000000000000000 ) ) ;
#107 = DIRECTION ( 'NONE',  ( -0.000000000000000000, -1.000000000000000000, -0.000000000000000000 ) ) ;
#108 = ORIENTED_EDGE ( 'NONE', *, *, #260, .F. ) ;
#109 = DIRECTION ( 'NONE',  ( -0.000000000000000000, -1.000000000000000000, -0.000000000000000000 ) ) ;
#110 = PRESENTATION_LAYER_ASSIGNMENT (  '', '', ( #42 ) ) ;
#111 =( GEOMETRIC_REPRESENTATION_CONTEXT ( 3 ) GLOBAL_UNCERTAINTY_ASSIGNED_CONTEXT ( ( #217 ) ) GLOBAL_UNIT_ASSIGNED_CONTEXT ( ( #91, #47, #195 ) ) REPRESENTATION_CONTEXT ( 'NONE', 'WORKASPACE' ) );
#112 = LENGTH_MEASURE_WITH_UNIT ( LENGTH_MEASURE( 0.02539999999999999897 ), #256 );
#113 = DIRECTION ( 'NONE',  ( -1.000000000000000000, 0.000000000000000000, 0.000000000000000000 ) ) ;
#114 = EDGE_CURVE ( 'NONE', #134, #257, #147, .T. ) ;
#115 = ORIENTED_EDGE ( 'NONE', *, *, #130, .T. ) ;
#116 = CARTESIAN_POINT ( 'NONE',  ( 0.000000000000000000, 0.000000000000000000, 0.000000000000000000 ) ) ;
#117 = FILL_AREA_STYLE_COLOUR ( '', #223 ) ;
#118 = FACE_OUTER_BOUND ( 'NONE', #274, .T. ) ;
#119 = EDGE_CURVE ( 'NONE', #257, #254, #2, .T. ) ;
#120 = UNCERTAINTY_MEASURE_WITH_UNIT (LENGTH_MEASURE( 1.000000000000000082E-05 ), #5, 'distance_accuracy_value', 'NONE');
#121 = SURFACE_SIDE_STYLE ('',( #173 ) ) ;
#122 =( NAMED_UNIT ( * ) PLANE_ANGLE_UNIT ( ) SI_UNIT ( $, .RADIAN. ) );
#123 = DIRECTION ( 'NONE',  ( -0.000000000000000000, -1.000000000000000000, -0.000000000000000000 ) ) ;
#124 = DIMENSIONAL_EXPONENTS ( 1.000000000000000000, 0.000000000000000000, 0.000000000000000000, 0.000000000000000000, 0.000000000000000000, 0.000000000000000000, 0.000000000000000000 ) ;
#125 = STYLED_ITEM ( 'NONE', ( #247 ), #243 ) ;
#126 = AXIS2_PLACEMENT_3D ( 'NONE', #306, #145, #71 ) ;
#127 = CARTESIAN_POINT ( 'NONE',  ( 0.06250000000000000000, 0.6250000000000000000, 7.654042494670963708E-18 ) ) ;
#128 =( NAMED_UNIT ( * ) PLANE_ANGLE_UNIT ( ) SI_UNIT ( $, .RADIAN. ) );
#129 = FILL_AREA_STYLE_COLOUR ( '', #273 ) ;
#130 = EDGE_CURVE ( 'NONE', #254, #10, #208, .T. ) ;
#131 = COLOUR_RGB ( '',1.000000000000000000, 0.000000000000000000, 0.000000000000000000 ) ;
#132 = CIRCLE ( 'NONE', #202, 0.06250000000000000000 ) ;
#133 = FILL_AREA_STYLE ('',( #164 ) ) ;
#134 = VERTEX_POINT ( 'NONE', #220 ) ;
#135 = DIRECTION ( 'NONE',  ( -3.265724797726275178E-17, 1.000000000000000000, -0.000000000000000000 ) ) ;
#136 = CYLINDRICAL_SURFACE ( 'NONE', #138, 0.06250000000000001388 ) ;
#137 = CARTESIAN_POINT ( 'NONE',  ( 0.000000000000000000, 0.000000000000000000, 0.000000000000000000 ) ) ;
#138 = AXIS2_PLACEMENT_3D ( 'NONE', #146, #123, #100 ) ;
#139 =( NAMED_UNIT ( * ) SI_UNIT ( $, .STERADIAN. ) SOLID_ANGLE_UNIT ( ) );
#140 = PRODUCT ( '81702', '81702', '', ( #39 ) ) ;
#141 = LINE ( 'NONE', #305, #58 ) ;
#142 = PRESENTATION_LAYER_ASSIGNMENT (  '', '', ( #303 ) ) ;
#143 = CARTESIAN_POINT ( 'NONE',  ( 0.000000000000000000, 0.000000000000000000, -0.06250000000000001388 ) ) ;
#144 = DIRECTION ( 'NONE',  ( -3.265724797726275178E-17, 1.000000000000000000, 0.000000000000000000 ) ) ;
#145 = DIRECTION ( 'NONE',  ( 0.000000000000000000, 0.000000000000000000, 1.000000000000000000 ) ) ;
#146 = CARTESIAN_POINT ( 'NONE',  ( 0.000000000000000000, 0.000000000000000000, 0.000000000000000000 ) ) ;
#147 = CIRCLE ( 'NONE', #89, 0.06250000000000000000 ) ;
#148 = MECHANICAL_DESIGN_GEOMETRIC_PRESENTATION_REPRESENTATION (  '', ( #309 ), #298 ) ;
#149 = CARTESIAN_POINT ( 'NONE',  ( -6.123233995736766036E-17, 2.500000000000000000, 0.000000000000000000 ) ) ;
#150 = SURFACE_STYLE_FILL_AREA ( #294 ) ;
#151 = FACE_OUTER_BOUND ( 'NONE', #160, .T. ) ;
#152 = DIMENSIONAL_EXPONENTS ( 1.000000000000000000, 0.000000000000000000, 0.000000000000000000, 0.000000000000000000, 0.000000000000000000, 0.000000000000000000, 0.000000000000000000 ) ;
#153 = APPLICATION_CONTEXT ( 'automotive_design' ) ;
#154 = PRESENTATION_LAYER_ASSIGNMENT (  '', '', ( #125 ) ) ;
#155 = CLOSED_SHELL ( 'NONE', ( #166, #177, #23, #278 ) ) ;
#156 = DIRECTION ( 'NONE',  ( 0.000000000000000000, 0.000000000000000000, -1.000000000000000000 ) ) ;
#157 =( GEOMETRIC_REPRESENTATION_CONTEXT ( 3 ) GLOBAL_UNCERTAINTY_ASSIGNED_CONTEXT ( ( #188 ) ) GLOBAL_UNIT_ASSIGNED_CONTEXT ( ( #285, #238, #241 ) ) REPRESENTATION_CONTEXT ( 'NONE', 'WORKASPACE' ) );
#158 = DIRECTION ( 'NONE',  ( 0.000000000000000000, 0.000000000000000000, -1.000000000000000000 ) ) ;
#159 = PRESENTATION_STYLE_ASSIGNMENT (( #82 ) ) ;
#160 = EDGE_LOOP ( 'NONE', ( #115, #85 ) ) ;
#161 =( CONVERSION_BASED_UNIT ( 'INCH', #112 ) LENGTH_UNIT ( ) NAMED_UNIT ( #237 ) );
#162 = ORIENTED_EDGE ( 'NONE', *, *, #130, .F. ) ;
#163 = AXIS2_PLACEMENT_3D ( 'NONE', #16, #7, #231 ) ;
#164 = FILL_AREA_STYLE_COLOUR ( '', #290 ) ;
#165 = ORIENTED_EDGE ( 'NONE', *, *, #11, .T. ) ;
#166 = ADVANCED_FACE ( 'NONE', ( #118 ), #93, .T. ) ;
#167 = SHAPE_DEFINITION_REPRESENTATION ( #18, #197 ) ;
#168 = ORIENTED_EDGE ( 'NONE', *, *, #206, .T. ) ;
#169 = DIRECTION ( 'NONE',  ( 0.000000000000000000, -0.000000000000000000, 1.000000000000000000 ) ) ;
#170 = CARTESIAN_POINT ( 'NONE',  ( -0.06250000000000012490, 2.500000000000000000, 0.000000000000000000 ) ) ;
#171 = AXIS2_PLACEMENT_3D ( 'NONE', #307, #225, #203 ) ;
#172 = DIRECTION ( 'NONE',  ( -3.265724797726275178E-17, 1.000000000000000000, -0.000000000000000000 ) ) ;
#173 = SURFACE_STYLE_FILL_AREA ( #193 ) ;
#174 =( LENGTH_UNIT ( ) NAMED_UNIT ( * ) SI_UNIT ( $, .METRE. ) );
#175 = DIRECTION ( 'NONE',  ( -0.000000000000000000, -1.000000000000000000, -0.000000000000000000 ) ) ;
#176 = AXIS2_PLACEMENT_3D ( 'NONE', #56, #296, #59 ) ;
#177 = ADVANCED_FACE ( 'NONE', ( #75 ), #284, .F. ) ;
#178 = SURFACE_SIDE_STYLE ('',( #295 ) ) ;
#179 = SURFACE_STYLE_USAGE ( .BOTH. , #178 ) ;
#180 = MANIFOLD_SOLID_BREP ( 'Revolve - Tool Body (Straight Shanked)', #155 ) ;
#181 = PLANE ( 'NONE',  #163 ) ;
#182 = COLOUR_RGB ( '',0.7921568627450980005, 0.8196078431372548767, 0.9333333333333333481 ) ;
#183 = CARTESIAN_POINT ( 'NONE',  ( 0.000000000000000000, 0.6250000000000000000, 0.000000000000000000 ) ) ;
#184 = ORIENTED_EDGE ( 'NONE', *, *, #271, .T. ) ;
#185 = FACE_OUTER_BOUND ( 'NONE', #235, .T. ) ;
#186 = ORIENTED_EDGE ( 'NONE', *, *, #60, .T. ) ;
#187 = PRESENTATION_STYLE_ASSIGNMENT (( #87 ) ) ;
#188 = UNCERTAINTY_MEASURE_WITH_UNIT (LENGTH_MEASURE( 1.000000000000000082E-05 ), #285, 'distance_accuracy_value', 'NONE');
#189 = EDGE_LOOP ( 'NONE', ( #92, #277, #162, #13 ) ) ;
#190 = AXIS2_PLACEMENT_3D ( 'NONE', #44, #144, #261 ) ;
#191 = ORIENTED_EDGE ( 'NONE', *, *, #60, .F. ) ;
#192 = LENGTH_MEASURE_WITH_UNIT ( LENGTH_MEASURE( 0.02539999999999999897 ), #174 );
#193 = FILL_AREA_STYLE ('',( #95 ) ) ;
#194 = MECHANICAL_DESIGN_GEOMETRIC_PRESENTATION_REPRESENTATION (  '', ( #42 ), #19 ) ;
#195 =( NAMED_UNIT ( * ) SI_UNIT ( $, .STERADIAN. ) SOLID_ANGLE_UNIT ( ) );
#196 = CARTESIAN_POINT ( 'NONE',  ( 0.000000000000000000, 0.6250000000000000000, 0.000000000000000000 ) ) ;
#197 = ADVANCED_BREP_SHAPE_REPRESENTATION ( '81702', ( #270, #180, #126 ), #111 ) ;
#198 = CYLINDRICAL_SURFACE ( 'NONE', #80, 0.06250000000000002776 ) ;
#199 = PRODUCT_RELATED_PRODUCT_CATEGORY ( 'part', '', ( #140 ) ) ;
#200 = DIMENSIONAL_EXPONENTS ( 1.000000000000000000, 0.000000000000000000, 0.000000000000000000, 0.000000000000000000, 0.000000000000000000, 0.000000000000000000, 0.000000000000000000 ) ;
#201 = AXIS2_PLACEMENT_3D ( 'NONE', #28, #267, #4 ) ;
#202 = AXIS2_PLACEMENT_3D ( 'NONE', #183, #301, #156 ) ;
#203 = DIRECTION ( 'NONE',  ( -1.000000000000000000, 0.000000000000000000, 0.000000000000000000 ) ) ;
#204 =( CONVERSION_BASED_UNIT ( 'INCH', #3 ) LENGTH_UNIT ( ) NAMED_UNIT ( #152 ) );
#205 = FILL_AREA_STYLE_COLOUR ( '', #131 ) ;
#206 = EDGE_CURVE ( 'NONE', #212, #302, #262, .T. ) ;
#207 = APPLICATION_CONTEXT ( 'automotive_design' ) ;
#208 = CIRCLE ( 'NONE', #279, 0.06250000000000001388 ) ;
#209 = SURFACE_STYLE_FILL_AREA ( #272 ) ;
#210 = ORIENTED_EDGE ( 'NONE', *, *, #226, .T. ) ;
#211 = STYLED_ITEM ( 'NONE', ( #65 ), #270 ) ;
#212 = VERTEX_POINT ( 'NONE', #127 ) ;
#213 = ORIENTED_EDGE ( 'NONE', *, *, #299, .F. ) ;
#214 = DIRECTION ( 'NONE',  ( 0.000000000000000000, 0.000000000000000000, -1.000000000000000000 ) ) ;
#215 = ORIENTED_EDGE ( 'NONE', *, *, #226, .F. ) ;
#216 = AXIS2_PLACEMENT_3D ( 'NONE', #149, #218, #244 ) ;
#217 = UNCERTAINTY_MEASURE_WITH_UNIT (LENGTH_MEASURE( 1.000000000000000082E-05 ), #91, 'distance_accuracy_value', 'NONE');
#218 = DIRECTION ( 'NONE',  ( -3.265724797726275178E-17, 1.000000000000000000, -0.000000000000000000 ) ) ;
#219 = MECHANICAL_DESIGN_GEOMETRIC_PRESENTATION_REPRESENTATION (  '', ( #83 ), #157 ) ;
#220 = CARTESIAN_POINT ( 'NONE',  ( 7.654042494670959086E-18, 0.6250000000000000000, 0.06250000000000000000 ) ) ;
#221 = DIMENSIONAL_EXPONENTS ( 1.000000000000000000, 0.000000000000000000, 0.000000000000000000, 0.000000000000000000, 0.000000000000000000, 0.000000000000000000, 0.000000000000000000 ) ;
#222 =( NAMED_UNIT ( * ) PLANE_ANGLE_UNIT ( ) SI_UNIT ( $, .RADIAN. ) );
#223 = COLOUR_RGB ( '',1.000000000000000000, 0.000000000000000000, 0.000000000000000000 ) ;
#224 = AXIS2_PLACEMENT_3D ( 'NONE', #1, #240, #169 ) ;
#225 = DIRECTION ( 'NONE',  ( -3.265724797726275178E-17, 1.000000000000000000, -0.000000000000000000 ) ) ;
#226 = EDGE_CURVE ( 'NONE', #212, #233, #102, .T. ) ;
#227 = LENGTH_MEASURE_WITH_UNIT ( LENGTH_MEASURE( 0.02539999999999999897 ), #79 );
#228 =( GEOMETRIC_REPRESENTATION_CONTEXT ( 3 ) GLOBAL_UNCERTAINTY_ASSIGNED_CONTEXT ( ( #8 ) ) GLOBAL_UNIT_ASSIGNED_CONTEXT ( ( #161, #37, #36 ) ) REPRESENTATION_CONTEXT ( 'NONE', 'WORKASPACE' ) );
#229 =( NAMED_UNIT ( * ) SI_UNIT ( $, .STERADIAN. ) SOLID_ANGLE_UNIT ( ) );
#230 = ORIENTED_EDGE ( 'NONE', *, *, #114, .T. ) ;
#231 = DIRECTION ( 'NONE',  ( 1.000000000000000000, 3.265724797726275178E-17, 0.000000000000000000 ) ) ;
#232 = CARTESIAN_POINT ( 'NONE',  ( -0.06250000000000000000, 0.6250000000000000000, 0.000000000000000000 ) ) ;
#233 = VERTEX_POINT ( 'NONE', #101 ) ;
#234 = CARTESIAN_POINT ( 'NONE',  ( 0.000000000000000000, 0.6250000000000000000, -0.06250000000000000000 ) ) ;
#235 = EDGE_LOOP ( 'NONE', ( #86, #186 ) ) ;
#236 = APPLICATION_PROTOCOL_DEFINITION ( 'draft international standard', 'automotive_design', 1998, #153 ) ;
#237 = DIMENSIONAL_EXPONENTS ( 1.000000000000000000, 0.000000000000000000, 0.000000000000000000, 0.000000000000000000, 0.000000000000000000, 0.000000000000000000, 0.000000000000000000 ) ;
#238 =( NAMED_UNIT ( * ) PLANE_ANGLE_UNIT ( ) SI_UNIT ( $, .RADIAN. ) );
#239 = DIRECTION ( 'NONE',  ( -3.265724797726275178E-17, 1.000000000000000000, -0.000000000000000000 ) ) ;
#240 = DIRECTION ( 'NONE',  ( 0.000000000000000000, 1.000000000000000000, 0.000000000000000000 ) ) ;
#241 =( NAMED_UNIT ( * ) SI_UNIT ( $, .STERADIAN. ) SOLID_ANGLE_UNIT ( ) );
#242 = APPLICATION_PROTOCOL_DEFINITION ( 'draft international standard', 'automotive_design', 1998, #207 ) ;
#243 = ADVANCED_FACE ( 'NONE', ( #151 ), #54, .T. ) ;
#244 = DIRECTION ( 'NONE',  ( -1.000000000000000000, 0.000000000000000000, 0.000000000000000000 ) ) ;
#245 = CYLINDRICAL_SURFACE ( 'NONE', #30, 0.06250000000000001388 ) ;
#246 = MECHANICAL_DESIGN_GEOMETRIC_PRESENTATION_REPRESENTATION (  '', ( #211 ), #228 ) ;
#247 = PRESENTATION_STYLE_ASSIGNMENT (( #179 ) ) ;
#248 = PRODUCT_DEFINITION ( 'UNKNOWN', '', #84, #63 ) ;
#249 = SURFACE_STYLE_USAGE ( .BOTH. , #29 ) ;
#250 = VECTOR ( 'NONE', #172, 39.37007874015748143 ) ;
#251 = FACE_OUTER_BOUND ( 'NONE', #280, .T. ) ;
#252 = ADVANCED_FACE ( 'NONE', ( #103 ), #245, .T. ) ;
#253 = PLANE ( 'NONE',  #224 ) ;
#254 = VERTEX_POINT ( 'NONE', #81 ) ;
#255 = VECTOR ( 'NONE', #25, 39.37007874015748143 ) ;
#256 =( LENGTH_UNIT ( ) NAMED_UNIT ( * ) SI_UNIT ( $, .METRE. ) );
#257 = VERTEX_POINT ( 'NONE', #234 ) ;
#258 = DIRECTION ( 'NONE',  ( -0.000000000000000000, -1.000000000000000000, -0.000000000000000000 ) ) ;
#259 = PRESENTATION_LAYER_ASSIGNMENT (  '', '', ( #83 ) ) ;
#260 = EDGE_CURVE ( 'NONE', #88, #233, #308, .T. ) ;
#261 = DIRECTION ( 'NONE',  ( -1.000000000000000000, -3.265724797726275178E-17, 0.000000000000000000 ) ) ;
#262 = CIRCLE ( 'NONE', #171, 0.06250000000000000000 ) ;
#263 = CARTESIAN_POINT ( 'NONE',  ( -6.123233995736766036E-17, 2.500000000000000000, 0.000000000000000000 ) ) ;
#264 = SURFACE_STYLE_USAGE ( .BOTH. , #121 ) ;
#265 = LENGTH_MEASURE_WITH_UNIT ( LENGTH_MEASURE( 0.02539999999999999897 ), #41 );
#266 = DIRECTION ( 'NONE',  ( -3.265724797726275178E-17, 1.000000000000000000, -0.000000000000000000 ) ) ;
#267 = DIRECTION ( 'NONE',  ( 0.000000000000000000, -1.000000000000000000, -0.000000000000000000 ) ) ;
#268 =( NAMED_UNIT ( * ) SI_UNIT ( $, .STERADIAN. ) SOLID_ANGLE_UNIT ( ) );
#269 =( LENGTH_UNIT ( ) NAMED_UNIT ( * ) SI_UNIT ( $, .METRE. ) );
#270 = MANIFOLD_SOLID_BREP ( 'Revolve - Cutting Edge', #104 ) ;
#271 = EDGE_CURVE ( 'NONE', #302, #212, #52, .T. ) ;
#272 = FILL_AREA_STYLE ('',( #12 ) ) ;
#273 = COLOUR_RGB ( '',1.000000000000000000, 0.000000000000000000, 0.000000000000000000 ) ;
#274 = EDGE_LOOP ( 'NONE', ( #184, #210, #108, #17 ) ) ;
#275 = SURFACE_STYLE_FILL_AREA ( #133 ) ;
#276 = SURFACE_SIDE_STYLE ('',( #275 ) ) ;
#277 = ORIENTED_EDGE ( 'NONE', *, *, #45, .T. ) ;
#278 = ADVANCED_FACE ( 'NONE', ( #185 ), #181, .F. ) ;
#279 = AXIS2_PLACEMENT_3D ( 'NONE', #21, #258, #20 ) ;
#280 = EDGE_LOOP ( 'NONE', ( #66, #297 ) ) ;
#281 = COLOUR_RGB ( '',1.000000000000000000, 0.000000000000000000, 0.000000000000000000 ) ;
#282 = ORIENTED_EDGE ( 'NONE', *, *, #45, .F. ) ;
#283 =( CONVERSION_BASED_UNIT ( 'INCH', #192 ) LENGTH_UNIT ( ) NAMED_UNIT ( #40 ) );
#284 = PLANE ( 'NONE',  #190 ) ;
#285 =( CONVERSION_BASED_UNIT ( 'INCH', #97 ) LENGTH_UNIT ( ) NAMED_UNIT ( #124 ) );
#286 =( GEOMETRIC_REPRESENTATION_CONTEXT ( 3 ) GLOBAL_UNCERTAINTY_ASSIGNED_CONTEXT ( ( #94 ) ) GLOBAL_UNIT_ASSIGNED_CONTEXT ( ( #204, #68, #139 ) ) REPRESENTATION_CONTEXT ( 'NONE', 'WORKASPACE' ) );
#287 = DIRECTION ( 'NONE',  ( -1.000000000000000000, 0.000000000000000000, 0.000000000000000000 ) ) ;
#288 =( LENGTH_UNIT ( ) NAMED_UNIT ( * ) SI_UNIT ( $, .METRE. ) );
#289 = DIRECTION ( 'NONE',  ( -1.000000000000000000, 0.000000000000000000, 0.000000000000000000 ) ) ;
#290 = COLOUR_RGB ( '',0.7921568627450980005, 0.8196078431372548767, 0.9333333333333333481 ) ;
#291 = FILL_AREA_STYLE ('',( #129 ) ) ;
#292 = EDGE_CURVE ( 'NONE', #257, #134, #132, .T. ) ;
#293 =( CONVERSION_BASED_UNIT ( 'INCH', #50 ) LENGTH_UNIT ( ) NAMED_UNIT ( #221 ) );
#294 = FILL_AREA_STYLE ('',( #205 ) ) ;
#295 = SURFACE_STYLE_FILL_AREA ( #291 ) ;
#296 = DIRECTION ( 'NONE',  ( -3.265724797726275178E-17, 1.000000000000000000, -0.000000000000000000 ) ) ;
#297 = ORIENTED_EDGE ( 'NONE', *, *, #114, .F. ) ;
#298 =( GEOMETRIC_REPRESENTATION_CONTEXT ( 3 ) GLOBAL_UNCERTAINTY_ASSIGNED_CONTEXT ( ( #57 ) ) GLOBAL_UNIT_ASSIGNED_CONTEXT ( ( #283, #122, #98 ) ) REPRESENTATION_CONTEXT ( 'NONE', 'WORKASPACE' ) );
#299 = EDGE_CURVE ( 'NONE', #10, #254, #90, .T. ) ;
#300 = EDGE_LOOP ( 'NONE', ( #64, #70 ) ) ;
#301 = DIRECTION ( 'NONE',  ( -0.000000000000000000, -1.000000000000000000, -0.000000000000000000 ) ) ;
#302 = VERTEX_POINT ( 'NONE', #232 ) ;
#303 = STYLED_ITEM ( 'NONE', ( #26 ), #252 ) ;
#304 = ADVANCED_FACE ( 'NONE', ( #251 ), #253, .T. ) ;
#305 = CARTESIAN_POINT ( 'NONE',  ( 7.654042494670959086E-18, 0.000000000000000000, 0.06250000000000001388 ) ) ;
#306 = CARTESIAN_POINT ( 'NONE',  ( 0.000000000000000000, 0.000000000000000000, 0.000000000000000000 ) ) ;
#307 = CARTESIAN_POINT ( 'NONE',  ( 0.000000000000000000, 0.6250000000000000000, 0.000000000000000000 ) ) ;
#308 = CIRCLE ( 'NONE', #176, 0.06250000000000005551 ) ;
#309 = STYLED_ITEM ( 'NONE', ( #187 ), #304 ) ;
ENDSEC;
END-ISO-10303-21;
