ISO-10303-21;
HEADER;
FILE_DESCRIPTION (( 'STEP AP214' ),
    '1' );
FILE_NAME ('59451.STEP',
    '2023-06-30T22:19:56',
    ( '' ),
    ( '' ),
    'SwSTEP 2.0',
    'SolidWorks 2023',
    '' );
FILE_SCHEMA (( 'AUTOMOTIVE_DESIGN' ));
ENDSEC;

DATA;
#1 = DIRECTION ( 'NONE',  ( -0.000000000000000000, -1.000000000000000000, -0.000000000000000000 ) ) ;
#2 = DIMENSIONAL_EXPONENTS ( 1.000000000000000000, 0.000000000000000000, 0.000000000000000000, 0.000000000000000000, 0.000000000000000000, 0.000000000000000000, 0.000000000000000000 ) ;
#3 = FILL_AREA_STYLE ('',( #227 ) ) ;
#4 = VERTEX_POINT ( 'NONE', #321 ) ;
#5 = DIMENSIONAL_EXPONENTS ( 1.000000000000000000, 0.000000000000000000, 0.000000000000000000, 0.000000000000000000, 0.000000000000000000, 0.000000000000000000, 0.000000000000000000 ) ;
#6 = ORIENTED_EDGE ( 'NONE', *, *, #117, .T. ) ;
#7 = AXIS2_PLACEMENT_3D ( 'NONE', #228, #54, #165 ) ;
#8 = ORIENTED_EDGE ( 'NONE', *, *, #35, .T. ) ;
#9 = APPLICATION_CONTEXT ( 'automotive_design' ) ;
#10 = SURFACE_SIDE_STYLE ('',( #209 ) ) ;
#11 = ORIENTED_EDGE ( 'NONE', *, *, #242, .T. ) ;
#12 = ORIENTED_EDGE ( 'NONE', *, *, #35, .F. ) ;
#13 = CIRCLE ( 'NONE', #315, 0.3124999999999999445 ) ;
#14 =( NAMED_UNIT ( * ) PLANE_ANGLE_UNIT ( ) SI_UNIT ( $, .RADIAN. ) );
#15 = CARTESIAN_POINT ( 'NONE',  ( 0.000000000000000000, 0.7499999999999998890, -0.3124999999999998890 ) ) ;
#16 = SURFACE_STYLE_FILL_AREA ( #45 ) ;
#17 = PRESENTATION_LAYER_ASSIGNMENT (  '', '', ( #285 ) ) ;
#18 = PRESENTATION_LAYER_ASSIGNMENT (  '', '', ( #84 ) ) ;
#19 = SURFACE_SIDE_STYLE ('',( #44 ) ) ;
#20 =( CONVERSION_BASED_UNIT ( 'INCH', #159 ) LENGTH_UNIT ( ) NAMED_UNIT ( #22 ) );
#21 = SURFACE_SIDE_STYLE ('',( #158 ) ) ;
#22 = DIMENSIONAL_EXPONENTS ( 1.000000000000000000, 0.000000000000000000, 0.000000000000000000, 0.000000000000000000, 0.000000000000000000, 0.000000000000000000, 0.000000000000000000 ) ;
#23 =( NAMED_UNIT ( * ) SI_UNIT ( $, .STERADIAN. ) SOLID_ANGLE_UNIT ( ) );
#24 = EDGE_CURVE ( 'NONE', #4, #259, #172, .T. ) ;
#25 = MANIFOLD_SOLID_BREP ( 'Revolve - Cutting Edge', #280 ) ;
#26 = DIRECTION ( 'NONE',  ( 0.000000000000000000, 1.000000000000000000, 0.000000000000000000 ) ) ;
#27 = VECTOR ( 'NONE', #305, 39.37007874015748143 ) ;
#28 = MECHANICAL_DESIGN_GEOMETRIC_PRESENTATION_REPRESENTATION (  '', ( #84 ), #338 ) ;
#29 = ORIENTED_EDGE ( 'NONE', *, *, #249, .F. ) ;
#30 = ORIENTED_EDGE ( 'NONE', *, *, #329, .T. ) ;
#31 = PRODUCT ( '59451', '59451', '', ( #40 ) ) ;
#32 = CARTESIAN_POINT ( 'NONE',  ( -3.827021247335478926E-17, 0.3125000000000000000, 0.000000000000000000 ) ) ;
#33 = ORIENTED_EDGE ( 'NONE', *, *, #125, .T. ) ;
#34 = AXIS2_PLACEMENT_3D ( 'NONE', #86, #88, #370 ) ;
#35 = EDGE_CURVE ( 'NONE', #259, #4, #293, .T. ) ;
#36 = ADVANCED_BREP_SHAPE_REPRESENTATION ( '59451', ( #25, #156, #302 ), #96 ) ;
#37 = EDGE_LOOP ( 'NONE', ( #348, #64, #33, #296, #214 ) ) ;
#38 = LENGTH_MEASURE_WITH_UNIT ( LENGTH_MEASURE( 0.02539999999999999897 ), #261 );
#39 = ORIENTED_EDGE ( 'NONE', *, *, #117, .F. ) ;
#40 = PRODUCT_CONTEXT ( 'NONE', #303, 'mechanical' ) ;
#41 = DIRECTION ( 'NONE',  ( 0.000000000000000000, 0.000000000000000000, 1.000000000000000000 ) ) ;
#42 = COLOUR_RGB ( '',1.000000000000000000, 0.000000000000000000, 0.000000000000000000 ) ;
#43 = DIRECTION ( 'NONE',  ( -0.000000000000000000, -1.000000000000000000, -0.000000000000000000 ) ) ;
#44 = SURFACE_STYLE_FILL_AREA ( #224 ) ;
#45 = FILL_AREA_STYLE ('',( #52 ) ) ;
#46 = FILL_AREA_STYLE_COLOUR ( '', #301 ) ;
#47 = SURFACE_SIDE_STYLE ('',( #193 ) ) ;
#48 =( CONVERSION_BASED_UNIT ( 'INCH', #331 ) LENGTH_UNIT ( ) NAMED_UNIT ( #256 ) );
#49 = FACE_OUTER_BOUND ( 'NONE', #95, .T. ) ;
#50 = COLOUR_RGB ( '',1.000000000000000000, 0.000000000000000000, 0.000000000000000000 ) ;
#51 = AXIS2_PLACEMENT_3D ( 'NONE', #32, #72, #152 ) ;
#52 = FILL_AREA_STYLE_COLOUR ( '', #192 ) ;
#53 = EDGE_CURVE ( 'NONE', #145, #4, #101, .T. ) ;
#54 = DIRECTION ( 'NONE',  ( 1.224646799147353207E-16, -0.000000000000000000, 1.000000000000000000 ) ) ;
#55 =( CONVERSION_BASED_UNIT ( 'INCH', #194 ) LENGTH_UNIT ( ) NAMED_UNIT ( #114 ) );
#56 = DIRECTION ( 'NONE',  ( -1.227249464703778560E-16, 1.000000000000000000, -0.000000000000000000 ) ) ;
#57 = SURFACE_SIDE_STYLE ('',( #313 ) ) ;
#58 = AXIS2_PLACEMENT_3D ( 'NONE', #196, #59, #62 ) ;
#59 = DIRECTION ( 'NONE',  ( -1.227249464703778560E-16, 1.000000000000000000, -0.000000000000000000 ) ) ;
#60 = VERTEX_POINT ( 'NONE', #244 ) ;
#61 = DIMENSIONAL_EXPONENTS ( 1.000000000000000000, 0.000000000000000000, 0.000000000000000000, 0.000000000000000000, 0.000000000000000000, 0.000000000000000000, 0.000000000000000000 ) ;
#62 = DIRECTION ( 'NONE',  ( -1.000000000000000000, 0.000000000000000000, 0.000000000000000000 ) ) ;
#63 = PRESENTATION_LAYER_ASSIGNMENT (  '', '', ( #147 ) ) ;
#64 = ORIENTED_EDGE ( 'NONE', *, *, #373, .T. ) ;
#65 = CIRCLE ( 'NONE', #7, 0.3125000000000000000 ) ;
#66 =( CONVERSION_BASED_UNIT ( 'INCH', #38 ) LENGTH_UNIT ( ) NAMED_UNIT ( #61 ) );
#67 = DIRECTION ( 'NONE',  ( -1.227249464703778560E-16, 1.000000000000000000, -0.000000000000000000 ) ) ;
#68 = UNCERTAINTY_MEASURE_WITH_UNIT (LENGTH_MEASURE( 1.000000000000000082E-05 ), #55, 'distance_accuracy_value', 'NONE');
#69 = VERTEX_POINT ( 'NONE', #15 ) ;
#70 = MECHANICAL_DESIGN_GEOMETRIC_PRESENTATION_REPRESENTATION (  '', ( #161 ), #219 ) ;
#71 = MECHANICAL_DESIGN_GEOMETRIC_PRESENTATION_REPRESENTATION (  '', ( #77 ), #187 ) ;
#72 = DIRECTION ( 'NONE',  ( 0.000000000000000000, 0.000000000000000000, 1.000000000000000000 ) ) ;
#73 = ORIENTED_EDGE ( 'NONE', *, *, #240, .F. ) ;
#74 = APPLICATION_PROTOCOL_DEFINITION ( 'draft international standard', 'automotive_design', 1998, #303 ) ;
#75 = ADVANCED_FACE ( 'NONE', ( #109 ), #131, .T. ) ;
#76 = CARTESIAN_POINT ( 'NONE',  ( 0.000000000000000000, 0.000000000000000000, -0.3124999999999998890 ) ) ;
#77 = STYLED_ITEM ( 'NONE', ( #266 ), #342 ) ;
#78 = PRESENTATION_STYLE_ASSIGNMENT (( #85 ) ) ;
#79 =( LENGTH_UNIT ( ) NAMED_UNIT ( * ) SI_UNIT ( $, .METRE. ) );
#80 = DIRECTION ( 'NONE',  ( -1.227249464703778560E-16, 1.000000000000000000, -0.000000000000000000 ) ) ;
#81 = DIRECTION ( 'NONE',  ( 1.000000000000000000, 1.227249464703778560E-16, 0.000000000000000000 ) ) ;
#82 =( LENGTH_UNIT ( ) NAMED_UNIT ( * ) SI_UNIT ( $, .METRE. ) );
#83 = CARTESIAN_POINT ( 'NONE',  ( 0.3124999999999998890, 3.000000000000000444, 0.000000000000000000 ) ) ;
#84 = STYLED_ITEM ( 'NONE', ( #278 ), #200 ) ;
#85 = SURFACE_STYLE_USAGE ( .BOTH. , #57 ) ;
#86 = CARTESIAN_POINT ( 'NONE',  ( 1.224646799147352714E-16, 3.000000000000000444, 0.000000000000000000 ) ) ;
#87 =( LENGTH_UNIT ( ) NAMED_UNIT ( * ) SI_UNIT ( $, .METRE. ) );
#88 = DIRECTION ( 'NONE',  ( -1.227249464703778560E-16, 1.000000000000000000, -0.000000000000000000 ) ) ;
#89 =( GEOMETRIC_REPRESENTATION_CONTEXT ( 3 ) GLOBAL_UNCERTAINTY_ASSIGNED_CONTEXT ( ( #68 ) ) GLOBAL_UNIT_ASSIGNED_CONTEXT ( ( #55, #197, #225 ) ) REPRESENTATION_CONTEXT ( 'NONE', 'WORKASPACE' ) );
#90 = MECHANICAL_DESIGN_GEOMETRIC_PRESENTATION_REPRESENTATION (  '', ( #285 ), #268 ) ;
#91 = CIRCLE ( 'NONE', #263, 0.3124999999999998890 ) ;
#92 = PLANE ( 'NONE',  #295 ) ;
#93 = CARTESIAN_POINT ( 'NONE',  ( -0.3124999999999990563, 0.7499999999999998890, 0.000000000000000000 ) ) ;
#94 = UNCERTAINTY_MEASURE_WITH_UNIT (LENGTH_MEASURE( 1.000000000000000082E-05 ), #157, 'distance_accuracy_value', 'NONE');
#95 = EDGE_LOOP ( 'NONE', ( #8, #177 ) ) ;
#96 =( GEOMETRIC_REPRESENTATION_CONTEXT ( 3 ) GLOBAL_UNCERTAINTY_ASSIGNED_CONTEXT ( ( #142 ) ) GLOBAL_UNIT_ASSIGNED_CONTEXT ( ( #66, #292, #211 ) ) REPRESENTATION_CONTEXT ( 'NONE', 'WORKASPACE' ) );
#97 = EDGE_LOOP ( 'NONE', ( #290, #121, #235, #148 ) ) ;
#98 = CARTESIAN_POINT ( 'NONE',  ( 0.000000000000000000, 0.7499999999999998890, 0.000000000000000000 ) ) ;
#99 = FILL_AREA_STYLE ('',( #212 ) ) ;
#100 = ORIENTED_EDGE ( 'NONE', *, *, #252, .F. ) ;
#101 = LINE ( 'NONE', #272, #178 ) ;
#102 = PRESENTATION_STYLE_ASSIGNMENT (( #308 ) ) ;
#103 = CYLINDRICAL_SURFACE ( 'NONE', #367, 0.3124999999999998890 ) ;
#104 = FILL_AREA_STYLE ('',( #243 ) ) ;
#105 = PRESENTATION_LAYER_ASSIGNMENT (  '', '', ( #161 ) ) ;
#106 =( NAMED_UNIT ( * ) PLANE_ANGLE_UNIT ( ) SI_UNIT ( $, .RADIAN. ) );
#107 = DIRECTION ( 'NONE',  ( -1.000000000000000000, 0.000000000000000000, 0.000000000000000000 ) ) ;
#108 = CARTESIAN_POINT ( 'NONE',  ( -1.913510623667739463E-17, 0.000000000000000000, 0.000000000000000000 ) ) ;
#109 = FACE_OUTER_BOUND ( 'NONE', #97, .T. ) ;
#110 = FILL_AREA_STYLE_COLOUR ( '', #345 ) ;
#111 = UNCERTAINTY_MEASURE_WITH_UNIT (LENGTH_MEASURE( 1.000000000000000082E-05 ), #218, 'distance_accuracy_value', 'NONE');
#112 = PRODUCT_DEFINITION ( 'UNKNOWN', '', #246, #311 ) ;
#113 = AXIS2_PLACEMENT_3D ( 'NONE', #251, #56, #229 ) ;
#114 = DIMENSIONAL_EXPONENTS ( 1.000000000000000000, 0.000000000000000000, 0.000000000000000000, 0.000000000000000000, 0.000000000000000000, 0.000000000000000000, 0.000000000000000000 ) ;
#115 = DIRECTION ( 'NONE',  ( 0.000000000000000000, 0.000000000000000000, -1.000000000000000000 ) ) ;
#116 = FACE_OUTER_BOUND ( 'NONE', #210, .T. ) ;
#117 = EDGE_CURVE ( 'NONE', #347, #259, #183, .T. ) ;
#118 = CYLINDRICAL_SURFACE ( 'NONE', #113, 0.3124999999999996114 ) ;
#119 = CIRCLE ( 'NONE', #162, 0.3124999999999999445 ) ;
#120 = DIRECTION ( 'NONE',  ( -0.000000000000000000, -1.000000000000000000, -0.000000000000000000 ) ) ;
#121 = ORIENTED_EDGE ( 'NONE', *, *, #249, .T. ) ;
#122 =( NAMED_UNIT ( * ) PLANE_ANGLE_UNIT ( ) SI_UNIT ( $, .RADIAN. ) );
#123 = EDGE_LOOP ( 'NONE', ( #291, #128, #6, #181 ) ) ;
#124 =( CONVERSION_BASED_UNIT ( 'INCH', #352 ) LENGTH_UNIT ( ) NAMED_UNIT ( #2 ) );
#125 = EDGE_CURVE ( 'NONE', #69, #260, #328, .T. ) ;
#126 = ORIENTED_EDGE ( 'NONE', *, *, #339, .F. ) ;
#127 = EDGE_LOOP ( 'NONE', ( #29, #11, #237, #30 ) ) ;
#128 = ORIENTED_EDGE ( 'NONE', *, *, #273, .T. ) ;
#129 = CARTESIAN_POINT ( 'NONE',  ( -0.3124999999999994449, 3.000000000000000444, 0.000000000000000000 ) ) ;
#130 = PLANE ( 'NONE',  #354 ) ;
#131 = SPHERICAL_SURFACE ( 'NONE', #262, 0.3125000000000000000 ) ;
#132 = MECHANICAL_DESIGN_GEOMETRIC_PRESENTATION_REPRESENTATION (  '', ( #230 ), #141 ) ;
#133 =( LENGTH_UNIT ( ) NAMED_UNIT ( * ) SI_UNIT ( $, .METRE. ) );
#134 = APPLICATION_PROTOCOL_DEFINITION ( 'draft international standard', 'automotive_design', 1998, #9 ) ;
#135 = DIRECTION ( 'NONE',  ( -1.227249464703778560E-16, 1.000000000000000000, 0.000000000000000000 ) ) ;
#136 = DIRECTION ( 'NONE',  ( -0.000000000000000000, -1.000000000000000000, -0.000000000000000000 ) ) ;
#137 = SURFACE_STYLE_USAGE ( .BOTH. , #21 ) ;
#138 = CARTESIAN_POINT ( 'NONE',  ( 3.985958094730854598E-16, 0.7499999999999998890, 0.000000000000000000 ) ) ;
#139 = CARTESIAN_POINT ( 'NONE',  ( 0.000000000000000000, 0.3125000000000000555, 0.000000000000000000 ) ) ;
#140 = AXIS2_PLACEMENT_3D ( 'NONE', #267, #67, #355 ) ;
#141 =( GEOMETRIC_REPRESENTATION_CONTEXT ( 3 ) GLOBAL_UNCERTAINTY_ASSIGNED_CONTEXT ( ( #94 ) ) GLOBAL_UNIT_ASSIGNED_CONTEXT ( ( #157, #106, #221 ) ) REPRESENTATION_CONTEXT ( 'NONE', 'WORKASPACE' ) );
#142 = UNCERTAINTY_MEASURE_WITH_UNIT (LENGTH_MEASURE( 1.000000000000000082E-05 ), #66, 'distance_accuracy_value', 'NONE');
#143 = CARTESIAN_POINT ( 'NONE',  ( 0.000000000000000000, 0.7499999999999998890, 0.000000000000000000 ) ) ;
#144 = EDGE_LOOP ( 'NONE', ( #100, #323 ) ) ;
#145 = VERTEX_POINT ( 'NONE', #185 ) ;
#146 = DIRECTION ( 'NONE',  ( -0.000000000000000000, -1.000000000000000000, -0.000000000000000000 ) ) ;
#147 = STYLED_ITEM ( 'NONE', ( #166 ), #156 ) ;
#148 = ORIENTED_EDGE ( 'NONE', *, *, #294, .T. ) ;
#149 = PRESENTATION_LAYER_ASSIGNMENT (  '', '', ( #77 ) ) ;
#150 = CARTESIAN_POINT ( 'NONE',  ( 0.000000000000000000, 0.000000000000000000, 0.000000000000000000 ) ) ;
#151 = EDGE_LOOP ( 'NONE', ( #288, #325, #264, #126, #319 ) ) ;
#152 = DIRECTION ( 'NONE',  ( 1.000000000000000000, 0.000000000000000000, 0.000000000000000000 ) ) ;
#153 = CARTESIAN_POINT ( 'NONE',  ( 3.827021247335477078E-17, 0.000000000000000000, 0.3124999999999998890 ) ) ;
#154 = DIRECTION ( 'NONE',  ( 1.000000000000000000, 0.000000000000000000, 0.000000000000000000 ) ) ;
#155 = CIRCLE ( 'NONE', #359, 0.3125000000000000000 ) ;
#156 = MANIFOLD_SOLID_BREP ( 'Revolve - Tool Body (Straight Shanked)', #327 ) ;
#157 =( CONVERSION_BASED_UNIT ( 'INCH', #330 ) LENGTH_UNIT ( ) NAMED_UNIT ( #5 ) );
#158 = SURFACE_STYLE_FILL_AREA ( #104 ) ;
#159 = LENGTH_MEASURE_WITH_UNIT ( LENGTH_MEASURE( 0.02539999999999999897 ), #79 );
#160 =( NAMED_UNIT ( * ) SI_UNIT ( $, .STERADIAN. ) SOLID_ANGLE_UNIT ( ) );
#161 = STYLED_ITEM ( 'NONE', ( #344 ), #25 ) ;
#162 = AXIS2_PLACEMENT_3D ( 'NONE', #236, #205, #234 ) ;
#163 = FACE_OUTER_BOUND ( 'NONE', #144, .T. ) ;
#164 = SURFACE_STYLE_USAGE ( .BOTH. , #191 ) ;
#165 = DIRECTION ( 'NONE',  ( 1.000000000000000000, 0.000000000000000000, -1.224646799147353207E-16 ) ) ;
#166 = PRESENTATION_STYLE_ASSIGNMENT (( #137 ) ) ;
#167 = CARTESIAN_POINT ( 'NONE',  ( 3.827021247335477078E-17, 0.7499999999999998890, 0.3124999999999998890 ) ) ;
#168 = MECHANICAL_DESIGN_GEOMETRIC_PRESENTATION_REPRESENTATION (  '', ( #274 ), #245 ) ;
#169 = CIRCLE ( 'NONE', #173, 0.3124999999999994449 ) ;
#170 = FACE_OUTER_BOUND ( 'NONE', #180, .T. ) ;
#171 = CARTESIAN_POINT ( 'NONE',  ( -3.827021247335478926E-17, 0.3125000000000000000, 0.000000000000000000 ) ) ;
#172 = CIRCLE ( 'NONE', #140, 0.3124999999999997224 ) ;
#173 = AXIS2_PLACEMENT_3D ( 'NONE', #335, #281, #203 ) ;
#174 = ADVANCED_FACE ( 'NONE', ( #369 ), #363, .T. ) ;
#175 = SURFACE_STYLE_FILL_AREA ( #99 ) ;
#176 = VERTEX_POINT ( 'NONE', #108 ) ;
#177 = ORIENTED_EDGE ( 'NONE', *, *, #24, .T. ) ;
#178 = VECTOR ( 'NONE', #80, 39.37007874015748143 ) ;
#179 = CIRCLE ( 'NONE', #58, 0.3124999999999994449 ) ;
#180 = EDGE_LOOP ( 'NONE', ( #73, #351 ) ) ;
#181 = ORIENTED_EDGE ( 'NONE', *, *, #24, .F. ) ;
#182 = ADVANCED_FACE ( 'NONE', ( #358 ), #103, .T. ) ;
#183 = LINE ( 'NONE', #129, #206 ) ;
#184 = DIRECTION ( 'NONE',  ( 0.000000000000000000, 0.000000000000000000, -1.000000000000000000 ) ) ;
#185 = CARTESIAN_POINT ( 'NONE',  ( 0.3124999999999998890, 0.7499999999999998890, 3.827021247335475229E-17 ) ) ;
#186 = AXIS2_PLACEMENT_3D ( 'NONE', #188, #271, #361 ) ;
#187 =( GEOMETRIC_REPRESENTATION_CONTEXT ( 3 ) GLOBAL_UNCERTAINTY_ASSIGNED_CONTEXT ( ( #366 ) ) GLOBAL_UNIT_ASSIGNED_CONTEXT ( ( #124, #122, #215 ) ) REPRESENTATION_CONTEXT ( 'NONE', 'WORKASPACE' ) );
#188 = CARTESIAN_POINT ( 'NONE',  ( 0.000000000000000000, 0.000000000000000000, 0.000000000000000000 ) ) ;
#189 = ADVANCED_FACE ( 'NONE', ( #49 ), #130, .F. ) ;
#190 = FILL_AREA_STYLE_COLOUR ( '', #50 ) ;
#191 = SURFACE_SIDE_STYLE ('',( #16 ) ) ;
#192 = COLOUR_RGB ( '',1.000000000000000000, 0.000000000000000000, 0.000000000000000000 ) ;
#193 = SURFACE_STYLE_FILL_AREA ( #276 ) ;
#194 = LENGTH_MEASURE_WITH_UNIT ( LENGTH_MEASURE( 0.02539999999999999897 ), #87 );
#195 =( CONVERSION_BASED_UNIT ( 'INCH', #316 ) LENGTH_UNIT ( ) NAMED_UNIT ( #284 ) );
#196 = CARTESIAN_POINT ( 'NONE',  ( 3.985958094730854598E-16, 0.7499999999999998890, 0.000000000000000000 ) ) ;
#197 =( NAMED_UNIT ( * ) PLANE_ANGLE_UNIT ( ) SI_UNIT ( $, .RADIAN. ) );
#198 = DIRECTION ( 'NONE',  ( 0.000000000000000000, 0.000000000000000000, -1.000000000000000000 ) ) ;
#199 = AXIS2_PLACEMENT_3D ( 'NONE', #98, #322, #232 ) ;
#200 = ADVANCED_FACE ( 'NONE', ( #163 ), #304, .T. ) ;
#201 = CARTESIAN_POINT ( 'NONE',  ( -0.3125000000000000000, 0.3125000000000000555, 3.827021247335477694E-17 ) ) ;
#202 = DIMENSIONAL_EXPONENTS ( 1.000000000000000000, 0.000000000000000000, 0.000000000000000000, 0.000000000000000000, 0.000000000000000000, 0.000000000000000000, 0.000000000000000000 ) ;
#203 = DIRECTION ( 'NONE',  ( -1.000000000000000000, 0.000000000000000000, 0.000000000000000000 ) ) ;
#204 = CARTESIAN_POINT ( 'NONE',  ( 1.224646799147352714E-16, 3.000000000000000444, 0.000000000000000000 ) ) ;
#205 = DIRECTION ( 'NONE',  ( -0.000000000000000000, -1.000000000000000000, -0.000000000000000000 ) ) ;
#206 = VECTOR ( 'NONE', #270, 39.37007874015748143 ) ;
#207 = AXIS2_PLACEMENT_3D ( 'NONE', #368, #136, #257 ) ;
#208 = SURFACE_SIDE_STYLE ('',( #175 ) ) ;
#209 = SURFACE_STYLE_FILL_AREA ( #3 ) ;
#210 = EDGE_LOOP ( 'NONE', ( #241, #298, #12, #39 ) ) ;
#211 =( NAMED_UNIT ( * ) SI_UNIT ( $, .STERADIAN. ) SOLID_ANGLE_UNIT ( ) );
#212 = FILL_AREA_STYLE_COLOUR ( '', #255 ) ;
#213 = ADVANCED_FACE ( 'NONE', ( #116 ), #334, .T. ) ;
#214 = ORIENTED_EDGE ( 'NONE', *, *, #356, .F. ) ;
#215 =( NAMED_UNIT ( * ) SI_UNIT ( $, .STERADIAN. ) SOLID_ANGLE_UNIT ( ) );
#216 =( LENGTH_UNIT ( ) NAMED_UNIT ( * ) SI_UNIT ( $, .METRE. ) );
#217 = DIRECTION ( 'NONE',  ( 1.227249464703778560E-16, -1.000000000000000000, 0.000000000000000000 ) ) ;
#218 =( CONVERSION_BASED_UNIT ( 'INCH', #357 ) LENGTH_UNIT ( ) NAMED_UNIT ( #202 ) );
#219 =( GEOMETRIC_REPRESENTATION_CONTEXT ( 3 ) GLOBAL_UNCERTAINTY_ASSIGNED_CONTEXT ( ( #111 ) ) GLOBAL_UNIT_ASSIGNED_CONTEXT ( ( #218, #222, #248 ) ) REPRESENTATION_CONTEXT ( 'NONE', 'WORKASPACE' ) );
#220 = VECTOR ( 'NONE', #146, 39.37007874015748143 ) ;
#221 =( NAMED_UNIT ( * ) SI_UNIT ( $, .STERADIAN. ) SOLID_ANGLE_UNIT ( ) );
#222 =( NAMED_UNIT ( * ) PLANE_ANGLE_UNIT ( ) SI_UNIT ( $, .RADIAN. ) );
#223 = PRESENTATION_STYLE_ASSIGNMENT (( #364 ) ) ;
#224 = FILL_AREA_STYLE ('',( #190 ) ) ;
#225 =( NAMED_UNIT ( * ) SI_UNIT ( $, .STERADIAN. ) SOLID_ANGLE_UNIT ( ) );
#226 = CARTESIAN_POINT ( 'NONE',  ( -0.3124999999999996114, 3.000000000000000444, 0.000000000000000000 ) ) ;
#227 = FILL_AREA_STYLE_COLOUR ( '', #42 ) ;
#228 = CARTESIAN_POINT ( 'NONE',  ( -3.827021247335478926E-17, 0.3125000000000000000, 0.000000000000000000 ) ) ;
#229 = DIRECTION ( 'NONE',  ( -1.000000000000000000, 0.000000000000000000, 0.000000000000000000 ) ) ;
#230 = STYLED_ITEM ( 'NONE', ( #223 ), #182 ) ;
#231 = CARTESIAN_POINT ( 'NONE',  ( 3.827021247335477694E-17, 0.3125000000000000555, 0.3124999999999999445 ) ) ;
#232 = DIRECTION ( 'NONE',  ( 0.000000000000000000, 0.000000000000000000, -1.000000000000000000 ) ) ;
#233 = SURFACE_STYLE_USAGE ( .BOTH. , #208 ) ;
#234 = DIRECTION ( 'NONE',  ( 0.000000000000000000, 0.000000000000000000, -1.000000000000000000 ) ) ;
#235 = ORIENTED_EDGE ( 'NONE', *, *, #329, .F. ) ;
#236 = CARTESIAN_POINT ( 'NONE',  ( 0.000000000000000000, 0.3125000000000000555, 0.000000000000000000 ) ) ;
#237 = ORIENTED_EDGE ( 'NONE', *, *, #339, .T. ) ;
#238 = SPHERICAL_SURFACE ( 'NONE', #51, 0.3125000000000000000 ) ;
#239 = VERTEX_POINT ( 'NONE', #201 ) ;
#240 = EDGE_CURVE ( 'NONE', #347, #145, #169, .T. ) ;
#241 = ORIENTED_EDGE ( 'NONE', *, *, #240, .T. ) ;
#242 = EDGE_CURVE ( 'NONE', #239, #260, #13, .T. ) ;
#243 = FILL_AREA_STYLE_COLOUR ( '', #314 ) ;
#244 = CARTESIAN_POINT ( 'NONE',  ( 0.3124999999999999445, 0.3125000000000000555, 0.000000000000000000 ) ) ;
#245 =( GEOMETRIC_REPRESENTATION_CONTEXT ( 3 ) GLOBAL_UNCERTAINTY_ASSIGNED_CONTEXT ( ( #343 ) ) GLOBAL_UNIT_ASSIGNED_CONTEXT ( ( #48, #14, #160 ) ) REPRESENTATION_CONTEXT ( 'NONE', 'WORKASPACE' ) );
#246 = PRODUCT_DEFINITION_FORMATION_WITH_SPECIFIED_SOURCE ( 'ANY', '', #31, .NOT_KNOWN. ) ;
#247 =( NAMED_UNIT ( * ) PLANE_ANGLE_UNIT ( ) SI_UNIT ( $, .RADIAN. ) );
#248 =( NAMED_UNIT ( * ) SI_UNIT ( $, .STERADIAN. ) SOLID_ANGLE_UNIT ( ) );
#249 = EDGE_CURVE ( 'NONE', #239, #176, #65, .T. ) ;
#250 = CIRCLE ( 'NONE', #199, 0.3124999999999998890 ) ;
#251 = CARTESIAN_POINT ( 'NONE',  ( 1.224646799147352714E-16, 3.000000000000000444, 0.000000000000000000 ) ) ;
#252 = EDGE_CURVE ( 'NONE', #69, #320, #91, .T. ) ;
#253 = DIRECTION ( 'NONE',  ( -0.000000000000000000, -1.000000000000000000, -0.000000000000000000 ) ) ;
#254 = UNCERTAINTY_MEASURE_WITH_UNIT (LENGTH_MEASURE( 1.000000000000000082E-05 ), #195, 'distance_accuracy_value', 'NONE');
#255 = COLOUR_RGB ( '',0.7921568627450980005, 0.8196078431372548767, 0.9333333333333333481 ) ;
#256 = DIMENSIONAL_EXPONENTS ( 1.000000000000000000, 0.000000000000000000, 0.000000000000000000, 0.000000000000000000, 0.000000000000000000, 0.000000000000000000, 0.000000000000000000 ) ;
#257 = DIRECTION ( 'NONE',  ( 0.000000000000000000, 0.000000000000000000, -1.000000000000000000 ) ) ;
#258 = CARTESIAN_POINT ( 'NONE',  ( 0.000000000000000000, 0.3125000000000000555, -0.3124999999999999445 ) ) ;
#259 = VERTEX_POINT ( 'NONE', #226 ) ;
#260 = VERTEX_POINT ( 'NONE', #258 ) ;
#261 =( LENGTH_UNIT ( ) NAMED_UNIT ( * ) SI_UNIT ( $, .METRE. ) );
#262 = AXIS2_PLACEMENT_3D ( 'NONE', #300, #41, #154 ) ;
#263 = AXIS2_PLACEMENT_3D ( 'NONE', #143, #120, #336 ) ;
#264 = ORIENTED_EDGE ( 'NONE', *, *, #294, .F. ) ;
#265 = VERTEX_POINT ( 'NONE', #231 ) ;
#266 = PRESENTATION_STYLE_ASSIGNMENT (( #297 ) ) ;
#267 = CARTESIAN_POINT ( 'NONE',  ( 1.224646799147352714E-16, 3.000000000000000444, 0.000000000000000000 ) ) ;
#268 =( GEOMETRIC_REPRESENTATION_CONTEXT ( 3 ) GLOBAL_UNCERTAINTY_ASSIGNED_CONTEXT ( ( #332 ) ) GLOBAL_UNIT_ASSIGNED_CONTEXT ( ( #20, #247, #362 ) ) REPRESENTATION_CONTEXT ( 'NONE', 'WORKASPACE' ) );
#269 = CIRCLE ( 'NONE', #275, 0.3124999999999999445 ) ;
#270 = DIRECTION ( 'NONE',  ( -1.227249464703778560E-16, 1.000000000000000000, -0.000000000000000000 ) ) ;
#271 = DIRECTION ( 'NONE',  ( -0.000000000000000000, -1.000000000000000000, -0.000000000000000000 ) ) ;
#272 = CARTESIAN_POINT ( 'NONE',  ( 0.3124999999999997224, 3.000000000000000444, 3.827021247335473996E-17 ) ) ;
#273 = EDGE_CURVE ( 'NONE', #145, #347, #179, .T. ) ;
#274 = STYLED_ITEM ( 'NONE', ( #102 ), #75 ) ;
#275 = AXIS2_PLACEMENT_3D ( 'NONE', #279, #253, #372 ) ;
#276 = FILL_AREA_STYLE ('',( #110 ) ) ;
#277 = DIRECTION ( 'NONE',  ( -1.227249464703778560E-16, 1.000000000000000000, -0.000000000000000000 ) ) ;
#278 = PRESENTATION_STYLE_ASSIGNMENT (( #164 ) ) ;
#279 = CARTESIAN_POINT ( 'NONE',  ( 0.000000000000000000, 0.3125000000000000555, 0.000000000000000000 ) ) ;
#280 = CLOSED_SHELL ( 'NONE', ( #75, #182, #200, #174, #342 ) ) ;
#281 = DIRECTION ( 'NONE',  ( -1.227249464703778560E-16, 1.000000000000000000, -0.000000000000000000 ) ) ;
#282 = FACE_OUTER_BOUND ( 'NONE', #123, .T. ) ;
#283 = CARTESIAN_POINT ( 'NONE',  ( 0.000000000000000000, 0.7499999999999998890, 0.000000000000000000 ) ) ;
#284 = DIMENSIONAL_EXPONENTS ( 1.000000000000000000, 0.000000000000000000, 0.000000000000000000, 0.000000000000000000, 0.000000000000000000, 0.000000000000000000, 0.000000000000000000 ) ;
#285 = STYLED_ITEM ( 'NONE', ( #78 ), #174 ) ;
#286 = FACE_OUTER_BOUND ( 'NONE', #127, .T. ) ;
#287 = PRESENTATION_LAYER_ASSIGNMENT (  '', '', ( #230 ) ) ;
#288 = ORIENTED_EDGE ( 'NONE', *, *, #252, .T. ) ;
#289 = DIRECTION ( 'NONE',  ( 1.000000000000000000, 0.000000000000000000, 0.000000000000000000 ) ) ;
#290 = ORIENTED_EDGE ( 'NONE', *, *, #356, .T. ) ;
#291 = ORIENTED_EDGE ( 'NONE', *, *, #53, .F. ) ;
#292 =( NAMED_UNIT ( * ) PLANE_ANGLE_UNIT ( ) SI_UNIT ( $, .RADIAN. ) );
#293 = CIRCLE ( 'NONE', #337, 0.3124999999999997224 ) ;
#294 = EDGE_CURVE ( 'NONE', #60, #265, #269, .T. ) ;
#295 = AXIS2_PLACEMENT_3D ( 'NONE', #138, #135, #340 ) ;
#296 = ORIENTED_EDGE ( 'NONE', *, *, #242, .F. ) ;
#297 = SURFACE_STYLE_USAGE ( .BOTH. , #10 ) ;
#298 = ORIENTED_EDGE ( 'NONE', *, *, #53, .T. ) ;
#299 = LINE ( 'NONE', #153, #220 ) ;
#300 = CARTESIAN_POINT ( 'NONE',  ( -3.827021247335478926E-17, 0.3125000000000000000, 0.000000000000000000 ) ) ;
#301 = COLOUR_RGB ( '',1.000000000000000000, 0.000000000000000000, 0.000000000000000000 ) ;
#302 = AXIS2_PLACEMENT_3D ( 'NONE', #150, #341, #289 ) ;
#303 = APPLICATION_CONTEXT ( 'automotive_design' ) ;
#304 = PLANE ( 'NONE',  #333 ) ;
#305 = DIRECTION ( 'NONE',  ( -0.000000000000000000, -1.000000000000000000, -0.000000000000000000 ) ) ;
#306 = ADVANCED_FACE ( 'NONE', ( #170 ), #92, .F. ) ;
#307 = CARTESIAN_POINT ( 'NONE',  ( 0.000000000000000000, 0.000000000000000000, 0.000000000000000000 ) ) ;
#308 = SURFACE_STYLE_USAGE ( .BOTH. , #19 ) ;
#309 = SHAPE_DEFINITION_REPRESENTATION ( #346, #36 ) ;
#310 = DIRECTION ( 'NONE',  ( 0.000000000000000000, -0.000000000000000000, 1.000000000000000000 ) ) ;
#311 = PRODUCT_DEFINITION_CONTEXT ( 'detailed design', #9, 'design' ) ;
#312 =( NAMED_UNIT ( * ) PLANE_ANGLE_UNIT ( ) SI_UNIT ( $, .RADIAN. ) );
#313 = SURFACE_STYLE_FILL_AREA ( #371 ) ;
#314 = COLOUR_RGB ( '',0.7921568627450980005, 0.8196078431372548767, 0.9333333333333333481 ) ;
#315 = AXIS2_PLACEMENT_3D ( 'NONE', #139, #1, #198 ) ;
#316 = LENGTH_MEASURE_WITH_UNIT ( LENGTH_MEASURE( 0.02539999999999999897 ), #326 );
#317 = DIRECTION ( 'NONE',  ( -1.000000000000000000, 0.000000000000000000, 0.000000000000000000 ) ) ;
#318 = ADVANCED_FACE ( 'NONE', ( #282 ), #118, .T. ) ;
#319 = ORIENTED_EDGE ( 'NONE', *, *, #125, .F. ) ;
#320 = VERTEX_POINT ( 'NONE', #167 ) ;
#321 = CARTESIAN_POINT ( 'NONE',  ( 0.3124999999999998890, 3.000000000000000444, 3.827021247335475229E-17 ) ) ;
#322 = DIRECTION ( 'NONE',  ( -0.000000000000000000, -1.000000000000000000, -0.000000000000000000 ) ) ;
#323 = ORIENTED_EDGE ( 'NONE', *, *, #373, .F. ) ;
#324 = CIRCLE ( 'NONE', #207, 0.3124999999999999445 ) ;
#325 = ORIENTED_EDGE ( 'NONE', *, *, #360, .T. ) ;
#326 =( LENGTH_UNIT ( ) NAMED_UNIT ( * ) SI_UNIT ( $, .METRE. ) );
#327 = CLOSED_SHELL ( 'NONE', ( #213, #306, #318, #189 ) ) ;
#328 = LINE ( 'NONE', #76, #27 ) ;
#329 = EDGE_CURVE ( 'NONE', #60, #176, #155, .T. ) ;
#330 = LENGTH_MEASURE_WITH_UNIT ( LENGTH_MEASURE( 0.02539999999999999897 ), #133 );
#331 = LENGTH_MEASURE_WITH_UNIT ( LENGTH_MEASURE( 0.02539999999999999897 ), #82 );
#332 = UNCERTAINTY_MEASURE_WITH_UNIT (LENGTH_MEASURE( 1.000000000000000082E-05 ), #20, 'distance_accuracy_value', 'NONE');
#333 = AXIS2_PLACEMENT_3D ( 'NONE', #283, #26, #310 ) ;
#334 = CYLINDRICAL_SURFACE ( 'NONE', #34, 0.3124999999999996114 ) ;
#335 = CARTESIAN_POINT ( 'NONE',  ( 3.985958094730854598E-16, 0.7499999999999998890, 0.000000000000000000 ) ) ;
#336 = DIRECTION ( 'NONE',  ( 0.000000000000000000, 0.000000000000000000, -1.000000000000000000 ) ) ;
#337 = AXIS2_PLACEMENT_3D ( 'NONE', #204, #277, #107 ) ;
#338 =( GEOMETRIC_REPRESENTATION_CONTEXT ( 3 ) GLOBAL_UNCERTAINTY_ASSIGNED_CONTEXT ( ( #254 ) ) GLOBAL_UNIT_ASSIGNED_CONTEXT ( ( #195, #312, #23 ) ) REPRESENTATION_CONTEXT ( 'NONE', 'WORKASPACE' ) );
#339 = EDGE_CURVE ( 'NONE', #260, #60, #324, .T. ) ;
#340 = DIRECTION ( 'NONE',  ( -1.000000000000000000, -1.227249464703778560E-16, 0.000000000000000000 ) ) ;
#341 = DIRECTION ( 'NONE',  ( 0.000000000000000000, 0.000000000000000000, 1.000000000000000000 ) ) ;
#342 = ADVANCED_FACE ( 'NONE', ( #286 ), #238, .T. ) ;
#343 = UNCERTAINTY_MEASURE_WITH_UNIT (LENGTH_MEASURE( 1.000000000000000082E-05 ), #48, 'distance_accuracy_value', 'NONE');
#344 = PRESENTATION_STYLE_ASSIGNMENT (( #233 ) ) ;
#345 = COLOUR_RGB ( '',1.000000000000000000, 0.000000000000000000, 0.000000000000000000 ) ;
#346 = PRODUCT_DEFINITION_SHAPE ( 'NONE', 'NONE',  #112 ) ;
#347 = VERTEX_POINT ( 'NONE', #93 ) ;
#348 = ORIENTED_EDGE ( 'NONE', *, *, #360, .F. ) ;
#349 = PRODUCT_RELATED_PRODUCT_CATEGORY ( 'part', '', ( #31 ) ) ;
#350 =( LENGTH_UNIT ( ) NAMED_UNIT ( * ) SI_UNIT ( $, .METRE. ) );
#351 = ORIENTED_EDGE ( 'NONE', *, *, #273, .F. ) ;
#352 = LENGTH_MEASURE_WITH_UNIT ( LENGTH_MEASURE( 0.02539999999999999897 ), #350 );
#353 = PRESENTATION_LAYER_ASSIGNMENT (  '', '', ( #274 ) ) ;
#354 = AXIS2_PLACEMENT_3D ( 'NONE', #83, #217, #81 ) ;
#355 = DIRECTION ( 'NONE',  ( -1.000000000000000000, 0.000000000000000000, 0.000000000000000000 ) ) ;
#356 = EDGE_CURVE ( 'NONE', #265, #239, #119, .T. ) ;
#357 = LENGTH_MEASURE_WITH_UNIT ( LENGTH_MEASURE( 0.02539999999999999897 ), #216 );
#358 = FACE_OUTER_BOUND ( 'NONE', #151, .T. ) ;
#359 = AXIS2_PLACEMENT_3D ( 'NONE', #171, #115, #317 ) ;
#360 = EDGE_CURVE ( 'NONE', #320, #265, #299, .T. ) ;
#361 = DIRECTION ( 'NONE',  ( 0.000000000000000000, 0.000000000000000000, -1.000000000000000000 ) ) ;
#362 =( NAMED_UNIT ( * ) SI_UNIT ( $, .STERADIAN. ) SOLID_ANGLE_UNIT ( ) );
#363 = CYLINDRICAL_SURFACE ( 'NONE', #186, 0.3124999999999998890 ) ;
#364 = SURFACE_STYLE_USAGE ( .BOTH. , #47 ) ;
#365 = MECHANICAL_DESIGN_GEOMETRIC_PRESENTATION_REPRESENTATION (  '', ( #147 ), #89 ) ;
#366 = UNCERTAINTY_MEASURE_WITH_UNIT (LENGTH_MEASURE( 1.000000000000000082E-05 ), #124, 'distance_accuracy_value', 'NONE');
#367 = AXIS2_PLACEMENT_3D ( 'NONE', #307, #43, #184 ) ;
#368 = CARTESIAN_POINT ( 'NONE',  ( 0.000000000000000000, 0.3125000000000000555, 0.000000000000000000 ) ) ;
#369 = FACE_OUTER_BOUND ( 'NONE', #37, .T. ) ;
#370 = DIRECTION ( 'NONE',  ( -1.000000000000000000, 0.000000000000000000, 0.000000000000000000 ) ) ;
#371 = FILL_AREA_STYLE ('',( #46 ) ) ;
#372 = DIRECTION ( 'NONE',  ( 0.000000000000000000, 0.000000000000000000, -1.000000000000000000 ) ) ;
#373 = EDGE_CURVE ( 'NONE', #320, #69, #250, .T. ) ;
ENDSEC;
END-ISO-10303-21;
