ISO-10303-21;
HEADER;
FILE_DESCRIPTION (( 'STEP AP214' ),
    '1' );
FILE_NAME ('Micro_AEMM-015-3.STEP',
    '2022-03-15T14:22:46',
    ( '' ),
    ( '' ),
    'SwSTEP 2.0',
    'SolidWorks 2022',
    '' );
FILE_SCHEMA (( 'AUTOMOTIVE_DESIGN' ));
ENDSEC;

DATA;
#1 = VERTEX_POINT ( 'NONE', #248 ) ;
#2 = ORIENTED_EDGE ( 'NONE', *, *, #3, .T. ) ;
#3 = EDGE_CURVE ( 'NONE', #231, #136, #244, .T. ) ;
#4 = CARTESIAN_POINT ( 'NONE',  ( 0.000000000000000000, 0.000000000000000000, 1.968503999999999809 ) ) ;
#5 = FACE_OUTER_BOUND ( 'NONE', #183, .T. ) ;
#6 = DIRECTION ( 'NONE',  ( -1.000000000000000000, 0.000000000000000000, 0.000000000000000000 ) ) ;
#7 = CARTESIAN_POINT ( 'NONE',  ( 0.000000000000000000, 0.000000000000000000, 1.968503999999999809 ) ) ;
#8 =( NAMED_UNIT ( * ) PLANE_ANGLE_UNIT ( ) SI_UNIT ( $, .RADIAN. ) );
#9 = ORIENTED_EDGE ( 'NONE', *, *, #87, .F. ) ;
#10 = CARTESIAN_POINT ( 'NONE',  ( 0.07874000000000004607, 9.642868896486264672E-18, 0.4367454153218638391 ) ) ;
#11 = VECTOR ( 'NONE', #288, 39.37007874015748143 ) ;
#12 = CARTESIAN_POINT ( 'NONE',  ( 0.000000000000000000, 0.000000000000000000, 1.953504000000000129 ) ) ;
#13 = EDGE_CURVE ( 'NONE', #136, #231, #142, .T. ) ;
#14 = AXIS2_PLACEMENT_3D ( 'NONE', #213, #97, #135 ) ;
#15 = DIRECTION ( 'NONE',  ( -1.000000000000000000, 0.000000000000000000, 0.000000000000000000 ) ) ;
#16 = SURFACE_STYLE_FILL_AREA ( #246 ) ;
#17 = AXIS2_PLACEMENT_3D ( 'NONE', #7, #237, #140 ) ;
#18 = CARTESIAN_POINT ( 'NONE',  ( 0.02949797250000001092, 0.000000000000000000, 0.1574800000000000089 ) ) ;
#19 = CARTESIAN_POINT ( 'NONE',  ( 0.000000000000000000, 0.000000000000000000, 0.000000000000000000 ) ) ;
#20 = CLOSED_SHELL ( 'NONE', ( #47, #84, #219, #255, #134, #153, #171, #295, #197, #38 ) ) ;
#21 = ORIENTED_EDGE ( 'NONE', *, *, #247, .F. ) ;
#22 = ORIENTED_EDGE ( 'NONE', *, *, #247, .T. ) ;
#23 = EDGE_CURVE ( 'NONE', #158, #69, #267, .T. ) ;
#24 = ORIENTED_EDGE ( 'NONE', *, *, #272, .T. ) ;
#25 = CARTESIAN_POINT ( 'NONE',  ( -0.07873999999999994892, 0.000000000000000000, 0.4367454153218638391 ) ) ;
#26 = DIRECTION ( 'NONE',  ( 1.000000000000000000, 0.000000000000000000, 0.000000000000000000 ) ) ;
#27 = ORIENTED_EDGE ( 'NONE', *, *, #55, .T. ) ;
#28 = EDGE_LOOP ( 'NONE', ( #206, #226, #208, #117 ) ) ;
#29 = FACE_OUTER_BOUND ( 'NONE', #188, .T. ) ;
#30 = DIRECTION ( 'NONE',  ( -1.000000000000000000, 0.000000000000000000, 1.224646799147352961E-16 ) ) ;
#31 = CARTESIAN_POINT ( 'NONE',  ( 0.000000000000000000, 0.000000000000000000, 0.000000000000000000 ) ) ;
#32 = DIRECTION ( 'NONE',  ( 0.000000000000000000, 0.000000000000000000, -1.000000000000000000 ) ) ;
#33 = CARTESIAN_POINT ( 'NONE',  ( -0.02949797249999999357, 0.000000000000000000, 3.612459760346164074E-18 ) ) ;
#34 = PRESENTATION_LAYER_ASSIGNMENT (  '', '', ( #299 ) ) ;
#35 = AXIS2_PLACEMENT_3D ( 'NONE', #167, #145, #128 ) ;
#36 = UNCERTAINTY_MEASURE_WITH_UNIT (LENGTH_MEASURE( 1.000000000000000082E-05 ), #241, 'distance_accuracy_value', 'NONE');
#37 = MANIFOLD_SOLID_BREP ( 'Cut-Revolve1', #20 ) ;
#38 = ADVANCED_FACE ( 'NONE', ( #29 ), #175, .F. ) ;
#39 = DIMENSIONAL_EXPONENTS ( 1.000000000000000000, 0.000000000000000000, 0.000000000000000000, 0.000000000000000000, 0.000000000000000000, 0.000000000000000000, 0.000000000000000000 ) ;
#40 = DIRECTION ( 'NONE',  ( 0.000000000000000000, 0.000000000000000000, 1.000000000000000000 ) ) ;
#41 = AXIS2_PLACEMENT_3D ( 'NONE', #184, #284, #270 ) ;
#42 = AXIS2_PLACEMENT_3D ( 'NONE', #86, #40, #243 ) ;
#43 = SURFACE_STYLE_USAGE ( .BOTH. , #149 ) ;
#44 = VECTOR ( 'NONE', #108, 39.37007874015748854 ) ;
#45 = CARTESIAN_POINT ( 'NONE',  ( 1.928573779297251702E-17, 0.000000000000000000, 0.1574800000000000089 ) ) ;
#46 = CIRCLE ( 'NONE', #109, 0.07874000000000000443 ) ;
#47 = ADVANCED_FACE ( 'NONE', ( #298 ), #254, .T. ) ;
#48 = ORIENTED_EDGE ( 'NONE', *, *, #106, .T. ) ;
#49 = LINE ( 'NONE', #273, #257 ) ;
#50 = FACE_OUTER_BOUND ( 'NONE', #289, .T. ) ;
#51 = DIRECTION ( 'NONE',  ( 0.1736481776669313859, 0.000000000000000000, 0.9848077530122077983 ) ) ;
#52 = FACE_OUTER_BOUND ( 'NONE', #154, .T. ) ;
#53 = CARTESIAN_POINT ( 'NONE',  ( -0.06374000000000018540, 0.000000000000000000, 1.968503999999999809 ) ) ;
#54 = CONICAL_SURFACE ( 'NONE', #64, 0.06374000000000018540, 0.7853981633974522758 ) ;
#55 = EDGE_CURVE ( 'NONE', #231, #207, #179, .T. ) ;
#56 = VECTOR ( 'NONE', #233, 39.37007874015748143 ) ;
#57 = LENGTH_MEASURE_WITH_UNIT ( LENGTH_MEASURE( 0.02539999999999999897 ), #196 );
#58 = CARTESIAN_POINT ( 'NONE',  ( 0.06374000000000018540, 7.805898697765251255E-18, 1.968503999999999809 ) ) ;
#59 = DIRECTION ( 'NONE',  ( -1.224646799147353207E-16, -0.000000000000000000, -1.000000000000000000 ) ) ;
#60 = COLOUR_RGB ( '',0.7921568627450980005, 0.8196078431372548767, 0.9333333333333333481 ) ;
#61 = PRODUCT_CONTEXT ( 'NONE', #195, 'mechanical' ) ;
#62 = STYLED_ITEM ( 'NONE', ( #266 ), #245 ) ;
#63 = EDGE_CURVE ( 'NONE', #136, #259, #285, .T. ) ;
#64 = AXIS2_PLACEMENT_3D ( 'NONE', #256, #127, #6 ) ;
#65 = DIRECTION ( 'NONE',  ( -1.224646799147353207E-16, -0.000000000000000000, -1.000000000000000000 ) ) ;
#66 = EDGE_LOOP ( 'NONE', ( #281, #74, #71, #73 ) ) ;
#67 = CARTESIAN_POINT ( 'NONE',  ( -0.02949797249999996929, 3.612459760346163304E-18, 0.1574800000000000089 ) ) ;
#68 = ORIENTED_EDGE ( 'NONE', *, *, #180, .T. ) ;
#69 = VERTEX_POINT ( 'NONE', #126 ) ;
#70 = AXIS2_PLACEMENT_3D ( 'NONE', #101, #32, #77 ) ;
#71 = ORIENTED_EDGE ( 'NONE', *, *, #87, .T. ) ;
#72 = DIRECTION ( 'NONE',  ( 0.000000000000000000, 0.000000000000000000, -1.000000000000000000 ) ) ;
#73 = ORIENTED_EDGE ( 'NONE', *, *, #139, .F. ) ;
#74 = ORIENTED_EDGE ( 'NONE', *, *, #238, .T. ) ;
#75 = CARTESIAN_POINT ( 'NONE',  ( 5.348588749162019150E-17, 0.000000000000000000, 0.4367454153218638391 ) ) ;
#76 = ORIENTED_EDGE ( 'NONE', *, *, #160, .F. ) ;
#77 = DIRECTION ( 'NONE',  ( 1.000000000000000000, 0.000000000000000000, 0.000000000000000000 ) ) ;
#78 = DIRECTION ( 'NONE',  ( -0.000000000000000000, -0.000000000000000000, -1.000000000000000000 ) ) ;
#79 = ORIENTED_EDGE ( 'NONE', *, *, #23, .T. ) ;
#80 = LINE ( 'NONE', #33, #56 ) ;
#81 = UNCERTAINTY_MEASURE_WITH_UNIT (LENGTH_MEASURE( 1.000000000000000082E-05 ), #212, 'distance_accuracy_value', 'NONE');
#82 = DIRECTION ( 'NONE',  ( 1.224646799147353207E-16, 0.000000000000000000, 1.000000000000000000 ) ) ;
#83 = DIMENSIONAL_EXPONENTS ( 1.000000000000000000, 0.000000000000000000, 0.000000000000000000, 0.000000000000000000, 0.000000000000000000, 0.000000000000000000, 0.000000000000000000 ) ;
#84 = ADVANCED_FACE ( 'NONE', ( #205 ), #274, .T. ) ;
#85 = CIRCLE ( 'NONE', #114, 0.07874000000000000443 ) ;
#86 = CARTESIAN_POINT ( 'NONE',  ( 0.000000000000000000, 0.000000000000000000, 0.000000000000000000 ) ) ;
#87 = EDGE_CURVE ( 'NONE', #253, #207, #144, .T. ) ;
#88 = VECTOR ( 'NONE', #235, 39.37007874015747433 ) ;
#89 = LENGTH_MEASURE_WITH_UNIT ( LENGTH_MEASURE( 0.02539999999999999897 ), #236 );
#90 = EDGE_LOOP ( 'NONE', ( #230, #116, #202, #249 ) ) ;
#91 = PRODUCT ( 'Micro_AEMM-015-3', 'Micro_AEMM-015-3', '', ( #61 ) ) ;
#92 = EDGE_LOOP ( 'NONE', ( #250, #27, #100, #125 ) ) ;
#93 = CARTESIAN_POINT ( 'NONE',  ( -0.07874000000000000443, 0.000000000000000000, 1.953504000000000129 ) ) ;
#94 = PLANE ( 'NONE',  #41 ) ;
#95 = DIRECTION ( 'NONE',  ( -1.000000000000000000, 0.000000000000000000, 1.224646799147353207E-16 ) ) ;
#96 = EDGE_CURVE ( 'NONE', #136, #1, #49, .T. ) ;
#97 = DIRECTION ( 'NONE',  ( 1.224646799147353207E-16, 0.000000000000000000, 1.000000000000000000 ) ) ;
#98 = DIRECTION ( 'NONE',  ( -1.000000000000000000, 0.000000000000000000, 0.000000000000000000 ) ) ;
#99 = LINE ( 'NONE', #225, #279 ) ;
#100 = ORIENTED_EDGE ( 'NONE', *, *, #123, .T. ) ;
#101 = CARTESIAN_POINT ( 'NONE',  ( 0.000000000000000000, 0.000000000000000000, 1.953504000000000129 ) ) ;
#102 = AXIS2_PLACEMENT_3D ( 'NONE', #45, #176, #242 ) ;
#103 = FACE_OUTER_BOUND ( 'NONE', #90, .T. ) ;
#104 = MECHANICAL_DESIGN_GEOMETRIC_PRESENTATION_REPRESENTATION (  '', ( #62 ), #277 ) ;
#105 =( NAMED_UNIT ( * ) SI_UNIT ( $, .STERADIAN. ) SOLID_ANGLE_UNIT ( ) );
#106 = EDGE_CURVE ( 'NONE', #69, #259, #99, .T. ) ;
#107 = CIRCLE ( 'NONE', #70, 0.07874000000000000443 ) ;
#108 = DIRECTION ( 'NONE',  ( 0.7071067811865502373, 8.659560562354966138E-17, -0.7071067811865446862 ) ) ;
#109 = AXIS2_PLACEMENT_3D ( 'NONE', #296, #65, #211 ) ;
#110 = AXIS2_PLACEMENT_3D ( 'NONE', #262, #82, #229 ) ;
#111 = PRESENTATION_STYLE_ASSIGNMENT (( #43 ) ) ;
#112 = DIRECTION ( 'NONE',  ( 0.000000000000000000, 0.000000000000000000, 1.000000000000000000 ) ) ;
#113 = CARTESIAN_POINT ( 'NONE',  ( 0.02949797250000001092, 0.000000000000000000, 0.1574800000000000089 ) ) ;
#114 = AXIS2_PLACEMENT_3D ( 'NONE', #75, #232, #26 ) ;
#115 = ORIENTED_EDGE ( 'NONE', *, *, #123, .F. ) ;
#116 = ORIENTED_EDGE ( 'NONE', *, *, #13, .T. ) ;
#117 = ORIENTED_EDGE ( 'NONE', *, *, #139, .T. ) ;
#118 = EDGE_LOOP ( 'NONE', ( #2, #162, #177, #161 ) ) ;
#119 = DIRECTION ( 'NONE',  ( 1.000000000000000000, 0.000000000000000000, 0.000000000000000000 ) ) ;
#120 = ORIENTED_EDGE ( 'NONE', *, *, #224, .T. ) ;
#121 = ORIENTED_EDGE ( 'NONE', *, *, #238, .F. ) ;
#122 = CYLINDRICAL_SURFACE ( 'NONE', #166, 0.07874000000000000443 ) ;
#123 = EDGE_CURVE ( 'NONE', #207, #259, #85, .T. ) ;
#124 = LENGTH_MEASURE_WITH_UNIT ( LENGTH_MEASURE( 0.02539999999999999897 ), #252 );
#125 = ORIENTED_EDGE ( 'NONE', *, *, #63, .F. ) ;
#126 = CARTESIAN_POINT ( 'NONE',  ( 0.07874000000000000443, 9.642868896486258509E-18, 1.953504000000000129 ) ) ;
#127 = DIRECTION ( 'NONE',  ( 0.000000000000000000, 0.000000000000000000, -1.000000000000000000 ) ) ;
#128 = DIRECTION ( 'NONE',  ( -1.000000000000000000, 0.000000000000000000, 0.000000000000000000 ) ) ;
#129 = DIRECTION ( 'NONE',  ( -1.224646799147353207E-16, -0.000000000000000000, -1.000000000000000000 ) ) ;
#130 = AXIS2_PLACEMENT_3D ( 'NONE', #4, #290, #98 ) ;
#131 = FILL_AREA_STYLE ('',( #240 ) ) ;
#132 = VECTOR ( 'NONE', #51, 39.37007874015748143 ) ;
#133 = APPLICATION_PROTOCOL_DEFINITION ( 'draft international standard', 'automotive_design', 1998, #169 ) ;
#134 = ADVANCED_FACE ( 'NONE', ( #203 ), #122, .T. ) ;
#135 = DIRECTION ( 'NONE',  ( 1.000000000000000000, 0.000000000000000000, 0.000000000000000000 ) ) ;
#136 = VERTEX_POINT ( 'NONE', #18 ) ;
#137 = ORIENTED_EDGE ( 'NONE', *, *, #160, .T. ) ;
#138 =( CONVERSION_BASED_UNIT ( 'INCH', #89 ) LENGTH_UNIT ( ) NAMED_UNIT ( #83 ) );
#139 = EDGE_CURVE ( 'NONE', #259, #207, #46, .T. ) ;
#140 = DIRECTION ( 'NONE',  ( 1.000000000000000000, 0.000000000000000000, 0.000000000000000000 ) ) ;
#141 = DIRECTION ( 'NONE',  ( -1.000000000000000000, 0.000000000000000000, 1.224646799147353207E-16 ) ) ;
#142 = CIRCLE ( 'NONE', #269, 0.02949797249999999010 ) ;
#143 = CARTESIAN_POINT ( 'NONE',  ( 0.000000000000000000, 0.000000000000000000, 0.000000000000000000 ) ) ;
#144 = LINE ( 'NONE', #185, #11 ) ;
#145 = DIRECTION ( 'NONE',  ( -0.000000000000000000, -0.000000000000000000, -1.000000000000000000 ) ) ;
#146 = CARTESIAN_POINT ( 'NONE',  ( 0.000000000000000000, 0.000000000000000000, 1.968503999999999809 ) ) ;
#147 =( NAMED_UNIT ( * ) SI_UNIT ( $, .STERADIAN. ) SOLID_ANGLE_UNIT ( ) );
#148 = CIRCLE ( 'NONE', #174, 0.06374000000000018540 ) ;
#149 = SURFACE_SIDE_STYLE ('',( #16 ) ) ;
#150 = PRODUCT_DEFINITION_CONTEXT ( 'detailed design', #169, 'design' ) ;
#151 = APPLICATION_PROTOCOL_DEFINITION ( 'draft international standard', 'automotive_design', 1998, #195 ) ;
#152 = AXIS2_PLACEMENT_3D ( 'NONE', #143, #186, #95 ) ;
#153 = ADVANCED_FACE ( 'NONE', ( #5 ), #94, .T. ) ;
#154 = EDGE_LOOP ( 'NONE', ( #227, #79, #297, #76 ) ) ;
#155 = ORIENTED_EDGE ( 'NONE', *, *, #23, .F. ) ;
#156 = PRODUCT_DEFINITION_FORMATION_WITH_SPECIFIED_SOURCE ( 'ANY', '', #91, .NOT_KNOWN. ) ;
#157 = VERTEX_POINT ( 'NONE', #292 ) ;
#158 = VERTEX_POINT ( 'NONE', #265 ) ;
#159 = CIRCLE ( 'NONE', #287, 0.02949797250000000398 ) ;
#160 = EDGE_CURVE ( 'NONE', #178, #253, #181, .T. ) ;
#161 = ORIENTED_EDGE ( 'NONE', *, *, #283, .F. ) ;
#162 = ORIENTED_EDGE ( 'NONE', *, *, #96, .T. ) ;
#163 = DIRECTION ( 'NONE',  ( 1.000000000000000000, 0.000000000000000000, -0.000000000000000000 ) ) ;
#164 = CYLINDRICAL_SURFACE ( 'NONE', #152, 0.02949797249999999357 ) ;
#165 = DIRECTION ( 'NONE',  ( -1.224646799147353207E-16, -0.000000000000000000, -1.000000000000000000 ) ) ;
#166 = AXIS2_PLACEMENT_3D ( 'NONE', #258, #78, #261 ) ;
#167 = CARTESIAN_POINT ( 'NONE',  ( 0.000000000000000000, 0.000000000000000000, 1.968503999999999809 ) ) ;
#168 = EDGE_LOOP ( 'NONE', ( #24, #48, #115, #9 ) ) ;
#169 = APPLICATION_CONTEXT ( 'automotive_design' ) ;
#170 = FACE_OUTER_BOUND ( 'NONE', #28, .T. ) ;
#171 = ADVANCED_FACE ( 'NONE', ( #50 ), #294, .T. ) ;
#172 = SURFACE_SIDE_STYLE ('',( #221 ) ) ;
#173 = CARTESIAN_POINT ( 'NONE',  ( 1.928573779297251702E-17, 0.000000000000000000, 0.1574800000000000089 ) ) ;
#174 = AXIS2_PLACEMENT_3D ( 'NONE', #146, #282, #209 ) ;
#175 = PLANE ( 'NONE',  #189 ) ;
#176 = DIRECTION ( 'NONE',  ( -1.224646799147353207E-16, -0.000000000000000000, -1.000000000000000000 ) ) ;
#177 = ORIENTED_EDGE ( 'NONE', *, *, #204, .F. ) ;
#178 = VERTEX_POINT ( 'NONE', #53 ) ;
#179 = LINE ( 'NONE', #67, #88 ) ;
#180 = EDGE_CURVE ( 'NONE', #158, #178, #148, .T. ) ;
#181 = LINE ( 'NONE', #192, #198 ) ;
#182 = AXIS2_PLACEMENT_3D ( 'NONE', #12, #72, #119 ) ;
#183 = EDGE_LOOP ( 'NONE', ( #22, #68 ) ) ;
#184 = CARTESIAN_POINT ( 'NONE',  ( 0.000000000000000000, 0.000000000000000000, 1.968503999999999809 ) ) ;
#185 = CARTESIAN_POINT ( 'NONE',  ( -0.07874000000000000443, 0.000000000000000000, 1.968503999999999809 ) ) ;
#186 = DIRECTION ( 'NONE',  ( -1.224646799147353207E-16, -0.000000000000000000, -1.000000000000000000 ) ) ;
#187 = DIRECTION ( 'NONE',  ( -0.000000000000000000, -0.000000000000000000, -1.000000000000000000 ) ) ;
#188 = EDGE_LOOP ( 'NONE', ( #216, #120 ) ) ;
#189 = AXIS2_PLACEMENT_3D ( 'NONE', #19, #112, #163 ) ;
#190 = DIRECTION ( 'NONE',  ( -0.7071067811865502373, 0.000000000000000000, -0.7071067811865446862 ) ) ;
#191 = UNCERTAINTY_MEASURE_WITH_UNIT (LENGTH_MEASURE( 1.000000000000000082E-05 ), #138, 'distance_accuracy_value', 'NONE');
#192 = CARTESIAN_POINT ( 'NONE',  ( -0.06374000000000018540, 0.000000000000000000, 1.968503999999999809 ) ) ;
#193 = PRODUCT_DEFINITION ( 'UNKNOWN', '', #156, #150 ) ;
#194 = COLOUR_RGB ( '',0.7921568627450980005, 0.8196078431372548767, 0.9333333333333333481 ) ;
#195 = APPLICATION_CONTEXT ( 'automotive_design' ) ;
#196 =( LENGTH_UNIT ( ) NAMED_UNIT ( * ) SI_UNIT ( $, .METRE. ) );
#197 = ADVANCED_FACE ( 'NONE', ( #103 ), #164, .T. ) ;
#198 = VECTOR ( 'NONE', #190, 39.37007874015748854 ) ;
#199 = PRODUCT_RELATED_PRODUCT_CATEGORY ( 'part', '', ( #91 ) ) ;
#200 = CIRCLE ( 'NONE', #234, 0.02949797250000000398 ) ;
#201 = CONICAL_SURFACE ( 'NONE', #110, 0.02949797249999999010, 0.1745329251994338915 ) ;
#202 = ORIENTED_EDGE ( 'NONE', *, *, #283, .T. ) ;
#203 = FACE_OUTER_BOUND ( 'NONE', #66, .T. ) ;
#204 = EDGE_CURVE ( 'NONE', #157, #1, #159, .T. ) ;
#205 = FACE_OUTER_BOUND ( 'NONE', #92, .T. ) ;
#206 = ORIENTED_EDGE ( 'NONE', *, *, #55, .F. ) ;
#207 = VERTEX_POINT ( 'NONE', #25 ) ;
#208 = ORIENTED_EDGE ( 'NONE', *, *, #63, .T. ) ;
#209 = DIRECTION ( 'NONE',  ( 1.000000000000000000, 0.000000000000000000, 0.000000000000000000 ) ) ;
#210 = AXIS2_PLACEMENT_3D ( 'NONE', #31, #215, #141 ) ;
#211 = DIRECTION ( 'NONE',  ( 1.000000000000000000, 0.000000000000000000, 0.000000000000000000 ) ) ;
#212 =( CONVERSION_BASED_UNIT ( 'INCH', #124 ) LENGTH_UNIT ( ) NAMED_UNIT ( #264 ) );
#213 = CARTESIAN_POINT ( 'NONE',  ( 1.928573779297251702E-17, 0.000000000000000000, 0.1574800000000000089 ) ) ;
#214 = CARTESIAN_POINT ( 'NONE',  ( -0.02949797249999996929, 6.627664328416210521E-18, 0.1574800000000000089 ) ) ;
#215 = DIRECTION ( 'NONE',  ( -1.224646799147353207E-16, -0.000000000000000000, -1.000000000000000000 ) ) ;
#216 = ORIENTED_EDGE ( 'NONE', *, *, #204, .T. ) ;
#217 = CARTESIAN_POINT ( 'NONE',  ( 4.423987282556545948E-34, 0.000000000000000000, 3.612459760346164844E-18 ) ) ;
#218 = CARTESIAN_POINT ( 'NONE',  ( 4.423987282556545948E-34, 0.000000000000000000, 3.612459760346164844E-18 ) ) ;
#219 = ADVANCED_FACE ( 'NONE', ( #52 ), #54, .T. ) ;
#220 =( NAMED_UNIT ( * ) PLANE_ANGLE_UNIT ( ) SI_UNIT ( $, .RADIAN. ) );
#221 = SURFACE_STYLE_FILL_AREA ( #131 ) ;
#222 =( NAMED_UNIT ( * ) PLANE_ANGLE_UNIT ( ) SI_UNIT ( $, .RADIAN. ) );
#223 = MECHANICAL_DESIGN_GEOMETRIC_PRESENTATION_REPRESENTATION (  '', ( #299 ), #251 ) ;
#224 = EDGE_CURVE ( 'NONE', #1, #157, #200, .T. ) ;
#225 = CARTESIAN_POINT ( 'NONE',  ( 0.07874000000000000443, 9.642868896486258509E-18, 1.968503999999999809 ) ) ;
#226 = ORIENTED_EDGE ( 'NONE', *, *, #13, .F. ) ;
#227 = ORIENTED_EDGE ( 'NONE', *, *, #180, .F. ) ;
#228 = PRESENTATION_LAYER_ASSIGNMENT (  '', '', ( #62 ) ) ;
#229 = DIRECTION ( 'NONE',  ( 1.000000000000000000, 0.000000000000000000, 0.000000000000000000 ) ) ;
#230 = ORIENTED_EDGE ( 'NONE', *, *, #96, .F. ) ;
#231 = VERTEX_POINT ( 'NONE', #214 ) ;
#232 = DIRECTION ( 'NONE',  ( -1.224646799147353207E-16, -0.000000000000000000, -1.000000000000000000 ) ) ;
#233 = DIRECTION ( 'NONE',  ( -1.224646799147353207E-16, -0.000000000000000000, -1.000000000000000000 ) ) ;
#234 = AXIS2_PLACEMENT_3D ( 'NONE', #218, #291, #286 ) ;
#235 = DIRECTION ( 'NONE',  ( -0.1736481776669311916, 2.126576849575783316E-17, 0.9848077530122080203 ) ) ;
#236 =( LENGTH_UNIT ( ) NAMED_UNIT ( * ) SI_UNIT ( $, .METRE. ) );
#237 = DIRECTION ( 'NONE',  ( 0.000000000000000000, 0.000000000000000000, 1.000000000000000000 ) ) ;
#238 = EDGE_CURVE ( 'NONE', #69, #253, #107, .T. ) ;
#239 = CIRCLE ( 'NONE', #17, 0.06374000000000018540 ) ;
#240 = FILL_AREA_STYLE_COLOUR ( '', #194 ) ;
#241 =( CONVERSION_BASED_UNIT ( 'INCH', #57 ) LENGTH_UNIT ( ) NAMED_UNIT ( #39 ) );
#242 = DIRECTION ( 'NONE',  ( -1.000000000000000000, 0.000000000000000000, 0.000000000000000000 ) ) ;
#243 = DIRECTION ( 'NONE',  ( 1.000000000000000000, 0.000000000000000000, 0.000000000000000000 ) ) ;
#244 = CIRCLE ( 'NONE', #102, 0.02949797249999999010 ) ;
#245 = ADVANCED_BREP_SHAPE_REPRESENTATION ( 'Micro_AEMM-015-3', ( #37, #42 ), #276 ) ;
#246 = FILL_AREA_STYLE ('',( #271 ) ) ;
#247 = EDGE_CURVE ( 'NONE', #178, #158, #239, .T. ) ;
#248 = CARTESIAN_POINT ( 'NONE',  ( 0.02949797250000000745, 3.612459760346164844E-18, -9.478001694819074349E-34 ) ) ;
#249 = ORIENTED_EDGE ( 'NONE', *, *, #224, .F. ) ;
#250 = ORIENTED_EDGE ( 'NONE', *, *, #3, .F. ) ;
#251 =( GEOMETRIC_REPRESENTATION_CONTEXT ( 3 ) GLOBAL_UNCERTAINTY_ASSIGNED_CONTEXT ( ( #191 ) ) GLOBAL_UNIT_ASSIGNED_CONTEXT ( ( #138, #8, #275 ) ) REPRESENTATION_CONTEXT ( 'NONE', 'WORKASPACE' ) );
#252 =( LENGTH_UNIT ( ) NAMED_UNIT ( * ) SI_UNIT ( $, .METRE. ) );
#253 = VERTEX_POINT ( 'NONE', #93 ) ;
#254 = CYLINDRICAL_SURFACE ( 'NONE', #210, 0.02949797249999999357 ) ;
#255 = ADVANCED_FACE ( 'NONE', ( #260 ), #263, .T. ) ;
#256 = CARTESIAN_POINT ( 'NONE',  ( 0.000000000000000000, 0.000000000000000000, 1.968503999999999809 ) ) ;
#257 = VECTOR ( 'NONE', #165, 39.37007874015748143 ) ;
#258 = CARTESIAN_POINT ( 'NONE',  ( 0.000000000000000000, 0.000000000000000000, 1.968503999999999809 ) ) ;
#259 = VERTEX_POINT ( 'NONE', #10 ) ;
#260 = FACE_OUTER_BOUND ( 'NONE', #168, .T. ) ;
#261 = DIRECTION ( 'NONE',  ( -1.000000000000000000, 0.000000000000000000, 0.000000000000000000 ) ) ;
#262 = CARTESIAN_POINT ( 'NONE',  ( 1.928573779297251702E-17, 0.000000000000000000, 0.1574800000000000089 ) ) ;
#263 = CYLINDRICAL_SURFACE ( 'NONE', #35, 0.07874000000000000443 ) ;
#264 = DIMENSIONAL_EXPONENTS ( 1.000000000000000000, 0.000000000000000000, 0.000000000000000000, 0.000000000000000000, 0.000000000000000000, 0.000000000000000000, 0.000000000000000000 ) ;
#265 = CARTESIAN_POINT ( 'NONE',  ( 0.06374000000000018540, 8.724383797125754882E-18, 1.968503999999999809 ) ) ;
#266 = PRESENTATION_STYLE_ASSIGNMENT (( #293 ) ) ;
#267 = LINE ( 'NONE', #58, #44 ) ;
#268 = SHAPE_DEFINITION_REPRESENTATION ( #278, #245 ) ;
#269 = AXIS2_PLACEMENT_3D ( 'NONE', #173, #59, #15 ) ;
#270 = DIRECTION ( 'NONE',  ( 1.000000000000000000, 0.000000000000000000, -0.000000000000000000 ) ) ;
#271 = FILL_AREA_STYLE_COLOUR ( '', #60 ) ;
#272 = EDGE_CURVE ( 'NONE', #253, #69, #280, .T. ) ;
#273 = CARTESIAN_POINT ( 'NONE',  ( 0.02949797249999999357, 3.612459760346164074E-18, -3.612459760346164074E-18 ) ) ;
#274 = CONICAL_SURFACE ( 'NONE', #14, 0.02949797249999999010, 0.1745329251994338915 ) ;
#275 =( NAMED_UNIT ( * ) SI_UNIT ( $, .STERADIAN. ) SOLID_ANGLE_UNIT ( ) );
#276 =( GEOMETRIC_REPRESENTATION_CONTEXT ( 3 ) GLOBAL_UNCERTAINTY_ASSIGNED_CONTEXT ( ( #81 ) ) GLOBAL_UNIT_ASSIGNED_CONTEXT ( ( #212, #220, #105 ) ) REPRESENTATION_CONTEXT ( 'NONE', 'WORKASPACE' ) );
#277 =( GEOMETRIC_REPRESENTATION_CONTEXT ( 3 ) GLOBAL_UNCERTAINTY_ASSIGNED_CONTEXT ( ( #36 ) ) GLOBAL_UNIT_ASSIGNED_CONTEXT ( ( #241, #222, #147 ) ) REPRESENTATION_CONTEXT ( 'NONE', 'WORKASPACE' ) );
#278 = PRODUCT_DEFINITION_SHAPE ( 'NONE', 'NONE',  #193 ) ;
#279 = VECTOR ( 'NONE', #187, 39.37007874015748143 ) ;
#280 = CIRCLE ( 'NONE', #182, 0.07874000000000000443 ) ;
#281 = ORIENTED_EDGE ( 'NONE', *, *, #106, .F. ) ;
#282 = DIRECTION ( 'NONE',  ( 0.000000000000000000, 0.000000000000000000, 1.000000000000000000 ) ) ;
#283 = EDGE_CURVE ( 'NONE', #231, #157, #80, .T. ) ;
#284 = DIRECTION ( 'NONE',  ( 0.000000000000000000, 0.000000000000000000, 1.000000000000000000 ) ) ;
#285 = LINE ( 'NONE', #113, #132 ) ;
#286 = DIRECTION ( 'NONE',  ( -1.000000000000000000, 0.000000000000000000, 1.224646799147352961E-16 ) ) ;
#287 = AXIS2_PLACEMENT_3D ( 'NONE', #217, #129, #30 ) ;
#288 = DIRECTION ( 'NONE',  ( -0.000000000000000000, -0.000000000000000000, -1.000000000000000000 ) ) ;
#289 = EDGE_LOOP ( 'NONE', ( #155, #21, #137, #121 ) ) ;
#290 = DIRECTION ( 'NONE',  ( 0.000000000000000000, 0.000000000000000000, -1.000000000000000000 ) ) ;
#291 = DIRECTION ( 'NONE',  ( -1.224646799147353207E-16, -0.000000000000000000, -1.000000000000000000 ) ) ;
#292 = CARTESIAN_POINT ( 'NONE',  ( -0.02949797250000000398, 0.000000000000000000, 7.224919520692329689E-18 ) ) ;
#293 = SURFACE_STYLE_USAGE ( .BOTH. , #172 ) ;
#294 = CONICAL_SURFACE ( 'NONE', #130, 0.06374000000000018540, 0.7853981633974522758 ) ;
#295 = ADVANCED_FACE ( 'NONE', ( #170 ), #201, .T. ) ;
#296 = CARTESIAN_POINT ( 'NONE',  ( 5.348588749162019150E-17, 0.000000000000000000, 0.4367454153218638391 ) ) ;
#297 = ORIENTED_EDGE ( 'NONE', *, *, #272, .F. ) ;
#298 = FACE_OUTER_BOUND ( 'NONE', #118, .T. ) ;
#299 = STYLED_ITEM ( 'NONE', ( #111 ), #37 ) ;
ENDSEC;
END-ISO-10303-21;
