ISO-10303-21;
HEADER;
FILE_DESCRIPTION (( 'STEP AP214' ),
    '1' );
FILE_NAME ('Micro_AELM-200-2X.STEP',
    '2021-09-01T17:08:23',
    ( '' ),
    ( '' ),
    'SwSTEP 2.0',
    'SolidWorks 2020',
    '' );
FILE_SCHEMA (( 'AUTOMOTIVE_DESIGN' ));
ENDSEC;

DATA;
#1 = LINE ( 'NONE', #154, #215 ) ;
#2 = VECTOR ( 'NONE', #285, 39.37007874015748143 ) ;
#3 = LINE ( 'NONE', #103, #193 ) ;
#4 = EDGE_CURVE ( 'NONE', #69, #262, #23, .T. ) ;
#5 = EDGE_CURVE ( 'NONE', #52, #235, #3, .T. ) ;
#6 = ORIENTED_EDGE ( 'NONE', *, *, #177, .F. ) ;
#7 = AXIS2_PLACEMENT_3D ( 'NONE', #88, #110, #91 ) ;
#8 = VERTEX_POINT ( 'NONE', #127 ) ;
#9 =( NAMED_UNIT ( * ) SI_UNIT ( $, .STERADIAN. ) SOLID_ANGLE_UNIT ( ) );
#10 = ORIENTED_EDGE ( 'NONE', *, *, #146, .T. ) ;
#11 =( LENGTH_UNIT ( ) NAMED_UNIT ( * ) SI_UNIT ( $, .METRE. ) );
#12 = FACE_OUTER_BOUND ( 'NONE', #108, .T. ) ;
#13 = AXIS2_PLACEMENT_3D ( 'NONE', #100, #43, #67 ) ;
#14 = DIRECTION ( 'NONE',  ( 0.0000000000000000000, 0.0000000000000000000, -1.000000000000000000 ) ) ;
#15 = SURFACE_SIDE_STYLE ('',( #164 ) ) ;
#16 = ADVANCED_FACE ( 'NONE', ( #219 ), #204, .T. ) ;
#17 = FACE_OUTER_BOUND ( 'NONE', #101, .T. ) ;
#18 = CONICAL_SURFACE ( 'NONE', #79, 0.3787010000000002319, 0.7853981633974506105 ) ;
#19 = ADVANCED_FACE ( 'NONE', ( #12 ), #207, .T. ) ;
#20 = CARTESIAN_POINT ( 'NONE',  ( -0.3787010000000002319, 0.0000000000000000000, 5.905511999999999873 ) ) ;
#21 = ORIENTED_EDGE ( 'NONE', *, *, #48, .T. ) ;
#22 = CARTESIAN_POINT ( 'NONE',  ( 0.3937009999999999676, 4.821446694711121291E-17, 5.890512000000000192 ) ) ;
#23 = LINE ( 'NONE', #125, #187 ) ;
#24 =( LENGTH_UNIT ( ) NAMED_UNIT ( * ) SI_UNIT ( $, .METRE. ) );
#25 = COLOUR_RGB ( '',0.7921568627450980005, 0.8196078431372548767, 0.9333333333333333481 ) ;
#26 = ORIENTED_EDGE ( 'NONE', *, *, #256, .T. ) ;
#27 = EDGE_LOOP ( 'NONE', ( #283, #6, #173, #276 ) ) ;
#28 =( CONVERSION_BASED_UNIT ( 'INCH', #237 ) LENGTH_UNIT ( ) NAMED_UNIT ( #118 ) );
#29 =( NAMED_UNIT ( * ) PLANE_ANGLE_UNIT ( ) SI_UNIT ( $, .RADIAN. ) );
#30 = APPLICATION_CONTEXT ( 'automotive_design' ) ;
#31 = ORIENTED_EDGE ( 'NONE', *, *, #223, .F. ) ;
#32 = CIRCLE ( 'NONE', #230, 0.3787010000000002319 ) ;
#33 = SURFACE_SIDE_STYLE ('',( #295 ) ) ;
#34 = DIRECTION ( 'NONE',  ( -1.000000000000000000, 0.0000000000000000000, 1.224646799147353207E-16 ) ) ;
#35 = AXIS2_PLACEMENT_3D ( 'NONE', #51, #102, #278 ) ;
#36 = CARTESIAN_POINT ( 'NONE',  ( 0.3933072990000002767, 0.0000000000000000000, 2.952755999999999936 ) ) ;
#37 = EDGE_CURVE ( 'NONE', #175, #262, #272, .T. ) ;
#38 = DIRECTION ( 'NONE',  ( -1.000000000000000000, 0.0000000000000000000, 0.0000000000000000000 ) ) ;
#39 = DIRECTION ( 'NONE',  ( -1.224646799147353207E-16, -0.0000000000000000000, -1.000000000000000000 ) ) ;
#40 = DIRECTION ( 'NONE',  ( 0.0000000000000000000, 0.0000000000000000000, 1.000000000000000000 ) ) ;
#41 = DIRECTION ( 'NONE',  ( 0.0000000000000000000, 0.0000000000000000000, 1.000000000000000000 ) ) ;
#42 = CIRCLE ( 'NONE', #180, 0.3933072989999999436 ) ;
#43 = DIRECTION ( 'NONE',  ( -0.0000000000000000000, -0.0000000000000000000, -1.000000000000000000 ) ) ;
#44 = FACE_OUTER_BOUND ( 'NONE', #105, .T. ) ;
#45 = EDGE_LOOP ( 'NONE', ( #109, #152, #216, #31 ) ) ;
#46 = ORIENTED_EDGE ( 'NONE', *, *, #5, .F. ) ;
#47 = AXIS2_PLACEMENT_3D ( 'NONE', #184, #270, #38 ) ;
#48 = EDGE_CURVE ( 'NONE', #186, #8, #267, .T. ) ;
#49 = ORIENTED_EDGE ( 'NONE', *, *, #247, .F. ) ;
#50 = CLOSED_SHELL ( 'NONE', ( #156, #150, #162, #201, #19, #128, #120, #217, #16, #211 ) ) ;
#51 = CARTESIAN_POINT ( 'NONE',  ( 3.616083184063142379E-16, 0.0000000000000000000, 2.952755999999999936 ) ) ;
#52 = VERTEX_POINT ( 'NONE', #36 ) ;
#53 =( CONVERSION_BASED_UNIT ( 'INCH', #85 ) LENGTH_UNIT ( ) NAMED_UNIT ( #145 ) );
#54 =( NAMED_UNIT ( * ) SI_UNIT ( $, .STERADIAN. ) SOLID_ANGLE_UNIT ( ) );
#55 = VECTOR ( 'NONE', #286, 39.37007874015748143 ) ;
#56 = CARTESIAN_POINT ( 'NONE',  ( 3.618817562361539673E-16, 0.0000000000000000000, 2.954988789323666154 ) ) ;
#57 =( CONVERSION_BASED_UNIT ( 'INCH', #287 ) LENGTH_UNIT ( ) NAMED_UNIT ( #66 ) );
#58 = CARTESIAN_POINT ( 'NONE',  ( -0.3937009999999999676, 0.0000000000000000000, 5.905511999999999873 ) ) ;
#59 = DIRECTION ( 'NONE',  ( 1.000000000000000000, 0.0000000000000000000, -0.0000000000000000000 ) ) ;
#60 = PRODUCT_DEFINITION_CONTEXT ( 'detailed design', #250, 'design' ) ;
#61 = FACE_OUTER_BOUND ( 'NONE', #99, .T. ) ;
#62 = VECTOR ( 'NONE', #268, 39.37007874015747433 ) ;
#63 = PRODUCT_DEFINITION_FORMATION_WITH_SPECIFIED_SOURCE ( 'ANY', '', #299, .NOT_KNOWN. ) ;
#64 = CARTESIAN_POINT ( 'NONE',  ( 0.3787010000000002319, 4.729598184775070620E-17, 5.905511999999999873 ) ) ;
#65 = CYLINDRICAL_SURFACE ( 'NONE', #208, 0.3933072989999999436 ) ;
#66 = DIMENSIONAL_EXPONENTS ( 1.000000000000000000, 0.0000000000000000000, 0.0000000000000000000, 0.0000000000000000000, 0.0000000000000000000, 0.0000000000000000000, 0.0000000000000000000 ) ;
#67 = DIRECTION ( 'NONE',  ( -1.000000000000000000, 0.0000000000000000000, 0.0000000000000000000 ) ) ;
#68 = CARTESIAN_POINT ( 'NONE',  ( 0.0000000000000000000, 0.0000000000000000000, 5.905511999999999873 ) ) ;
#69 = VERTEX_POINT ( 'NONE', #64 ) ;
#70 = EDGE_CURVE ( 'NONE', #235, #258, #107, .T. ) ;
#71 = ORIENTED_EDGE ( 'NONE', *, *, #37, .T. ) ;
#72 = MECHANICAL_DESIGN_GEOMETRIC_PRESENTATION_REPRESENTATION (  '', ( #257 ), #203 ) ;
#73 = CYLINDRICAL_SURFACE ( 'NONE', #13, 0.3937009999999999676 ) ;
#74 = ORIENTED_EDGE ( 'NONE', *, *, #266, .T. ) ;
#75 = FILL_AREA_STYLE ('',( #212 ) ) ;
#76 = EDGE_CURVE ( 'NONE', #175, #186, #226, .T. ) ;
#77 = DIRECTION ( 'NONE',  ( 0.0000000000000000000, 0.0000000000000000000, -1.000000000000000000 ) ) ;
#78 = ORIENTED_EDGE ( 'NONE', *, *, #76, .F. ) ;
#79 = AXIS2_PLACEMENT_3D ( 'NONE', #143, #14, #113 ) ;
#80 = DIRECTION ( 'NONE',  ( 1.000000000000000000, 0.0000000000000000000, 0.0000000000000000000 ) ) ;
#81 = SHAPE_DEFINITION_REPRESENTATION ( #236, #92 ) ;
#82 = ORIENTED_EDGE ( 'NONE', *, *, #97, .T. ) ;
#83 = ORIENTED_EDGE ( 'NONE', *, *, #133, .F. ) ;
#84 = EDGE_CURVE ( 'NONE', #284, #186, #167, .T. ) ;
#85 = LENGTH_MEASURE_WITH_UNIT ( LENGTH_MEASURE( 0.02539999999999999897 ), #115 );
#86 = CARTESIAN_POINT ( 'NONE',  ( -0.3933072989999996105, 4.816625248016409724E-17, 2.952755999999999936 ) ) ;
#87 = SURFACE_STYLE_USAGE ( .BOTH. , #33 ) ;
#88 = CARTESIAN_POINT ( 'NONE',  ( 0.0000000000000000000, 0.0000000000000000000, 5.905511999999999873 ) ) ;
#89 = DIRECTION ( 'NONE',  ( -1.224646799147353207E-16, -0.0000000000000000000, -1.000000000000000000 ) ) ;
#90 = FILL_AREA_STYLE_COLOUR ( '', #25 ) ;
#91 = DIRECTION ( 'NONE',  ( -1.000000000000000000, 0.0000000000000000000, 0.0000000000000000000 ) ) ;
#92 = ADVANCED_BREP_SHAPE_REPRESENTATION ( 'Micro_AELM-200-2X', ( #244, #239 ), #251 ) ;
#93 = VECTOR ( 'NONE', #275, 39.37007874015748143 ) ;
#94 = CARTESIAN_POINT ( 'NONE',  ( 5.898664692675622805E-33, 0.0000000000000000000, 4.816625248016410340E-17 ) ) ;
#95 = CARTESIAN_POINT ( 'NONE',  ( 0.0000000000000000000, 0.0000000000000000000, 5.905511999999999873 ) ) ;
#96 = EDGE_LOOP ( 'NONE', ( #71, #195, #242, #78 ) ) ;
#97 = EDGE_CURVE ( 'NONE', #8, #186, #190, .T. ) ;
#98 = FACE_OUTER_BOUND ( 'NONE', #131, .T. ) ;
#99 = EDGE_LOOP ( 'NONE', ( #26, #151, #83, #49 ) ) ;
#100 = CARTESIAN_POINT ( 'NONE',  ( 0.0000000000000000000, 0.0000000000000000000, 5.905511999999999873 ) ) ;
#101 = EDGE_LOOP ( 'NONE', ( #159, #279, #21, #200 ) ) ;
#102 = DIRECTION ( 'NONE',  ( -1.224646799147353207E-16, -0.0000000000000000000, -1.000000000000000000 ) ) ;
#103 = CARTESIAN_POINT ( 'NONE',  ( 0.3933072989999999436, 4.816625248016409724E-17, -4.816625248016409724E-17 ) ) ;
#104 = CIRCLE ( 'NONE', #273, 0.3787010000000002319 ) ;
#105 = EDGE_LOOP ( 'NONE', ( #234, #123 ) ) ;
#106 = STYLED_ITEM ( 'NONE', ( #271 ), #92 ) ;
#107 = CIRCLE ( 'NONE', #288, 0.3933072989999999991 ) ;
#108 = EDGE_LOOP ( 'NONE', ( #182, #74, #160, #158 ) ) ;
#109 = ORIENTED_EDGE ( 'NONE', *, *, #179, .F. ) ;
#110 = DIRECTION ( 'NONE',  ( -0.0000000000000000000, -0.0000000000000000000, -1.000000000000000000 ) ) ;
#111 = PRODUCT_RELATED_PRODUCT_CATEGORY ( 'part', '', ( #299 ) ) ;
#112 = LINE ( 'NONE', #136, #2 ) ;
#113 = DIRECTION ( 'NONE',  ( -1.000000000000000000, 0.0000000000000000000, 0.0000000000000000000 ) ) ;
#114 = FACE_OUTER_BOUND ( 'NONE', #296, .T. ) ;
#115 =( LENGTH_UNIT ( ) NAMED_UNIT ( * ) SI_UNIT ( $, .METRE. ) );
#116 = DIRECTION ( 'NONE',  ( -1.000000000000000000, 0.0000000000000000000, 1.224646799147353454E-16 ) ) ;
#117 = CARTESIAN_POINT ( 'NONE',  ( 0.0000000000000000000, 0.0000000000000000000, 5.905511999999999873 ) ) ;
#118 = DIMENSIONAL_EXPONENTS ( 1.000000000000000000, 0.0000000000000000000, 0.0000000000000000000, 0.0000000000000000000, 0.0000000000000000000, 0.0000000000000000000, 0.0000000000000000000 ) ;
#119 = DIRECTION ( 'NONE',  ( 1.000000000000000000, 0.0000000000000000000, 0.0000000000000000000 ) ) ;
#120 = ADVANCED_FACE ( 'NONE', ( #253 ), #18, .T. ) ;
#121 = FACE_OUTER_BOUND ( 'NONE', #96, .T. ) ;
#122 = DIRECTION ( 'NONE',  ( 1.000000000000000000, 0.0000000000000000000, 0.0000000000000000000 ) ) ;
#123 = ORIENTED_EDGE ( 'NONE', *, *, #70, .T. ) ;
#124 = AXIS2_PLACEMENT_3D ( 'NONE', #206, #269, #292 ) ;
#125 = CARTESIAN_POINT ( 'NONE',  ( 0.3787010000000002319, 4.637749674839021182E-17, 5.905511999999999873 ) ) ;
#126 = ORIENTED_EDGE ( 'NONE', *, *, #264, .T. ) ;
#127 = CARTESIAN_POINT ( 'NONE',  ( 0.3937010000000003562, 4.821446694711125605E-17, 2.954988789323666154 ) ) ;
#128 = ADVANCED_FACE ( 'NONE', ( #114 ), #229, .T. ) ;
#129 = PRESENTATION_LAYER_ASSIGNMENT (  '', '', ( #257 ) ) ;
#130 = DIRECTION ( 'NONE',  ( 1.000000000000000000, 0.0000000000000000000, 0.0000000000000000000 ) ) ;
#131 = EDGE_LOOP ( 'NONE', ( #245, #178, #10, #82 ) ) ;
#132 = APPLICATION_PROTOCOL_DEFINITION ( 'draft international standard', 'automotive_design', 1998, #30 ) ;
#133 = EDGE_CURVE ( 'NONE', #258, #235, #135, .T. ) ;
#134 =( NAMED_UNIT ( * ) PLANE_ANGLE_UNIT ( ) SI_UNIT ( $, .RADIAN. ) );
#135 = CIRCLE ( 'NONE', #157, 0.3933072989999999991 ) ;
#136 = CARTESIAN_POINT ( 'NONE',  ( -0.3933072989999999436, 0.0000000000000000000, 4.816625248016409724E-17 ) ) ;
#137 = DIRECTION ( 'NONE',  ( -1.224646799147353207E-16, -0.0000000000000000000, -1.000000000000000000 ) ) ;
#138 = DIRECTION ( 'NONE',  ( 1.224646799147353207E-16, 0.0000000000000000000, 1.000000000000000000 ) ) ;
#139 = UNCERTAINTY_MEASURE_WITH_UNIT (LENGTH_MEASURE( 1.000000000000000082E-05 ), #53, 'distance_accuracy_value', 'NONE');
#140 = CONICAL_SURFACE ( 'NONE', #199, 0.3933072989999999436, 0.1745329251994338915 ) ;
#141 = CARTESIAN_POINT ( 'NONE',  ( 0.0000000000000000000, 0.0000000000000000000, 0.0000000000000000000 ) ) ;
#142 = LINE ( 'NONE', #209, #222 ) ;
#143 = CARTESIAN_POINT ( 'NONE',  ( 0.0000000000000000000, 0.0000000000000000000, 5.905511999999999873 ) ) ;
#144 = DIRECTION ( 'NONE',  ( 1.000000000000000000, 0.0000000000000000000, -0.0000000000000000000 ) ) ;
#145 = DIMENSIONAL_EXPONENTS ( 1.000000000000000000, 0.0000000000000000000, 0.0000000000000000000, 0.0000000000000000000, 0.0000000000000000000, 0.0000000000000000000, 0.0000000000000000000 ) ;
#146 = EDGE_CURVE ( 'NONE', #52, #8, #142, .T. ) ;
#147 = CARTESIAN_POINT ( 'NONE',  ( 5.898664692675622805E-33, 0.0000000000000000000, 4.816625248016410340E-17 ) ) ;
#148 = AXIS2_PLACEMENT_3D ( 'NONE', #56, #161, #163 ) ;
#149 = PLANE ( 'NONE',  #280 ) ;
#150 = ADVANCED_FACE ( 'NONE', ( #17 ), #174, .T. ) ;
#151 = ORIENTED_EDGE ( 'NONE', *, *, #5, .T. ) ;
#152 = ORIENTED_EDGE ( 'NONE', *, *, #4, .T. ) ;
#153 = PRESENTATION_LAYER_ASSIGNMENT (  '', '', ( #106 ) ) ;
#154 = CARTESIAN_POINT ( 'NONE',  ( 0.3937009999999999676, 4.821446694711121291E-17, 5.905511999999999873 ) ) ;
#155 = ORIENTED_EDGE ( 'NONE', *, *, #70, .F. ) ;
#156 = ADVANCED_FACE ( 'NONE', ( #61 ), #65, .T. ) ;
#157 = AXIS2_PLACEMENT_3D ( 'NONE', #147, #274, #34 ) ;
#158 = ORIENTED_EDGE ( 'NONE', *, *, #97, .F. ) ;
#159 = ORIENTED_EDGE ( 'NONE', *, *, #256, .F. ) ;
#160 = ORIENTED_EDGE ( 'NONE', *, *, #76, .T. ) ;
#161 = DIRECTION ( 'NONE',  ( -1.224646799147353207E-16, -0.0000000000000000000, -1.000000000000000000 ) ) ;
#162 = ADVANCED_FACE ( 'NONE', ( #252 ), #243, .T. ) ;
#163 = DIRECTION ( 'NONE',  ( 1.000000000000000000, 0.0000000000000000000, 0.0000000000000000000 ) ) ;
#164 = SURFACE_STYLE_FILL_AREA ( #185 ) ;
#165 = DIRECTION ( 'NONE',  ( 0.0000000000000000000, 0.0000000000000000000, -1.000000000000000000 ) ) ;
#166 = CIRCLE ( 'NONE', #172, 0.3937009999999999676 ) ;
#167 = LINE ( 'NONE', #86, #62 ) ;
#168 = CARTESIAN_POINT ( 'NONE',  ( 0.0000000000000000000, 0.0000000000000000000, 0.0000000000000000000 ) ) ;
#169 = CARTESIAN_POINT ( 'NONE',  ( 0.0000000000000000000, 0.0000000000000000000, 0.0000000000000000000 ) ) ;
#170 = DIRECTION ( 'NONE',  ( 0.0000000000000000000, 0.0000000000000000000, 1.000000000000000000 ) ) ;
#171 = CARTESIAN_POINT ( 'NONE',  ( 0.3933072989999999991, 4.816625248016410340E-17, -7.582401355855259480E-33 ) ) ;
#172 = AXIS2_PLACEMENT_3D ( 'NONE', #233, #77, #130 ) ;
#173 = ORIENTED_EDGE ( 'NONE', *, *, #223, .T. ) ;
#174 = CONICAL_SURFACE ( 'NONE', #282, 0.3933072989999999436, 0.1745329251994338915 ) ;
#175 = VERTEX_POINT ( 'NONE', #228 ) ;
#176 = DIRECTION ( 'NONE',  ( -1.000000000000000000, 0.0000000000000000000, 0.0000000000000000000 ) ) ;
#177 = EDGE_CURVE ( 'NONE', #240, #69, #32, .T. ) ;
#178 = ORIENTED_EDGE ( 'NONE', *, *, #264, .F. ) ;
#179 = EDGE_CURVE ( 'NONE', #69, #240, #104, .T. ) ;
#180 = AXIS2_PLACEMENT_3D ( 'NONE', #225, #259, #176 ) ;
#181 =( GEOMETRIC_REPRESENTATION_CONTEXT ( 3 ) GLOBAL_UNCERTAINTY_ASSIGNED_CONTEXT ( ( #139 ) ) GLOBAL_UNIT_ASSIGNED_CONTEXT ( ( #53, #134, #9 ) ) REPRESENTATION_CONTEXT ( 'NONE', 'WORKASPACE' ) );
#182 = ORIENTED_EDGE ( 'NONE', *, *, #293, .F. ) ;
#183 = UNCERTAINTY_MEASURE_WITH_UNIT (LENGTH_MEASURE( 1.000000000000000082E-05 ), #28, 'distance_accuracy_value', 'NONE');
#184 = CARTESIAN_POINT ( 'NONE',  ( 0.0000000000000000000, 0.0000000000000000000, 5.905511999999999873 ) ) ;
#185 = FILL_AREA_STYLE ('',( #90 ) ) ;
#186 = VERTEX_POINT ( 'NONE', #213 ) ;
#187 = VECTOR ( 'NONE', #218, 39.37007874015748143 ) ;
#188 = DIRECTION ( 'NONE',  ( 1.224646799147353207E-16, 0.0000000000000000000, 1.000000000000000000 ) ) ;
#189 = LINE ( 'NONE', #20, #93 ) ;
#190 = CIRCLE ( 'NONE', #148, 0.3937009999999999676 ) ;
#191 = CARTESIAN_POINT ( 'NONE',  ( 3.616083184063142379E-16, 0.0000000000000000000, 2.952755999999999936 ) ) ;
#192 = DIRECTION ( 'NONE',  ( -1.224646799147353207E-16, -0.0000000000000000000, -1.000000000000000000 ) ) ;
#193 = VECTOR ( 'NONE', #192, 39.37007874015748143 ) ;
#194 = MECHANICAL_DESIGN_GEOMETRIC_PRESENTATION_REPRESENTATION (  '', ( #106 ), #181 ) ;
#195 = ORIENTED_EDGE ( 'NONE', *, *, #293, .T. ) ;
#196 = CARTESIAN_POINT ( 'NONE',  ( 0.0000000000000000000, 0.0000000000000000000, 0.0000000000000000000 ) ) ;
#197 = PRODUCT_CONTEXT ( 'NONE', #30, 'mechanical' ) ;
#198 = EDGE_LOOP ( 'NONE', ( #46, #126, #232, #155 ) ) ;
#199 = AXIS2_PLACEMENT_3D ( 'NONE', #191, #188, #297 ) ;
#200 = ORIENTED_EDGE ( 'NONE', *, *, #146, .F. ) ;
#201 = ADVANCED_FACE ( 'NONE', ( #121 ), #73, .T. ) ;
#202 = DIRECTION ( 'NONE',  ( 1.000000000000000000, 0.0000000000000000000, 0.0000000000000000000 ) ) ;
#203 =( GEOMETRIC_REPRESENTATION_CONTEXT ( 3 ) GLOBAL_UNCERTAINTY_ASSIGNED_CONTEXT ( ( #290 ) ) GLOBAL_UNIT_ASSIGNED_CONTEXT ( ( #57, #246, #54 ) ) REPRESENTATION_CONTEXT ( 'NONE', 'WORKASPACE' ) );
#204 = CYLINDRICAL_SURFACE ( 'NONE', #238, 0.3933072989999999436 ) ;
#205 = DIRECTION ( 'NONE',  ( 0.1736481776669313859, 0.0000000000000000000, 0.9848077530122077983 ) ) ;
#206 = CARTESIAN_POINT ( 'NONE',  ( 3.618817562361539673E-16, 0.0000000000000000000, 2.954988789323666154 ) ) ;
#207 = CYLINDRICAL_SURFACE ( 'NONE', #7, 0.3937009999999999676 ) ;
#208 = AXIS2_PLACEMENT_3D ( 'NONE', #168, #89, #254 ) ;
#209 = CARTESIAN_POINT ( 'NONE',  ( 0.3933072990000002767, 0.0000000000000000000, 2.952755999999999936 ) ) ;
#210 = DIRECTION ( 'NONE',  ( 0.0000000000000000000, 0.0000000000000000000, 1.000000000000000000 ) ) ;
#211 = ADVANCED_FACE ( 'NONE', ( #44 ), #149, .F. ) ;
#212 = FILL_AREA_STYLE_COLOUR ( '', #261 ) ;
#213 = CARTESIAN_POINT ( 'NONE',  ( -0.3937009999999996346, 0.0000000000000000000, 2.954988789323666154 ) ) ;
#214 = CARTESIAN_POINT ( 'NONE',  ( -0.3933072989999996105, 4.819035971363765199E-17, 2.952755999999999936 ) ) ;
#215 = VECTOR ( 'NONE', #260, 39.37007874015748143 ) ;
#216 = ORIENTED_EDGE ( 'NONE', *, *, #37, .F. ) ;
#217 = ADVANCED_FACE ( 'NONE', ( #98 ), #140, .T. ) ;
#218 = DIRECTION ( 'NONE',  ( 0.7071067811865491270, 8.659560562354952580E-17, -0.7071067811865459074 ) ) ;
#219 = FACE_OUTER_BOUND ( 'NONE', #198, .T. ) ;
#220 =( NAMED_UNIT ( * ) SI_UNIT ( $, .STERADIAN. ) SOLID_ANGLE_UNIT ( ) );
#221 = ORIENTED_EDGE ( 'NONE', *, *, #179, .T. ) ;
#222 = VECTOR ( 'NONE', #205, 39.37007874015748143 ) ;
#223 = EDGE_CURVE ( 'NONE', #240, #175, #189, .T. ) ;
#224 = PRESENTATION_STYLE_ASSIGNMENT (( #87 ) ) ;
#225 = CARTESIAN_POINT ( 'NONE',  ( 3.616083184063142379E-16, 0.0000000000000000000, 2.952755999999999936 ) ) ;
#226 = LINE ( 'NONE', #58, #55 ) ;
#227 = AXIS2_PLACEMENT_3D ( 'NONE', #291, #165, #202 ) ;
#228 = CARTESIAN_POINT ( 'NONE',  ( -0.3937009999999999676, 0.0000000000000000000, 5.890512000000000192 ) ) ;
#229 = PLANE ( 'NONE',  #265 ) ;
#230 = AXIS2_PLACEMENT_3D ( 'NONE', #117, #40, #119 ) ;
#231 = ORIENTED_EDGE ( 'NONE', *, *, #177, .T. ) ;
#232 = ORIENTED_EDGE ( 'NONE', *, *, #247, .T. ) ;
#233 = CARTESIAN_POINT ( 'NONE',  ( 0.0000000000000000000, 0.0000000000000000000, 5.890512000000000192 ) ) ;
#234 = ORIENTED_EDGE ( 'NONE', *, *, #133, .T. ) ;
#235 = VERTEX_POINT ( 'NONE', #171 ) ;
#236 = PRODUCT_DEFINITION_SHAPE ( 'NONE', 'NONE',  #241 ) ;
#237 = LENGTH_MEASURE_WITH_UNIT ( LENGTH_MEASURE( 0.02539999999999999897 ), #24 );
#238 = AXIS2_PLACEMENT_3D ( 'NONE', #141, #137, #116 ) ;
#239 = AXIS2_PLACEMENT_3D ( 'NONE', #196, #210, #80 ) ;
#240 = VERTEX_POINT ( 'NONE', #277 ) ;
#241 = PRODUCT_DEFINITION ( 'UNKNOWN', '', #63, #60 ) ;
#242 = ORIENTED_EDGE ( 'NONE', *, *, #48, .F. ) ;
#243 = CONICAL_SURFACE ( 'NONE', #47, 0.3787010000000002319, 0.7853981633974506105 ) ;
#244 = MANIFOLD_SOLID_BREP ( 'Cut-Revolve1', #50 ) ;
#245 = ORIENTED_EDGE ( 'NONE', *, *, #84, .F. ) ;
#246 =( NAMED_UNIT ( * ) PLANE_ANGLE_UNIT ( ) SI_UNIT ( $, .RADIAN. ) );
#247 = EDGE_CURVE ( 'NONE', #284, #258, #112, .T. ) ;
#248 = DIRECTION ( 'NONE',  ( 0.0000000000000000000, 0.0000000000000000000, 1.000000000000000000 ) ) ;
#249 = SURFACE_STYLE_USAGE ( .BOTH. , #15 ) ;
#250 = APPLICATION_CONTEXT ( 'automotive_design' ) ;
#251 =( GEOMETRIC_REPRESENTATION_CONTEXT ( 3 ) GLOBAL_UNCERTAINTY_ASSIGNED_CONTEXT ( ( #183 ) ) GLOBAL_UNIT_ASSIGNED_CONTEXT ( ( #28, #29, #220 ) ) REPRESENTATION_CONTEXT ( 'NONE', 'WORKASPACE' ) );
#252 = FACE_OUTER_BOUND ( 'NONE', #45, .T. ) ;
#253 = FACE_OUTER_BOUND ( 'NONE', #27, .T. ) ;
#254 = DIRECTION ( 'NONE',  ( -1.000000000000000000, 0.0000000000000000000, 1.224646799147353454E-16 ) ) ;
#255 = DIRECTION ( 'NONE',  ( 1.000000000000000000, 0.0000000000000000000, 0.0000000000000000000 ) ) ;
#256 = EDGE_CURVE ( 'NONE', #284, #52, #42, .T. ) ;
#257 = STYLED_ITEM ( 'NONE', ( #224 ), #244 ) ;
#258 = VERTEX_POINT ( 'NONE', #263 ) ;
#259 = DIRECTION ( 'NONE',  ( -1.224646799147353207E-16, -0.0000000000000000000, -1.000000000000000000 ) ) ;
#260 = DIRECTION ( 'NONE',  ( -0.0000000000000000000, -0.0000000000000000000, -1.000000000000000000 ) ) ;
#261 = COLOUR_RGB ( '',0.7921568627450980005, 0.8196078431372548767, 0.9333333333333333481 ) ;
#262 = VERTEX_POINT ( 'NONE', #22 ) ;
#263 = CARTESIAN_POINT ( 'NONE',  ( -0.3933072989999999991, 0.0000000000000000000, 9.633250496032820680E-17 ) ) ;
#264 = EDGE_CURVE ( 'NONE', #52, #284, #294, .T. ) ;
#265 = AXIS2_PLACEMENT_3D ( 'NONE', #95, #248, #59 ) ;
#266 = EDGE_CURVE ( 'NONE', #262, #175, #166, .T. ) ;
#267 = CIRCLE ( 'NONE', #124, 0.3937009999999999676 ) ;
#268 = DIRECTION ( 'NONE',  ( -0.1736481776669311916, 2.126576849575783316E-17, 0.9848077530122080203 ) ) ;
#269 = DIRECTION ( 'NONE',  ( -1.224646799147353207E-16, -0.0000000000000000000, -1.000000000000000000 ) ) ;
#270 = DIRECTION ( 'NONE',  ( 0.0000000000000000000, 0.0000000000000000000, -1.000000000000000000 ) ) ;
#271 = PRESENTATION_STYLE_ASSIGNMENT (( #249 ) ) ;
#272 = CIRCLE ( 'NONE', #227, 0.3937009999999999676 ) ;
#273 = AXIS2_PLACEMENT_3D ( 'NONE', #68, #170, #122 ) ;
#274 = DIRECTION ( 'NONE',  ( -1.224646799147353207E-16, -0.0000000000000000000, -1.000000000000000000 ) ) ;
#275 = DIRECTION ( 'NONE',  ( -0.7071067811865491270, 0.0000000000000000000, -0.7071067811865459074 ) ) ;
#276 = ORIENTED_EDGE ( 'NONE', *, *, #266, .F. ) ;
#277 = CARTESIAN_POINT ( 'NONE',  ( -0.3787010000000002319, 0.0000000000000000000, 5.905511999999999873 ) ) ;
#278 = DIRECTION ( 'NONE',  ( -1.000000000000000000, 0.0000000000000000000, 0.0000000000000000000 ) ) ;
#279 = ORIENTED_EDGE ( 'NONE', *, *, #84, .T. ) ;
#280 = AXIS2_PLACEMENT_3D ( 'NONE', #169, #41, #144 ) ;
#281 = APPLICATION_PROTOCOL_DEFINITION ( 'draft international standard', 'automotive_design', 1998, #250 ) ;
#282 = AXIS2_PLACEMENT_3D ( 'NONE', #298, #138, #255 ) ;
#283 = ORIENTED_EDGE ( 'NONE', *, *, #4, .F. ) ;
#284 = VERTEX_POINT ( 'NONE', #214 ) ;
#285 = DIRECTION ( 'NONE',  ( -1.224646799147353207E-16, -0.0000000000000000000, -1.000000000000000000 ) ) ;
#286 = DIRECTION ( 'NONE',  ( -0.0000000000000000000, -0.0000000000000000000, -1.000000000000000000 ) ) ;
#287 = LENGTH_MEASURE_WITH_UNIT ( LENGTH_MEASURE( 0.02539999999999999897 ), #11 );
#288 = AXIS2_PLACEMENT_3D ( 'NONE', #94, #39, #289 ) ;
#289 = DIRECTION ( 'NONE',  ( -1.000000000000000000, 0.0000000000000000000, 1.224646799147353207E-16 ) ) ;
#290 = UNCERTAINTY_MEASURE_WITH_UNIT (LENGTH_MEASURE( 1.000000000000000082E-05 ), #57, 'distance_accuracy_value', 'NONE');
#291 = CARTESIAN_POINT ( 'NONE',  ( 0.0000000000000000000, 0.0000000000000000000, 5.890512000000000192 ) ) ;
#292 = DIRECTION ( 'NONE',  ( 1.000000000000000000, 0.0000000000000000000, 0.0000000000000000000 ) ) ;
#293 = EDGE_CURVE ( 'NONE', #262, #8, #1, .T. ) ;
#294 = CIRCLE ( 'NONE', #35, 0.3933072989999999436 ) ;
#295 = SURFACE_STYLE_FILL_AREA ( #75 ) ;
#296 = EDGE_LOOP ( 'NONE', ( #231, #221 ) ) ;
#297 = DIRECTION ( 'NONE',  ( 1.000000000000000000, 0.0000000000000000000, 0.0000000000000000000 ) ) ;
#298 = CARTESIAN_POINT ( 'NONE',  ( 3.616083184063142379E-16, 0.0000000000000000000, 2.952755999999999936 ) ) ;
#299 = PRODUCT ( 'Micro_AELM-200-2X', 'Micro_AELM-200-2X', '', ( #197 ) ) ;
ENDSEC;
END-ISO-10303-21;
