ISO-10303-21;
HEADER;
FILE_DESCRIPTION (( 'STEP AP214' ),
    '1' );
FILE_NAME ('Micro_SPD-312-090.STEP',
    '2021-09-03T21:20:38',
    ( '' ),
    ( '' ),
    'SwSTEP 2.0',
    'SolidWorks 2020',
    '' );
FILE_SCHEMA (( 'AUTOMOTIVE_DESIGN' ));
ENDSEC;

DATA;
#1 = AXIS2_PLACEMENT_3D ( 'NONE', #153, #232, #279 ) ;
#2 = CIRCLE ( 'NONE', #31, 0.1562500000000000000 ) ;
#3 = DIRECTION ( 'NONE',  ( -0.0000000000000000000, -0.0000000000000000000, -1.000000000000000000 ) ) ;
#4 = CARTESIAN_POINT ( 'NONE',  ( 0.0000000000000000000, 0.0000000000000000000, 2.500000000000000000 ) ) ;
#5 = CARTESIAN_POINT ( 'NONE',  ( 0.0000000000000000000, 0.0000000000000000000, 0.0000000000000000000 ) ) ;
#6 = DIRECTION ( 'NONE',  ( -1.000000000000000000, 0.0000000000000000000, 0.0000000000000000000 ) ) ;
#7 = PRESENTATION_STYLE_ASSIGNMENT (( #44 ) ) ;
#8 =( NAMED_UNIT ( * ) PLANE_ANGLE_UNIT ( ) SI_UNIT ( $, .RADIAN. ) );
#9 = ADVANCED_FACE ( 'NONE', ( #263 ), #282, .T. ) ;
#10 = SURFACE_SIDE_STYLE ('',( #181 ) ) ;
#11 = ORIENTED_EDGE ( 'NONE', *, *, #238, .F. ) ;
#12 = CARTESIAN_POINT ( 'NONE',  ( 0.0000000000000000000, 0.0000000000000000000, 0.0000000000000000000 ) ) ;
#13 = LINE ( 'NONE', #156, #335 ) ;
#14 = EDGE_CURVE ( 'NONE', #234, #239, #109, .T. ) ;
#15 = VERTEX_POINT ( 'NONE', #141 ) ;
#16 = PRODUCT_DEFINITION_FORMATION_WITH_SPECIFIED_SOURCE ( 'ANY', '', #187, .NOT_KNOWN. ) ;
#17 = AXIS2_PLACEMENT_3D ( 'NONE', #37, #283, #41 ) ;
#18 = ORIENTED_EDGE ( 'NONE', *, *, #14, .F. ) ;
#19 = ORIENTED_EDGE ( 'NONE', *, *, #333, .F. ) ;
#20 = ORIENTED_EDGE ( 'NONE', *, *, #318, .F. ) ;
#21 = STYLED_ITEM ( 'NONE', ( #7 ), #322 ) ;
#22 = ORIENTED_EDGE ( 'NONE', *, *, #42, .T. ) ;
#23 = AXIS2_PLACEMENT_3D ( 'NONE', #91, #63, #328 ) ;
#24 = DIRECTION ( 'NONE',  ( -1.000000000000000000, 0.0000000000000000000, 0.0000000000000000000 ) ) ;
#25 = LINE ( 'NONE', #174, #179 ) ;
#26 = CIRCLE ( 'NONE', #262, 0.1562500000000000000 ) ;
#27 = CARTESIAN_POINT ( 'NONE',  ( -0.1562500000000000000, 0.0000000000000000000, 2.500000000000000000 ) ) ;
#28 = EDGE_CURVE ( 'NONE', #94, #15, #52, .T. ) ;
#29 = FACE_OUTER_BOUND ( 'NONE', #337, .T. ) ;
#30 = DIRECTION ( 'NONE',  ( 0.7071067811865490160, 0.0000000000000000000, 0.7071067811865459074 ) ) ;
#31 = AXIS2_PLACEMENT_3D ( 'NONE', #65, #185, #332 ) ;
#32 = ORIENTED_EDGE ( 'NONE', *, *, #298, .F. ) ;
#33 = CARTESIAN_POINT ( 'NONE',  ( 0.1562500000000000000, 1.913510623667739463E-17, 0.7500499999999999945 ) ) ;
#34 = DIRECTION ( 'NONE',  ( -0.7071067811865490160, 8.659560562354951347E-17, 0.7071067811865459074 ) ) ;
#35 = DIRECTION ( 'NONE',  ( -0.0000000000000000000, -0.0000000000000000000, -1.000000000000000000 ) ) ;
#36 = VERTEX_POINT ( 'NONE', #83 ) ;
#37 = CARTESIAN_POINT ( 'NONE',  ( 0.0000000000000000000, 0.0000000000000000000, 0.7500499999999999945 ) ) ;
#38 = CARTESIAN_POINT ( 'NONE',  ( 0.0000000000000000000, 0.0000000000000000000, 0.7500000000000001110 ) ) ;
#39 = DIRECTION ( 'NONE',  ( 0.0000000000000000000, 0.0000000000000000000, -1.000000000000000000 ) ) ;
#40 = AXIS2_PLACEMENT_3D ( 'NONE', #4, #209, #151 ) ;
#41 = DIRECTION ( 'NONE',  ( 1.000000000000000000, 0.0000000000000000000, 0.0000000000000000000 ) ) ;
#42 = EDGE_CURVE ( 'NONE', #285, #288, #194, .T. ) ;
#43 = EDGE_LOOP ( 'NONE', ( #278, #193, #236, #265 ) ) ;
#44 = SURFACE_STYLE_USAGE ( .BOTH. , #10 ) ;
#45 = ORIENTED_EDGE ( 'NONE', *, *, #276, .F. ) ;
#46 = DIRECTION ( 'NONE',  ( 0.0000000000000000000, 0.0000000000000000000, 1.000000000000000000 ) ) ;
#47 = CIRCLE ( 'NONE', #150, 0.1562000000000000610 ) ;
#48 = VERTEX_POINT ( 'NONE', #33 ) ;
#49 = ORIENTED_EDGE ( 'NONE', *, *, #118, .F. ) ;
#50 = ADVANCED_FACE ( 'NONE', ( #225 ), #100, .T. ) ;
#51 = ORIENTED_EDGE ( 'NONE', *, *, #142, .F. ) ;
#52 = CIRCLE ( 'NONE', #306, 0.02350000000000000352 ) ;
#53 = DIRECTION ( 'NONE',  ( -0.7071067811865410224, 0.0000000000000000000, -0.7071067811865539010 ) ) ;
#54 = EDGE_CURVE ( 'NONE', #315, #36, #97, .T. ) ;
#55 = CARTESIAN_POINT ( 'NONE',  ( 0.0000000000000000000, 0.0000000000000000000, 0.0000000000000000000 ) ) ;
#56 = CARTESIAN_POINT ( 'NONE',  ( -0.1562000000000000333, 1.913204461967952718E-17, 0.7500000000000001110 ) ) ;
#57 = MANIFOLD_SOLID_BREP ( 'Cut-Revolve2', #235 ) ;
#58 = CARTESIAN_POINT ( 'NONE',  ( 0.1412499999999994871, 1.821662113731684786E-17, 2.500000000000000000 ) ) ;
#59 = EDGE_CURVE ( 'NONE', #310, #288, #325, .T. ) ;
#60 = CARTESIAN_POINT ( 'NONE',  ( 0.0000000000000000000, 0.0000000000000000000, 0.1326999999999994850 ) ) ;
#61 = ORIENTED_EDGE ( 'NONE', *, *, #339, .T. ) ;
#62 = FACE_OUTER_BOUND ( 'NONE', #76, .T. ) ;
#63 = DIRECTION ( 'NONE',  ( 0.0000000000000000000, 0.0000000000000000000, 1.000000000000000000 ) ) ;
#64 = CYLINDRICAL_SURFACE ( 'NONE', #346, 0.1562500000000000000 ) ;
#65 = CARTESIAN_POINT ( 'NONE',  ( 0.0000000000000000000, 0.0000000000000000000, 2.484999999999999432 ) ) ;
#66 = EDGE_CURVE ( 'NONE', #48, #312, #336, .T. ) ;
#67 = EDGE_LOOP ( 'NONE', ( #162, #131, #216, #79 ) ) ;
#68 = UNCERTAINTY_MEASURE_WITH_UNIT (LENGTH_MEASURE( 1.000000000000000082E-05 ), #308, 'distance_accuracy_value', 'NONE');
#69 =( NAMED_UNIT ( * ) SI_UNIT ( $, .STERADIAN. ) SOLID_ANGLE_UNIT ( ) );
#70 = CARTESIAN_POINT ( 'NONE',  ( 0.0000000000000000000, 0.0000000000000000000, 2.484999999999999432 ) ) ;
#71 = AXIS2_PLACEMENT_3D ( 'NONE', #226, #176, #144 ) ;
#72 = SURFACE_STYLE_USAGE ( .BOTH. , #329 ) ;
#73 = EDGE_CURVE ( 'NONE', #36, #239, #26, .T. ) ;
#74 = AXIS2_PLACEMENT_3D ( 'NONE', #12, #46, #171 ) ;
#75 =( LENGTH_UNIT ( ) NAMED_UNIT ( * ) SI_UNIT ( $, .METRE. ) );
#76 = EDGE_LOOP ( 'NONE', ( #264, #313, #103, #218 ) ) ;
#77 = APPLICATION_PROTOCOL_DEFINITION ( 'draft international standard', 'automotive_design', 1998, #314 ) ;
#78 = ADVANCED_FACE ( 'NONE', ( #275 ), #198, .T. ) ;
#79 = ORIENTED_EDGE ( 'NONE', *, *, #73, .F. ) ;
#80 = VERTEX_POINT ( 'NONE', #201 ) ;
#81 =( GEOMETRIC_REPRESENTATION_CONTEXT ( 3 ) GLOBAL_UNCERTAINTY_ASSIGNED_CONTEXT ( ( #121 ) ) GLOBAL_UNIT_ASSIGNED_CONTEXT ( ( #254, #206, #307 ) ) REPRESENTATION_CONTEXT ( 'NONE', 'WORKASPACE' ) );
#82 = EDGE_CURVE ( 'NONE', #80, #48, #227, .T. ) ;
#83 = CARTESIAN_POINT ( 'NONE',  ( 0.1562500000000000000, 1.913510623667739463E-17, 2.484999999999999432 ) ) ;
#84 = VECTOR ( 'NONE', #211, 39.37007874015748143 ) ;
#85 = CARTESIAN_POINT ( 'NONE',  ( -0.1562500000000000000, 0.0000000000000000000, 2.484999999999999432 ) ) ;
#86 = FACE_OUTER_BOUND ( 'NONE', #159, .T. ) ;
#87 = VECTOR ( 'NONE', #30, 39.37007874015748854 ) ;
#88 = DIRECTION ( 'NONE',  ( -1.000000000000000000, 0.0000000000000000000, 0.0000000000000000000 ) ) ;
#89 = ADVANCED_FACE ( 'NONE', ( #305 ), #157, .T. ) ;
#90 = CARTESIAN_POINT ( 'NONE',  ( 0.0000000000000000000, 0.0000000000000000000, 2.500000000000000000 ) ) ;
#91 = CARTESIAN_POINT ( 'NONE',  ( 0.0000000000000000000, 0.0000000000000000000, 2.500000000000000000 ) ) ;
#92 = CARTESIAN_POINT ( 'NONE',  ( 0.0000000000000000000, 0.0000000000000000000, 0.7500000000000001110 ) ) ;
#93 = AXIS2_PLACEMENT_3D ( 'NONE', #347, #112, #221 ) ;
#94 = VERTEX_POINT ( 'NONE', #127 ) ;
#95 = CONICAL_SURFACE ( 'NONE', #289, 0.02350000000000000352, 0.7853981633974504994 ) ;
#96 = DIRECTION ( 'NONE',  ( 0.7071067811865410224, 8.659560562354852739E-17, -0.7071067811865539010 ) ) ;
#97 = LINE ( 'NONE', #231, #243 ) ;
#98 = LENGTH_MEASURE_WITH_UNIT ( LENGTH_MEASURE( 0.02539999999999999897 ), #183 );
#99 = AXIS2_PLACEMENT_3D ( 'NONE', #145, #146, #88 ) ;
#100 = CONICAL_SURFACE ( 'NONE', #107, 0.1562000000000000333, 0.7853981633974504994 ) ;
#101 = ADVANCED_FACE ( 'NONE', ( #62 ), #64, .T. ) ;
#102 = APPLICATION_PROTOCOL_DEFINITION ( 'draft international standard', 'automotive_design', 1998, #344 ) ;
#103 = ORIENTED_EDGE ( 'NONE', *, *, #276, .T. ) ;
#104 = DIMENSIONAL_EXPONENTS ( 1.000000000000000000, 0.0000000000000000000, 0.0000000000000000000, 0.0000000000000000000, 0.0000000000000000000, 0.0000000000000000000, 0.0000000000000000000 ) ;
#105 = ORIENTED_EDGE ( 'NONE', *, *, #28, .F. ) ;
#106 = ORIENTED_EDGE ( 'NONE', *, *, #180, .F. ) ;
#107 = AXIS2_PLACEMENT_3D ( 'NONE', #92, #253, #281 ) ;
#108 = ORIENTED_EDGE ( 'NONE', *, *, #28, .T. ) ;
#109 = LINE ( 'NONE', #268, #213 ) ;
#110 = ADVANCED_FACE ( 'NONE', ( #229 ), #122, .F. ) ;
#111 = AXIS2_PLACEMENT_3D ( 'NONE', #148, #3, #117 ) ;
#112 = DIRECTION ( 'NONE',  ( 0.0000000000000000000, 0.0000000000000000000, 1.000000000000000000 ) ) ;
#113 = ADVANCED_FACE ( 'NONE', ( #208 ), #267, .T. ) ;
#114 = DIRECTION ( 'NONE',  ( -1.000000000000000000, 0.0000000000000000000, 0.0000000000000000000 ) ) ;
#115 = DIRECTION ( 'NONE',  ( -0.0000000000000000000, -0.0000000000000000000, -1.000000000000000000 ) ) ;
#116 = VECTOR ( 'NONE', #34, 39.37007874015748854 ) ;
#117 = DIRECTION ( 'NONE',  ( -1.000000000000000000, 0.0000000000000000000, 0.0000000000000000000 ) ) ;
#118 = EDGE_CURVE ( 'NONE', #15, #288, #245, .T. ) ;
#119 = SURFACE_STYLE_FILL_AREA ( #331 ) ;
#120 = FACE_OUTER_BOUND ( 'NONE', #287, .T. ) ;
#121 = UNCERTAINTY_MEASURE_WITH_UNIT (LENGTH_MEASURE( 1.000000000000000082E-05 ), #254, 'distance_accuracy_value', 'NONE');
#122 = PLANE ( 'NONE',  #74 ) ;
#123 = ADVANCED_FACE ( 'NONE', ( #304 ), #95, .T. ) ;
#124 =( LENGTH_UNIT ( ) NAMED_UNIT ( * ) SI_UNIT ( $, .METRE. ) );
#125 = AXIS2_PLACEMENT_3D ( 'NONE', #259, #128, #280 ) ;
#126 = EDGE_LOOP ( 'NONE', ( #182, #340 ) ) ;
#127 = CARTESIAN_POINT ( 'NONE',  ( 0.02350000000000000352, 0.0000000000000000000, 0.0000000000000000000 ) ) ;
#128 = DIRECTION ( 'NONE',  ( 0.0000000000000000000, 0.0000000000000000000, 1.000000000000000000 ) ) ;
#129 = LENGTH_MEASURE_WITH_UNIT ( LENGTH_MEASURE( 0.02539999999999999897 ), #124 );
#130 =( NAMED_UNIT ( * ) SI_UNIT ( $, .STERADIAN. ) SOLID_ANGLE_UNIT ( ) );
#131 = ORIENTED_EDGE ( 'NONE', *, *, #161, .F. ) ;
#132 = CIRCLE ( 'NONE', #321, 0.1562500000000000000 ) ;
#133 = SHAPE_DEFINITION_REPRESENTATION ( #136, #322 ) ;
#134 = ORIENTED_EDGE ( 'NONE', *, *, #333, .T. ) ;
#135 = PRODUCT_DEFINITION ( 'UNKNOWN', '', #16, #217 ) ;
#136 = PRODUCT_DEFINITION_SHAPE ( 'NONE', 'NONE',  #135 ) ;
#137 = ORIENTED_EDGE ( 'NONE', *, *, #330, .F. ) ;
#138 = ORIENTED_EDGE ( 'NONE', *, *, #169, .F. ) ;
#139 = EDGE_CURVE ( 'NONE', #312, #48, #132, .T. ) ;
#140 = ORIENTED_EDGE ( 'NONE', *, *, #318, .T. ) ;
#141 = CARTESIAN_POINT ( 'NONE',  ( -0.02350000000000000352, 1.100345149033897440E-17, 0.0000000000000000000 ) ) ;
#142 = EDGE_CURVE ( 'NONE', #285, #312, #25, .T. ) ;
#143 = CIRCLE ( 'NONE', #23, 0.1412499999999994871 ) ;
#144 = DIRECTION ( 'NONE',  ( -1.000000000000000000, 0.0000000000000000000, 0.0000000000000000000 ) ) ;
#145 = CARTESIAN_POINT ( 'NONE',  ( 0.0000000000000000000, 0.0000000000000000000, 0.7500000000000001110 ) ) ;
#146 = DIRECTION ( 'NONE',  ( -0.0000000000000000000, -0.0000000000000000000, -1.000000000000000000 ) ) ;
#147 = AXIS2_PLACEMENT_3D ( 'NONE', #349, #115, #244 ) ;
#148 = CARTESIAN_POINT ( 'NONE',  ( 0.0000000000000000000, 0.0000000000000000000, 0.7500000000000001110 ) ) ;
#149 = STYLED_ITEM ( 'NONE', ( #257 ), #57 ) ;
#150 = AXIS2_PLACEMENT_3D ( 'NONE', #60, #203, #152 ) ;
#151 = DIRECTION ( 'NONE',  ( -1.000000000000000000, 0.0000000000000000000, 0.0000000000000000000 ) ) ;
#152 = DIRECTION ( 'NONE',  ( -1.000000000000000000, 0.0000000000000000000, 0.0000000000000000000 ) ) ;
#153 = CARTESIAN_POINT ( 'NONE',  ( 0.0000000000000000000, 0.0000000000000000000, 0.1326999999999994850 ) ) ;
#154 = CARTESIAN_POINT ( 'NONE',  ( 0.1562500000000000000, 1.913510623667739463E-17, 2.500000000000000000 ) ) ;
#155 = DIRECTION ( 'NONE',  ( 1.000000000000000000, 0.0000000000000000000, -0.0000000000000000000 ) ) ;
#156 = CARTESIAN_POINT ( 'NONE',  ( 0.1562000000000000333, 1.912898300268165973E-17, 0.0000000000000000000 ) ) ;
#157 = PLANE ( 'NONE',  #270 ) ;
#158 = DIRECTION ( 'NONE',  ( 1.000000000000000000, 0.0000000000000000000, 0.0000000000000000000 ) ) ;
#159 = EDGE_LOOP ( 'NONE', ( #137, #192, #22, #212 ) ) ;
#160 = DIRECTION ( 'NONE',  ( -0.0000000000000000000, -0.0000000000000000000, -1.000000000000000000 ) ) ;
#161 = EDGE_CURVE ( 'NONE', #234, #315, #143, .T. ) ;
#162 = ORIENTED_EDGE ( 'NONE', *, *, #54, .F. ) ;
#163 = AXIS2_PLACEMENT_3D ( 'NONE', #250, #326, #269 ) ;
#164 = ORIENTED_EDGE ( 'NONE', *, *, #82, .T. ) ;
#165 = EDGE_LOOP ( 'NONE', ( #49, #105, #140, #343 ) ) ;
#166 = DIRECTION ( 'NONE',  ( 0.0000000000000000000, 0.0000000000000000000, 1.000000000000000000 ) ) ;
#167 = ORIENTED_EDGE ( 'NONE', *, *, #180, .T. ) ;
#168 = MECHANICAL_DESIGN_GEOMETRIC_PRESENTATION_REPRESENTATION (  '', ( #21 ), #320 ) ;
#169 = EDGE_CURVE ( 'NONE', #288, #310, #47, .T. ) ;
#170 = DIRECTION ( 'NONE',  ( -0.0000000000000000000, -0.0000000000000000000, -1.000000000000000000 ) ) ;
#171 = DIRECTION ( 'NONE',  ( 1.000000000000000000, 0.0000000000000000000, -0.0000000000000000000 ) ) ;
#172 = CYLINDRICAL_SURFACE ( 'NONE', #71, 0.1562500000000000000 ) ;
#173 = DIMENSIONAL_EXPONENTS ( 1.000000000000000000, 0.0000000000000000000, 0.0000000000000000000, 0.0000000000000000000, 0.0000000000000000000, 0.0000000000000000000, 0.0000000000000000000 ) ;
#174 = CARTESIAN_POINT ( 'NONE',  ( -0.1562000000000000333, 1.912898300268165973E-17, 0.7500000000000001110 ) ) ;
#175 = DIRECTION ( 'NONE',  ( 1.000000000000000000, 0.0000000000000000000, 0.0000000000000000000 ) ) ;
#176 = DIRECTION ( 'NONE',  ( -0.0000000000000000000, -0.0000000000000000000, -1.000000000000000000 ) ) ;
#177 = ORIENTED_EDGE ( 'NONE', *, *, #118, .T. ) ;
#178 = DIRECTION ( 'NONE',  ( 1.000000000000000000, 0.0000000000000000000, 0.0000000000000000000 ) ) ;
#179 = VECTOR ( 'NONE', #246, 39.37007874015748854 ) ;
#180 = EDGE_CURVE ( 'NONE', #15, #94, #195, .T. ) ;
#181 = SURFACE_STYLE_FILL_AREA ( #284 ) ;
#182 = ORIENTED_EDGE ( 'NONE', *, *, #161, .T. ) ;
#183 =( LENGTH_UNIT ( ) NAMED_UNIT ( * ) SI_UNIT ( $, .METRE. ) );
#184 = ADVANCED_FACE ( 'NONE', ( #29 ), #324, .T. ) ;
#185 = DIRECTION ( 'NONE',  ( 0.0000000000000000000, 0.0000000000000000000, -1.000000000000000000 ) ) ;
#186 =( GEOMETRIC_REPRESENTATION_CONTEXT ( 3 ) GLOBAL_UNCERTAINTY_ASSIGNED_CONTEXT ( ( #338 ) ) GLOBAL_UNIT_ASSIGNED_CONTEXT ( ( #210, #8, #130 ) ) REPRESENTATION_CONTEXT ( 'NONE', 'WORKASPACE' ) );
#187 = PRODUCT ( 'Micro_SPD-312-090', 'Micro_SPD-312-090', '', ( #311 ) ) ;
#188 = ORIENTED_EDGE ( 'NONE', *, *, #327, .T. ) ;
#189 = ORIENTED_EDGE ( 'NONE', *, *, #66, .T. ) ;
#190 = CIRCLE ( 'NONE', #260, 0.1412499999999994871 ) ;
#191 = MECHANICAL_DESIGN_GEOMETRIC_PRESENTATION_REPRESENTATION (  '', ( #149 ), #186 ) ;
#192 = ORIENTED_EDGE ( 'NONE', *, *, #298, .T. ) ;
#193 = ORIENTED_EDGE ( 'NONE', *, *, #142, .T. ) ;
#194 = LINE ( 'NONE', #294, #255 ) ;
#195 = CIRCLE ( 'NONE', #163, 0.02350000000000000352 ) ;
#196 = CYLINDRICAL_SURFACE ( 'NONE', #147, 0.1562000000000000333 ) ;
#197 = FACE_OUTER_BOUND ( 'NONE', #165, .T. ) ;
#198 = CONICAL_SURFACE ( 'NONE', #40, 0.1412499999999994871, 0.7853981633974391752 ) ;
#199 = CARTESIAN_POINT ( 'NONE',  ( 0.1562000000000000610, 1.912898300268166589E-17, 0.1326999999999994850 ) ) ;
#200 = LINE ( 'NONE', #302, #87 ) ;
#201 = CARTESIAN_POINT ( 'NONE',  ( 0.1562000000000000333, 0.0000000000000000000, 0.7500000000000001110 ) ) ;
#202 = ADVANCED_FACE ( 'NONE', ( #120 ), #172, .T. ) ;
#203 = DIRECTION ( 'NONE',  ( -0.0000000000000000000, -0.0000000000000000000, -1.000000000000000000 ) ) ;
#204 = DIRECTION ( 'NONE',  ( 0.7071067811865490160, 0.0000000000000000000, 0.7071067811865459074 ) ) ;
#205 = COLOUR_RGB ( '',0.7921568627450980005, 0.8196078431372548767, 0.9333333333333333481 ) ;
#206 =( NAMED_UNIT ( * ) PLANE_ANGLE_UNIT ( ) SI_UNIT ( $, .RADIAN. ) );
#207 = FILL_AREA_STYLE_COLOUR ( '', #295 ) ;
#208 = FACE_OUTER_BOUND ( 'NONE', #43, .T. ) ;
#209 = DIRECTION ( 'NONE',  ( 0.0000000000000000000, 0.0000000000000000000, -1.000000000000000000 ) ) ;
#210 =( CONVERSION_BASED_UNIT ( 'INCH', #98 ) LENGTH_UNIT ( ) NAMED_UNIT ( #104 ) );
#211 = DIRECTION ( 'NONE',  ( -0.0000000000000000000, -0.0000000000000000000, -1.000000000000000000 ) ) ;
#212 = ORIENTED_EDGE ( 'NONE', *, *, #59, .F. ) ;
#213 = VECTOR ( 'NONE', #53, 39.37007874015748854 ) ;
#214 = ORIENTED_EDGE ( 'NONE', *, *, #169, .T. ) ;
#215 = ORIENTED_EDGE ( 'NONE', *, *, #54, .T. ) ;
#216 = ORIENTED_EDGE ( 'NONE', *, *, #14, .T. ) ;
#217 = PRODUCT_DEFINITION_CONTEXT ( 'detailed design', #314, 'design' ) ;
#218 = ORIENTED_EDGE ( 'NONE', *, *, #66, .F. ) ;
#219 = DIRECTION ( 'NONE',  ( -0.0000000000000000000, -0.0000000000000000000, -1.000000000000000000 ) ) ;
#220 = PRODUCT_RELATED_PRODUCT_CATEGORY ( 'part', '', ( #187 ) ) ;
#221 = DIRECTION ( 'NONE',  ( 1.000000000000000000, 0.0000000000000000000, 0.0000000000000000000 ) ) ;
#222 = DIRECTION ( 'NONE',  ( -0.0000000000000000000, -0.0000000000000000000, -1.000000000000000000 ) ) ;
#223 = CARTESIAN_POINT ( 'NONE',  ( -0.1562500000000000000, 0.0000000000000000000, 0.7500499999999999945 ) ) ;
#224 = DIRECTION ( 'NONE',  ( 0.0000000000000000000, 0.0000000000000000000, 1.000000000000000000 ) ) ;
#225 = FACE_OUTER_BOUND ( 'NONE', #258, .T. ) ;
#226 = CARTESIAN_POINT ( 'NONE',  ( 0.0000000000000000000, 0.0000000000000000000, 2.500000000000000000 ) ) ;
#227 = LINE ( 'NONE', #252, #240 ) ;
#228 = AXIS2_PLACEMENT_3D ( 'NONE', #237, #341, #24 ) ;
#229 = FACE_OUTER_BOUND ( 'NONE', #342, .T. ) ;
#230 =( NAMED_UNIT ( * ) PLANE_ANGLE_UNIT ( ) SI_UNIT ( $, .RADIAN. ) );
#231 = CARTESIAN_POINT ( 'NONE',  ( 0.1412499999999994871, 1.729813603795630110E-17, 2.500000000000000000 ) ) ;
#232 = DIRECTION ( 'NONE',  ( -0.0000000000000000000, -0.0000000000000000000, -1.000000000000000000 ) ) ;
#233 = AXIS2_PLACEMENT_3D ( 'NONE', #5, #271, #114 ) ;
#234 = VERTEX_POINT ( 'NONE', #297 ) ;
#235 = CLOSED_SHELL ( 'NONE', ( #123, #184, #113, #9, #202, #101, #89, #78, #50, #251, #292, #110 ) ) ;
#236 = ORIENTED_EDGE ( 'NONE', *, *, #139, .T. ) ;
#237 = CARTESIAN_POINT ( 'NONE',  ( 0.0000000000000000000, 0.0000000000000000000, 2.500000000000000000 ) ) ;
#238 = EDGE_CURVE ( 'NONE', #315, #234, #190, .T. ) ;
#239 = VERTEX_POINT ( 'NONE', #85 ) ;
#240 = VECTOR ( 'NONE', #204, 39.37007874015748854 ) ;
#241 = ORIENTED_EDGE ( 'NONE', *, *, #330, .T. ) ;
#242 = CARTESIAN_POINT ( 'NONE',  ( 0.0000000000000000000, 0.0000000000000000000, 0.0000000000000000000 ) ) ;
#243 = VECTOR ( 'NONE', #96, 39.37007874015748854 ) ;
#244 = DIRECTION ( 'NONE',  ( -1.000000000000000000, 0.0000000000000000000, 0.0000000000000000000 ) ) ;
#245 = LINE ( 'NONE', #348, #116 ) ;
#246 = DIRECTION ( 'NONE',  ( -0.7071067811865490160, 8.659560562354951347E-17, 0.7071067811865459074 ) ) ;
#247 = CIRCLE ( 'NONE', #99, 0.1562000000000000333 ) ;
#248 = DIRECTION ( 'NONE',  ( 1.000000000000000000, 0.0000000000000000000, 0.0000000000000000000 ) ) ;
#249 = DIRECTION ( 'NONE',  ( 0.0000000000000000000, 0.0000000000000000000, 1.000000000000000000 ) ) ;
#250 = CARTESIAN_POINT ( 'NONE',  ( 0.0000000000000000000, 0.0000000000000000000, 0.0000000000000000000 ) ) ;
#251 = ADVANCED_FACE ( 'NONE', ( #86 ), #196, .T. ) ;
#252 = CARTESIAN_POINT ( 'NONE',  ( 0.1562000000000000333, 0.0000000000000000000, 0.7500000000000001110 ) ) ;
#253 = DIRECTION ( 'NONE',  ( 0.0000000000000000000, 0.0000000000000000000, 1.000000000000000000 ) ) ;
#254 =( CONVERSION_BASED_UNIT ( 'INCH', #277 ) LENGTH_UNIT ( ) NAMED_UNIT ( #319 ) );
#255 = VECTOR ( 'NONE', #170, 39.37007874015748143 ) ;
#256 = CARTESIAN_POINT ( 'NONE',  ( 0.0000000000000000000, 0.0000000000000000000, 2.500000000000000000 ) ) ;
#257 = PRESENTATION_STYLE_ASSIGNMENT (( #72 ) ) ;
#258 = EDGE_LOOP ( 'NONE', ( #51, #32, #164, #189 ) ) ;
#259 = CARTESIAN_POINT ( 'NONE',  ( 0.0000000000000000000, 0.0000000000000000000, 0.0000000000000000000 ) ) ;
#260 = AXIS2_PLACEMENT_3D ( 'NONE', #90, #301, #248 ) ;
#261 = ORIENTED_EDGE ( 'NONE', *, *, #42, .F. ) ;
#262 = AXIS2_PLACEMENT_3D ( 'NONE', #70, #39, #158 ) ;
#263 = FACE_OUTER_BOUND ( 'NONE', #290, .T. ) ;
#264 = ORIENTED_EDGE ( 'NONE', *, *, #339, .F. ) ;
#265 = ORIENTED_EDGE ( 'NONE', *, *, #82, .F. ) ;
#266 = AXIS2_PLACEMENT_3D ( 'NONE', #38, #166, #299 ) ;
#267 = CONICAL_SURFACE ( 'NONE', #266, 0.1562000000000000333, 0.7853981633974504994 ) ;
#268 = CARTESIAN_POINT ( 'NONE',  ( -0.1412499999999994871, 0.0000000000000000000, 2.500000000000000000 ) ) ;
#269 = DIRECTION ( 'NONE',  ( -1.000000000000000000, 0.0000000000000000000, 0.0000000000000000000 ) ) ;
#270 = AXIS2_PLACEMENT_3D ( 'NONE', #303, #249, #155 ) ;
#271 = DIRECTION ( 'NONE',  ( -0.0000000000000000000, -0.0000000000000000000, -1.000000000000000000 ) ) ;
#272 = CARTESIAN_POINT ( 'NONE',  ( 0.0000000000000000000, 0.0000000000000000000, 0.7500499999999999945 ) ) ;
#273 = LINE ( 'NONE', #27, #309 ) ;
#274 = PRESENTATION_LAYER_ASSIGNMENT (  '', '', ( #21 ) ) ;
#275 = FACE_OUTER_BOUND ( 'NONE', #67, .T. ) ;
#276 = EDGE_CURVE ( 'NONE', #239, #312, #273, .T. ) ;
#277 = LENGTH_MEASURE_WITH_UNIT ( LENGTH_MEASURE( 0.02539999999999999897 ), #75 );
#278 = ORIENTED_EDGE ( 'NONE', *, *, #327, .F. ) ;
#279 = DIRECTION ( 'NONE',  ( -1.000000000000000000, 0.0000000000000000000, 0.0000000000000000000 ) ) ;
#280 = DIRECTION ( 'NONE',  ( 1.000000000000000000, 0.0000000000000000000, 0.0000000000000000000 ) ) ;
#281 = DIRECTION ( 'NONE',  ( 1.000000000000000000, 0.0000000000000000000, 0.0000000000000000000 ) ) ;
#282 = CONICAL_SURFACE ( 'NONE', #228, 0.1412499999999994871, 0.7853981633974391752 ) ;
#283 = DIRECTION ( 'NONE',  ( -0.0000000000000000000, -0.0000000000000000000, -1.000000000000000000 ) ) ;
#284 = FILL_AREA_STYLE ('',( #334 ) ) ;
#285 = VERTEX_POINT ( 'NONE', #56 ) ;
#286 = LINE ( 'NONE', #154, #84 ) ;
#287 = EDGE_LOOP ( 'NONE', ( #134, #61, #291, #45 ) ) ;
#288 = VERTEX_POINT ( 'NONE', #296 ) ;
#289 = AXIS2_PLACEMENT_3D ( 'NONE', #55, #224, #175 ) ;
#290 = EDGE_LOOP ( 'NONE', ( #11, #215, #19, #18 ) ) ;
#291 = ORIENTED_EDGE ( 'NONE', *, *, #139, .F. ) ;
#292 = ADVANCED_FACE ( 'NONE', ( #197 ), #293, .T. ) ;
#293 = CONICAL_SURFACE ( 'NONE', #93, 0.02350000000000000352, 0.7853981633974504994 ) ;
#294 = CARTESIAN_POINT ( 'NONE',  ( -0.1562000000000000333, 0.0000000000000000000, 0.0000000000000000000 ) ) ;
#295 = COLOUR_RGB ( '',0.7921568627450980005, 0.8196078431372548767, 0.9333333333333333481 ) ;
#296 = CARTESIAN_POINT ( 'NONE',  ( -0.1562000000000000610, 0.0000000000000000000, 0.1326999999999994850 ) ) ;
#297 = CARTESIAN_POINT ( 'NONE',  ( -0.1412499999999994871, 0.0000000000000000000, 2.500000000000000000 ) ) ;
#298 = EDGE_CURVE ( 'NONE', #80, #285, #247, .T. ) ;
#299 = DIRECTION ( 'NONE',  ( 1.000000000000000000, 0.0000000000000000000, 0.0000000000000000000 ) ) ;
#300 = PRESENTATION_LAYER_ASSIGNMENT (  '', '', ( #149 ) ) ;
#301 = DIRECTION ( 'NONE',  ( 0.0000000000000000000, 0.0000000000000000000, 1.000000000000000000 ) ) ;
#302 = CARTESIAN_POINT ( 'NONE',  ( 0.02350000000000000352, 0.0000000000000000000, 0.0000000000000000000 ) ) ;
#303 = CARTESIAN_POINT ( 'NONE',  ( 0.0000000000000000000, 0.0000000000000000000, 2.500000000000000000 ) ) ;
#304 = FACE_OUTER_BOUND ( 'NONE', #316, .T. ) ;
#305 = FACE_OUTER_BOUND ( 'NONE', #126, .T. ) ;
#306 = AXIS2_PLACEMENT_3D ( 'NONE', #242, #219, #317 ) ;
#307 =( NAMED_UNIT ( * ) SI_UNIT ( $, .STERADIAN. ) SOLID_ANGLE_UNIT ( ) );
#308 =( CONVERSION_BASED_UNIT ( 'INCH', #129 ) LENGTH_UNIT ( ) NAMED_UNIT ( #173 ) );
#309 = VECTOR ( 'NONE', #222, 39.37007874015748143 ) ;
#310 = VERTEX_POINT ( 'NONE', #199 ) ;
#311 = PRODUCT_CONTEXT ( 'NONE', #344, 'mechanical' ) ;
#312 = VERTEX_POINT ( 'NONE', #223 ) ;
#313 = ORIENTED_EDGE ( 'NONE', *, *, #73, .T. ) ;
#314 = APPLICATION_CONTEXT ( 'automotive_design' ) ;
#315 = VERTEX_POINT ( 'NONE', #58 ) ;
#316 = EDGE_LOOP ( 'NONE', ( #106, #177, #214, #20 ) ) ;
#317 = DIRECTION ( 'NONE',  ( -1.000000000000000000, 0.0000000000000000000, 0.0000000000000000000 ) ) ;
#318 = EDGE_CURVE ( 'NONE', #94, #310, #200, .T. ) ;
#319 = DIMENSIONAL_EXPONENTS ( 1.000000000000000000, 0.0000000000000000000, 0.0000000000000000000, 0.0000000000000000000, 0.0000000000000000000, 0.0000000000000000000, 0.0000000000000000000 ) ;
#320 =( GEOMETRIC_REPRESENTATION_CONTEXT ( 3 ) GLOBAL_UNCERTAINTY_ASSIGNED_CONTEXT ( ( #68 ) ) GLOBAL_UNIT_ASSIGNED_CONTEXT ( ( #308, #230, #69 ) ) REPRESENTATION_CONTEXT ( 'NONE', 'WORKASPACE' ) );
#321 = AXIS2_PLACEMENT_3D ( 'NONE', #272, #323, #178 ) ;
#322 = ADVANCED_BREP_SHAPE_REPRESENTATION ( 'Micro_SPD-312-090', ( #57, #125 ), #81 ) ;
#323 = DIRECTION ( 'NONE',  ( -0.0000000000000000000, -0.0000000000000000000, -1.000000000000000000 ) ) ;
#324 = CYLINDRICAL_SURFACE ( 'NONE', #233, 0.1562000000000000333 ) ;
#325 = CIRCLE ( 'NONE', #1, 0.1562000000000000610 ) ;
#326 = DIRECTION ( 'NONE',  ( -0.0000000000000000000, -0.0000000000000000000, -1.000000000000000000 ) ) ;
#327 = EDGE_CURVE ( 'NONE', #285, #80, #345, .T. ) ;
#328 = DIRECTION ( 'NONE',  ( 1.000000000000000000, 0.0000000000000000000, 0.0000000000000000000 ) ) ;
#329 = SURFACE_SIDE_STYLE ('',( #119 ) ) ;
#330 = EDGE_CURVE ( 'NONE', #80, #310, #13, .T. ) ;
#331 = FILL_AREA_STYLE ('',( #207 ) ) ;
#332 = DIRECTION ( 'NONE',  ( 1.000000000000000000, 0.0000000000000000000, 0.0000000000000000000 ) ) ;
#333 = EDGE_CURVE ( 'NONE', #239, #36, #2, .T. ) ;
#334 = FILL_AREA_STYLE_COLOUR ( '', #205 ) ;
#335 = VECTOR ( 'NONE', #160, 39.37007874015748143 ) ;
#336 = CIRCLE ( 'NONE', #17, 0.1562500000000000000 ) ;
#337 = EDGE_LOOP ( 'NONE', ( #188, #241, #138, #261 ) ) ;
#338 = UNCERTAINTY_MEASURE_WITH_UNIT (LENGTH_MEASURE( 1.000000000000000082E-05 ), #210, 'distance_accuracy_value', 'NONE');
#339 = EDGE_CURVE ( 'NONE', #36, #48, #286, .T. ) ;
#340 = ORIENTED_EDGE ( 'NONE', *, *, #238, .T. ) ;
#341 = DIRECTION ( 'NONE',  ( 0.0000000000000000000, 0.0000000000000000000, -1.000000000000000000 ) ) ;
#342 = EDGE_LOOP ( 'NONE', ( #108, #167 ) ) ;
#343 = ORIENTED_EDGE ( 'NONE', *, *, #59, .T. ) ;
#344 = APPLICATION_CONTEXT ( 'automotive_design' ) ;
#345 = CIRCLE ( 'NONE', #111, 0.1562000000000000333 ) ;
#346 = AXIS2_PLACEMENT_3D ( 'NONE', #256, #35, #6 ) ;
#347 = CARTESIAN_POINT ( 'NONE',  ( 0.0000000000000000000, 0.0000000000000000000, 0.0000000000000000000 ) ) ;
#348 = CARTESIAN_POINT ( 'NONE',  ( -0.02350000000000000352, 2.877919977996280598E-18, 0.0000000000000000000 ) ) ;
#349 = CARTESIAN_POINT ( 'NONE',  ( 0.0000000000000000000, 0.0000000000000000000, 0.0000000000000000000 ) ) ;
ENDSEC;
END-ISO-10303-21;
