ISO-10303-21;
HEADER;
FILE_DESCRIPTION (( 'STEP AP214' ),
    '1' );
FILE_NAME ('Micro_SEM-156-04X.STEP',
    '2021-09-02T01:54:55',
    ( '' ),
    ( '' ),
    'SwSTEP 2.0',
    'SolidWorks 2020',
    '' );
FILE_SCHEMA (( 'AUTOMOTIVE_DESIGN' ));
ENDSEC;

DATA;
#1 = AXIS2_PLACEMENT_3D ( 'NONE', #195, #30, #262 ) ;
#2 = EDGE_LOOP ( 'NONE', ( #215, #279, #25, #84 ) ) ;
#3 = DIRECTION ( 'NONE',  ( -1.224646799147353454E-16, -0.0000000000000000000, -1.000000000000000000 ) ) ;
#4 = DIRECTION ( 'NONE',  ( -1.000000000000000000, 0.0000000000000000000, 1.224646799147353700E-16 ) ) ;
#5 = EDGE_CURVE ( 'NONE', #188, #184, #270, .T. ) ;
#6 = CARTESIAN_POINT ( 'NONE',  ( -0.07802190000000000514, 0.0000000000000000000, 9.554927009839491933E-18 ) ) ;
#7 = CIRCLE ( 'NONE', #175, 0.07802190000000000514 ) ;
#8 = CYLINDRICAL_SURFACE ( 'NONE', #241, 0.09375000000000001388 ) ;
#9 = AXIS2_PLACEMENT_3D ( 'NONE', #111, #200, #290 ) ;
#10 = ORIENTED_EDGE ( 'NONE', *, *, #13, .T. ) ;
#11 = CARTESIAN_POINT ( 'NONE',  ( 0.0000000000000000000, 0.0000000000000000000, 1.500000000000000222 ) ) ;
#12 = CARTESIAN_POINT ( 'NONE',  ( 0.07802190000000000514, 9.554927009839488851E-18, -9.554927009839491933E-18 ) ) ;
#13 = EDGE_CURVE ( 'NONE', #210, #199, #89, .T. ) ;
#14 = CIRCLE ( 'NONE', #278, 0.07875000000000061118 ) ;
#15 = FACE_OUTER_BOUND ( 'NONE', #50, .T. ) ;
#16 = ADVANCED_BREP_SHAPE_REPRESENTATION ( 'Micro_SEM-156-04X', ( #261, #160 ), #54 ) ;
#17 = ORIENTED_EDGE ( 'NONE', *, *, #105, .T. ) ;
#18 = CARTESIAN_POINT ( 'NONE',  ( 0.0000000000000000000, 0.0000000000000000000, 1.500000000000000222 ) ) ;
#19 = FILL_AREA_STYLE_COLOUR ( '', #103 ) ;
#20 = PRODUCT_DEFINITION_FORMATION_WITH_SPECIFIED_SOURCE ( 'ANY', '', #145, .NOT_KNOWN. ) ;
#21 =( NAMED_UNIT ( * ) SI_UNIT ( $, .STERADIAN. ) SOLID_ANGLE_UNIT ( ) );
#22 = EDGE_LOOP ( 'NONE', ( #110, #282, #211, #236 ) ) ;
#23 = ORIENTED_EDGE ( 'NONE', *, *, #87, .T. ) ;
#24 = CYLINDRICAL_SURFACE ( 'NONE', #94, 0.07802190000000000514 ) ;
#25 = ORIENTED_EDGE ( 'NONE', *, *, #242, .T. ) ;
#26 = DIRECTION ( 'NONE',  ( 1.000000000000000000, 0.0000000000000000000, 0.0000000000000000000 ) ) ;
#27 = ADVANCED_FACE ( 'NONE', ( #91 ), #281, .T. ) ;
#28 = DIRECTION ( 'NONE',  ( -1.000000000000000000, 0.0000000000000000000, 0.0000000000000000000 ) ) ;
#29 = EDGE_CURVE ( 'NONE', #239, #188, #71, .T. ) ;
#30 = DIRECTION ( 'NONE',  ( 1.224646799147353454E-16, 0.0000000000000000000, 1.000000000000000000 ) ) ;
#31 = DIRECTION ( 'NONE',  ( 1.000000000000000000, 0.0000000000000000000, 0.0000000000000000000 ) ) ;
#32 = CARTESIAN_POINT ( 'NONE',  ( 0.09375000000000004163, 1.148106374200644017E-17, 0.4021984875871287279 ) ) ;
#33 =( NAMED_UNIT ( * ) SI_UNIT ( $, .STERADIAN. ) SOLID_ANGLE_UNIT ( ) );
#34 = CARTESIAN_POINT ( 'NONE',  ( 0.0000000000000000000, 0.0000000000000000000, 1.500000000000000222 ) ) ;
#35 = FILL_AREA_STYLE ('',( #19 ) ) ;
#36 = DIRECTION ( 'NONE',  ( 0.0000000000000000000, 0.0000000000000000000, 1.000000000000000000 ) ) ;
#37 = DIRECTION ( 'NONE',  ( 1.000000000000000000, 0.0000000000000000000, 0.0000000000000000000 ) ) ;
#38 = EDGE_CURVE ( 'NONE', #184, #188, #82, .T. ) ;
#39 = FILL_AREA_STYLE ('',( #65 ) ) ;
#40 = APPLICATION_PROTOCOL_DEFINITION ( 'draft international standard', 'automotive_design', 1998, #183 ) ;
#41 = VECTOR ( 'NONE', #221, 39.37007874015748143 ) ;
#42 = ORIENTED_EDGE ( 'NONE', *, *, #190, .T. ) ;
#43 = CIRCLE ( 'NONE', #218, 0.09375000000000001388 ) ;
#44 = ORIENTED_EDGE ( 'NONE', *, *, #29, .T. ) ;
#45 = VERTEX_POINT ( 'NONE', #207 ) ;
#46 = CARTESIAN_POINT ( 'NONE',  ( 3.833144481331216295E-17, 0.0000000000000000000, 0.3130000000000000004 ) ) ;
#47 = DIRECTION ( 'NONE',  ( 0.0000000000000000000, 0.0000000000000000000, 1.000000000000000000 ) ) ;
#48 = CIRCLE ( 'NONE', #77, 0.07875000000000061118 ) ;
#49 = DIRECTION ( 'NONE',  ( -0.0000000000000000000, -0.0000000000000000000, -1.000000000000000000 ) ) ;
#50 = EDGE_LOOP ( 'NONE', ( #165, #191 ) ) ;
#51 = EDGE_LOOP ( 'NONE', ( #66, #17, #155, #112 ) ) ;
#52 = DIRECTION ( 'NONE',  ( -0.0000000000000000000, -0.0000000000000000000, -1.000000000000000000 ) ) ;
#53 = CARTESIAN_POINT ( 'NONE',  ( -0.09374999999999995837, 0.0000000000000000000, 0.4021984875871287279 ) ) ;
#54 =( GEOMETRIC_REPRESENTATION_CONTEXT ( 3 ) GLOBAL_UNCERTAINTY_ASSIGNED_CONTEXT ( ( #206 ) ) GLOBAL_UNIT_ASSIGNED_CONTEXT ( ( #269, #254, #21 ) ) REPRESENTATION_CONTEXT ( 'NONE', 'WORKASPACE' ) );
#55 = EDGE_LOOP ( 'NONE', ( #256, #192, #10, #230 ) ) ;
#56 = DIRECTION ( 'NONE',  ( -0.7071067811865531239, 0.0000000000000000000, -0.7071067811865419106 ) ) ;
#57 = CONICAL_SURFACE ( 'NONE', #136, 0.07875000000000061118, 0.7853981633974562726 ) ;
#58 = DIRECTION ( 'NONE',  ( 0.0000000000000000000, 0.0000000000000000000, -1.000000000000000000 ) ) ;
#59 =( GEOMETRIC_REPRESENTATION_CONTEXT ( 3 ) GLOBAL_UNCERTAINTY_ASSIGNED_CONTEXT ( ( #180 ) ) GLOBAL_UNIT_ASSIGNED_CONTEXT ( ( #98, #80, #33 ) ) REPRESENTATION_CONTEXT ( 'NONE', 'WORKASPACE' ) );
#60 = AXIS2_PLACEMENT_3D ( 'NONE', #212, #3, #115 ) ;
#61 = DIRECTION ( 'NONE',  ( 1.000000000000000000, 0.0000000000000000000, 0.0000000000000000000 ) ) ;
#62 = CARTESIAN_POINT ( 'NONE',  ( 0.0000000000000000000, 0.0000000000000000000, 0.0000000000000000000 ) ) ;
#63 = ADVANCED_FACE ( 'NONE', ( #179 ), #57, .T. ) ;
#64 = PRESENTATION_LAYER_ASSIGNMENT (  '', '', ( #86 ) ) ;
#65 = FILL_AREA_STYLE_COLOUR ( '', #268 ) ;
#66 = ORIENTED_EDGE ( 'NONE', *, *, #87, .F. ) ;
#67 = ORIENTED_EDGE ( 'NONE', *, *, #105, .F. ) ;
#68 = DIRECTION ( 'NONE',  ( 0.0000000000000000000, 0.0000000000000000000, -1.000000000000000000 ) ) ;
#69 = DIRECTION ( 'NONE',  ( 1.000000000000000000, 0.0000000000000000000, -0.0000000000000000000 ) ) ;
#70 = DIRECTION ( 'NONE',  ( -0.1736481776669312194, 2.126576849575783625E-17, 0.9848077530122080203 ) ) ;
#71 = LINE ( 'NONE', #158, #235 ) ;
#72 = ADVANCED_FACE ( 'NONE', ( #288 ), #274, .T. ) ;
#73 = CARTESIAN_POINT ( 'NONE',  ( 0.07802190000000004677, 0.0000000000000000000, 0.3130000000000000004 ) ) ;
#74 = ORIENTED_EDGE ( 'NONE', *, *, #38, .F. ) ;
#75 = CYLINDRICAL_SURFACE ( 'NONE', #9, 0.07802190000000000514 ) ;
#76 = DIRECTION ( 'NONE',  ( -1.224646799147353454E-16, -0.0000000000000000000, -1.000000000000000000 ) ) ;
#77 = AXIS2_PLACEMENT_3D ( 'NONE', #18, #172, #297 ) ;
#78 = AXIS2_PLACEMENT_3D ( 'NONE', #114, #106, #154 ) ;
#79 = ADVANCED_FACE ( 'NONE', ( #286 ), #95, .T. ) ;
#80 =( NAMED_UNIT ( * ) PLANE_ANGLE_UNIT ( ) SI_UNIT ( $, .RADIAN. ) );
#81 = CONICAL_SURFACE ( 'NONE', #142, 0.07802190000000000514, 0.1745329251994339192 ) ;
#82 = CIRCLE ( 'NONE', #148, 0.09375000000000001388 ) ;
#83 = PLANE ( 'NONE',  #227 ) ;
#84 = ORIENTED_EDGE ( 'NONE', *, *, #276, .F. ) ;
#85 = APPLICATION_PROTOCOL_DEFINITION ( 'draft international standard', 'automotive_design', 1998, #147 ) ;
#86 = STYLED_ITEM ( 'NONE', ( #117 ), #261 ) ;
#87 = EDGE_CURVE ( 'NONE', #210, #107, #130, .T. ) ;
#88 = VERTEX_POINT ( 'NONE', #264 ) ;
#89 = LINE ( 'NONE', #6, #109 ) ;
#90 = FACE_OUTER_BOUND ( 'NONE', #287, .T. ) ;
#91 = FACE_OUTER_BOUND ( 'NONE', #131, .T. ) ;
#92 = EDGE_CURVE ( 'NONE', #107, #188, #234, .T. ) ;
#93 = ORIENTED_EDGE ( 'NONE', *, *, #29, .F. ) ;
#94 = AXIS2_PLACEMENT_3D ( 'NONE', #132, #141, #4 ) ;
#95 = CYLINDRICAL_SURFACE ( 'NONE', #178, 0.09375000000000001388 ) ;
#96 = FACE_OUTER_BOUND ( 'NONE', #55, .T. ) ;
#97 = FACE_OUTER_BOUND ( 'NONE', #168, .T. ) ;
#98 =( CONVERSION_BASED_UNIT ( 'INCH', #101 ) LENGTH_UNIT ( ) NAMED_UNIT ( #298 ) );
#99 = CARTESIAN_POINT ( 'NONE',  ( -0.07802189999999997738, 1.051799537592296220E-17, 0.3130000000000000004 ) ) ;
#100 = SURFACE_STYLE_USAGE ( .BOTH. , #146 ) ;
#101 = LENGTH_MEASURE_WITH_UNIT ( LENGTH_MEASURE( 0.02539999999999999897 ), #247 );
#102 = SURFACE_STYLE_USAGE ( .BOTH. , #209 ) ;
#103 = COLOUR_RGB ( '',0.7921568627450980005, 0.8196078431372548767, 0.9333333333333333481 ) ;
#104 = ADVANCED_FACE ( 'NONE', ( #90 ), #8, .T. ) ;
#105 = EDGE_CURVE ( 'NONE', #210, #184, #140, .T. ) ;
#106 = DIRECTION ( 'NONE',  ( -1.224646799147353454E-16, -0.0000000000000000000, -1.000000000000000000 ) ) ;
#107 = VERTEX_POINT ( 'NONE', #137 ) ;
#108 = CIRCLE ( 'NONE', #292, 0.09375000000000001388 ) ;
#109 = VECTOR ( 'NONE', #285, 39.37007874015748143 ) ;
#110 = ORIENTED_EDGE ( 'NONE', *, *, #251, .F. ) ;
#111 = CARTESIAN_POINT ( 'NONE',  ( 0.0000000000000000000, 0.0000000000000000000, 0.0000000000000000000 ) ) ;
#112 = ORIENTED_EDGE ( 'NONE', *, *, #92, .F. ) ;
#113 = CARTESIAN_POINT ( 'NONE',  ( 0.0000000000000000000, 0.0000000000000000000, 1.500000000000000222 ) ) ;
#114 = CARTESIAN_POINT ( 'NONE',  ( 4.925510904454838295E-17, 0.0000000000000000000, 0.4021984875871287279 ) ) ;
#115 = DIRECTION ( 'NONE',  ( -1.000000000000000000, 0.0000000000000000000, 1.224646799147353700E-16 ) ) ;
#116 = DIRECTION ( 'NONE',  ( -1.000000000000000000, 0.0000000000000000000, 0.0000000000000000000 ) ) ;
#117 = PRESENTATION_STYLE_ASSIGNMENT (( #100 ) ) ;
#118 = STYLED_ITEM ( 'NONE', ( #128 ), #16 ) ;
#119 = VERTEX_POINT ( 'NONE', #189 ) ;
#120 = CARTESIAN_POINT ( 'NONE',  ( 0.0000000000000000000, 0.0000000000000000000, 1.485000000000000986 ) ) ;
#121 = AXIS2_PLACEMENT_3D ( 'NONE', #213, #47, #69 ) ;
#122 = ORIENTED_EDGE ( 'NONE', *, *, #138, .F. ) ;
#123 = DIRECTION ( 'NONE',  ( 1.000000000000000000, 0.0000000000000000000, -0.0000000000000000000 ) ) ;
#124 = DIRECTION ( 'NONE',  ( 1.000000000000000000, 0.0000000000000000000, 0.0000000000000000000 ) ) ;
#125 =( GEOMETRIC_REPRESENTATION_CONTEXT ( 3 ) GLOBAL_UNCERTAINTY_ASSIGNED_CONTEXT ( ( #253 ) ) GLOBAL_UNIT_ASSIGNED_CONTEXT ( ( #250, #272, #228 ) ) REPRESENTATION_CONTEXT ( 'NONE', 'WORKASPACE' ) );
#126 = SURFACE_STYLE_FILL_AREA ( #39 ) ;
#127 = EDGE_CURVE ( 'NONE', #45, #239, #166, .T. ) ;
#128 = PRESENTATION_STYLE_ASSIGNMENT (( #102 ) ) ;
#129 = CIRCLE ( 'NONE', #60, 0.07802190000000000514 ) ;
#130 = CIRCLE ( 'NONE', #153, 0.07802190000000000514 ) ;
#131 = EDGE_LOOP ( 'NONE', ( #194, #232 ) ) ;
#132 = CARTESIAN_POINT ( 'NONE',  ( 0.0000000000000000000, 0.0000000000000000000, 0.0000000000000000000 ) ) ;
#133 = ORIENTED_EDGE ( 'NONE', *, *, #177, .T. ) ;
#134 = ORIENTED_EDGE ( 'NONE', *, *, #276, .T. ) ;
#135 = MECHANICAL_DESIGN_GEOMETRIC_PRESENTATION_REPRESENTATION (  '', ( #86 ), #59 ) ;
#136 = AXIS2_PLACEMENT_3D ( 'NONE', #275, #252, #116 ) ;
#137 = CARTESIAN_POINT ( 'NONE',  ( 0.07802190000000004677, 0.0000000000000000000, 0.3130000000000000004 ) ) ;
#138 = EDGE_CURVE ( 'NONE', #199, #88, #129, .T. ) ;
#139 = ORIENTED_EDGE ( 'NONE', *, *, #190, .F. ) ;
#140 = LINE ( 'NONE', #231, #257 ) ;
#141 = DIRECTION ( 'NONE',  ( -1.224646799147353454E-16, -0.0000000000000000000, -1.000000000000000000 ) ) ;
#142 = AXIS2_PLACEMENT_3D ( 'NONE', #299, #202, #61 ) ;
#143 = AXIS2_PLACEMENT_3D ( 'NONE', #113, #159, #163 ) ;
#144 = CARTESIAN_POINT ( 'NONE',  ( 1.170141077868652707E-33, 0.0000000000000000000, 9.554927009839491933E-18 ) ) ;
#145 = PRODUCT ( 'Micro_SEM-156-04X', 'Micro_SEM-156-04X', '', ( #152 ) ) ;
#146 = SURFACE_SIDE_STYLE ('',( #169 ) ) ;
#147 = APPLICATION_CONTEXT ( 'automotive_design' ) ;
#148 = AXIS2_PLACEMENT_3D ( 'NONE', #161, #263, #31 ) ;
#149 = ORIENTED_EDGE ( 'NONE', *, *, #92, .T. ) ;
#150 = DIRECTION ( 'NONE',  ( 0.0000000000000000000, 0.0000000000000000000, 1.000000000000000000 ) ) ;
#151 = PRESENTATION_LAYER_ASSIGNMENT (  '', '', ( #118 ) ) ;
#152 = PRODUCT_CONTEXT ( 'NONE', #147, 'mechanical' ) ;
#153 = AXIS2_PLACEMENT_3D ( 'NONE', #46, #76, #284 ) ;
#154 = DIRECTION ( 'NONE',  ( 1.000000000000000000, 0.0000000000000000000, 0.0000000000000000000 ) ) ;
#155 = ORIENTED_EDGE ( 'NONE', *, *, #38, .T. ) ;
#156 = ORIENTED_EDGE ( 'NONE', *, *, #13, .F. ) ;
#157 = LINE ( 'NONE', #226, #41 ) ;
#158 = CARTESIAN_POINT ( 'NONE',  ( 0.09375000000000001388, 1.148106374200643401E-17, 1.500000000000000222 ) ) ;
#159 = DIRECTION ( 'NONE',  ( 0.0000000000000000000, 0.0000000000000000000, -1.000000000000000000 ) ) ;
#160 = AXIS2_PLACEMENT_3D ( 'NONE', #62, #150, #37 ) ;
#161 = CARTESIAN_POINT ( 'NONE',  ( 4.925510904454838295E-17, 0.0000000000000000000, 0.4021984875871287279 ) ) ;
#162 = DIRECTION ( 'NONE',  ( 0.1736481776669314137, 0.0000000000000000000, 0.9848077530122077983 ) ) ;
#163 = DIRECTION ( 'NONE',  ( -1.000000000000000000, 0.0000000000000000000, 0.0000000000000000000 ) ) ;
#164 = ADVANCED_FACE ( 'NONE', ( #96 ), #75, .T. ) ;
#165 = ORIENTED_EDGE ( 'NONE', *, *, #138, .T. ) ;
#166 = LINE ( 'NONE', #238, #205 ) ;
#167 = ADVANCED_FACE ( 'NONE', ( #214 ), #280, .T. ) ;
#168 = EDGE_LOOP ( 'NONE', ( #67, #173, #149, #217 ) ) ;
#169 = SURFACE_STYLE_FILL_AREA ( #35 ) ;
#170 = DIMENSIONAL_EXPONENTS ( 1.000000000000000000, 0.0000000000000000000, 0.0000000000000000000, 0.0000000000000000000, 0.0000000000000000000, 0.0000000000000000000, 0.0000000000000000000 ) ;
#171 = ADVANCED_FACE ( 'NONE', ( #265 ), #24, .T. ) ;
#172 = DIRECTION ( 'NONE',  ( 0.0000000000000000000, 0.0000000000000000000, 1.000000000000000000 ) ) ;
#173 = ORIENTED_EDGE ( 'NONE', *, *, #187, .F. ) ;
#174 = CARTESIAN_POINT ( 'NONE',  ( -0.09375000000000001388, 0.0000000000000000000, 1.485000000000000986 ) ) ;
#175 = AXIS2_PLACEMENT_3D ( 'NONE', #216, #193, #240 ) ;
#176 = CARTESIAN_POINT ( 'NONE',  ( -0.07802190000000000514, 0.0000000000000000000, 1.910985401967898387E-17 ) ) ;
#177 = EDGE_CURVE ( 'NONE', #219, #239, #43, .T. ) ;
#178 = AXIS2_PLACEMENT_3D ( 'NONE', #237, #49, #220 ) ;
#179 = FACE_OUTER_BOUND ( 'NONE', #22, .T. ) ;
#180 = UNCERTAINTY_MEASURE_WITH_UNIT (LENGTH_MEASURE( 1.000000000000000082E-05 ), #98, 'distance_accuracy_value', 'NONE');
#181 =( LENGTH_UNIT ( ) NAMED_UNIT ( * ) SI_UNIT ( $, .METRE. ) );
#182 = PRODUCT_DEFINITION ( 'UNKNOWN', '', #20, #185 ) ;
#183 = APPLICATION_CONTEXT ( 'automotive_design' ) ;
#184 = VERTEX_POINT ( 'NONE', #53 ) ;
#185 = PRODUCT_DEFINITION_CONTEXT ( 'detailed design', #183, 'design' ) ;
#186 = EDGE_LOOP ( 'NONE', ( #93, #134, #42, #277 ) ) ;
#187 = EDGE_CURVE ( 'NONE', #107, #210, #7, .T. ) ;
#188 = VERTEX_POINT ( 'NONE', #32 ) ;
#189 = CARTESIAN_POINT ( 'NONE',  ( -0.07875000000000061118, 0.0000000000000000000, 1.500000000000000222 ) ) ;
#190 = EDGE_CURVE ( 'NONE', #219, #184, #157, .T. ) ;
#191 = ORIENTED_EDGE ( 'NONE', *, *, #289, .T. ) ;
#192 = ORIENTED_EDGE ( 'NONE', *, *, #187, .T. ) ;
#193 = DIRECTION ( 'NONE',  ( -1.224646799147353454E-16, -0.0000000000000000000, -1.000000000000000000 ) ) ;
#194 = ORIENTED_EDGE ( 'NONE', *, *, #294, .T. ) ;
#195 = CARTESIAN_POINT ( 'NONE',  ( 3.833144481331216295E-17, 0.0000000000000000000, 0.3130000000000000004 ) ) ;
#196 = VECTOR ( 'NONE', #162, 39.37007874015748143 ) ;
#197 = ORIENTED_EDGE ( 'NONE', *, *, #244, .T. ) ;
#198 = DIRECTION ( 'NONE',  ( 0.7071067811865531239, 8.659560562355003116E-17, -0.7071067811865419106 ) ) ;
#199 = VERTEX_POINT ( 'NONE', #176 ) ;
#200 = DIRECTION ( 'NONE',  ( -1.224646799147353454E-16, -0.0000000000000000000, -1.000000000000000000 ) ) ;
#201 =( LENGTH_UNIT ( ) NAMED_UNIT ( * ) SI_UNIT ( $, .METRE. ) );
#202 = DIRECTION ( 'NONE',  ( 1.224646799147353454E-16, 0.0000000000000000000, 1.000000000000000000 ) ) ;
#203 = CARTESIAN_POINT ( 'NONE',  ( -0.07875000000000061118, 0.0000000000000000000, 1.500000000000000222 ) ) ;
#204 = CARTESIAN_POINT ( 'NONE',  ( 0.0000000000000000000, 0.0000000000000000000, 0.0000000000000000000 ) ) ;
#205 = VECTOR ( 'NONE', #198, 39.37007874015748143 ) ;
#206 = UNCERTAINTY_MEASURE_WITH_UNIT (LENGTH_MEASURE( 1.000000000000000082E-05 ), #269, 'distance_accuracy_value', 'NONE');
#207 = CARTESIAN_POINT ( 'NONE',  ( 0.07875000000000061118, 1.056257864264595965E-17, 1.500000000000000222 ) ) ;
#208 = ADVANCED_FACE ( 'NONE', ( #97 ), #81, .T. ) ;
#209 = SURFACE_SIDE_STYLE ('',( #126 ) ) ;
#210 = VERTEX_POINT ( 'NONE', #99 ) ;
#211 = ORIENTED_EDGE ( 'NONE', *, *, #177, .F. ) ;
#212 = CARTESIAN_POINT ( 'NONE',  ( 1.170141077868652707E-33, 0.0000000000000000000, 9.554927009839491933E-18 ) ) ;
#213 = CARTESIAN_POINT ( 'NONE',  ( 0.0000000000000000000, 0.0000000000000000000, 1.500000000000000222 ) ) ;
#214 = FACE_OUTER_BOUND ( 'NONE', #2, .T. ) ;
#215 = ORIENTED_EDGE ( 'NONE', *, *, #127, .F. ) ;
#216 = CARTESIAN_POINT ( 'NONE',  ( 3.833144481331216295E-17, 0.0000000000000000000, 0.3130000000000000004 ) ) ;
#217 = ORIENTED_EDGE ( 'NONE', *, *, #5, .T. ) ;
#218 = AXIS2_PLACEMENT_3D ( 'NONE', #283, #68, #26 ) ;
#219 = VERTEX_POINT ( 'NONE', #174 ) ;
#220 = DIRECTION ( 'NONE',  ( -1.000000000000000000, 0.0000000000000000000, 0.0000000000000000000 ) ) ;
#221 = DIRECTION ( 'NONE',  ( -0.0000000000000000000, -0.0000000000000000000, -1.000000000000000000 ) ) ;
#222 = VECTOR ( 'NONE', #56, 39.37007874015748143 ) ;
#223 = CLOSED_SHELL ( 'NONE', ( #171, #72, #63, #104, #79, #27, #167, #208, #164, #266 ) ) ;
#224 = DIRECTION ( 'NONE',  ( -1.000000000000000000, 0.0000000000000000000, 1.224646799147353700E-16 ) ) ;
#225 = DIRECTION ( 'NONE',  ( -1.224646799147353454E-16, -0.0000000000000000000, -1.000000000000000000 ) ) ;
#226 = CARTESIAN_POINT ( 'NONE',  ( -0.09375000000000001388, 0.0000000000000000000, 1.500000000000000222 ) ) ;
#227 = AXIS2_PLACEMENT_3D ( 'NONE', #204, #245, #123 ) ;
#228 =( NAMED_UNIT ( * ) SI_UNIT ( $, .STERADIAN. ) SOLID_ANGLE_UNIT ( ) );
#229 = VECTOR ( 'NONE', #291, 39.37007874015748143 ) ;
#230 = ORIENTED_EDGE ( 'NONE', *, *, #289, .F. ) ;
#231 = CARTESIAN_POINT ( 'NONE',  ( -0.07802189999999997738, 9.554927009839488851E-18, 0.3130000000000000004 ) ) ;
#232 = ORIENTED_EDGE ( 'NONE', *, *, #251, .T. ) ;
#233 = AXIS2_PLACEMENT_3D ( 'NONE', #144, #225, #224 ) ;
#234 = LINE ( 'NONE', #73, #196 ) ;
#235 = VECTOR ( 'NONE', #259, 39.37007874015748143 ) ;
#236 = ORIENTED_EDGE ( 'NONE', *, *, #242, .F. ) ;
#237 = CARTESIAN_POINT ( 'NONE',  ( 0.0000000000000000000, 0.0000000000000000000, 1.500000000000000222 ) ) ;
#238 = CARTESIAN_POINT ( 'NONE',  ( 0.07875000000000061118, 9.644093543285480678E-18, 1.500000000000000222 ) ) ;
#239 = VERTEX_POINT ( 'NONE', #295 ) ;
#240 = DIRECTION ( 'NONE',  ( -1.000000000000000000, 0.0000000000000000000, 0.0000000000000000000 ) ) ;
#241 = AXIS2_PLACEMENT_3D ( 'NONE', #11, #52, #28 ) ;
#242 = EDGE_CURVE ( 'NONE', #119, #219, #243, .T. ) ;
#243 = LINE ( 'NONE', #203, #222 ) ;
#244 = EDGE_CURVE ( 'NONE', #107, #88, #271, .T. ) ;
#245 = DIRECTION ( 'NONE',  ( 0.0000000000000000000, 0.0000000000000000000, 1.000000000000000000 ) ) ;
#246 = CIRCLE ( 'NONE', #233, 0.07802190000000000514 ) ;
#247 =( LENGTH_UNIT ( ) NAMED_UNIT ( * ) SI_UNIT ( $, .METRE. ) );
#248 = DIMENSIONAL_EXPONENTS ( 1.000000000000000000, 0.0000000000000000000, 0.0000000000000000000, 0.0000000000000000000, 0.0000000000000000000, 0.0000000000000000000, 0.0000000000000000000 ) ;
#249 = LENGTH_MEASURE_WITH_UNIT ( LENGTH_MEASURE( 0.02539999999999999897 ), #181 );
#250 =( CONVERSION_BASED_UNIT ( 'INCH', #249 ) LENGTH_UNIT ( ) NAMED_UNIT ( #248 ) );
#251 = EDGE_CURVE ( 'NONE', #45, #119, #14, .T. ) ;
#252 = DIRECTION ( 'NONE',  ( 0.0000000000000000000, 0.0000000000000000000, -1.000000000000000000 ) ) ;
#253 = UNCERTAINTY_MEASURE_WITH_UNIT (LENGTH_MEASURE( 1.000000000000000082E-05 ), #250, 'distance_accuracy_value', 'NONE');
#254 =( NAMED_UNIT ( * ) PLANE_ANGLE_UNIT ( ) SI_UNIT ( $, .RADIAN. ) );
#255 = PRODUCT_RELATED_PRODUCT_CATEGORY ( 'part', '', ( #145 ) ) ;
#256 = ORIENTED_EDGE ( 'NONE', *, *, #244, .F. ) ;
#257 = VECTOR ( 'NONE', #70, 39.37007874015747433 ) ;
#258 = EDGE_LOOP ( 'NONE', ( #23, #197, #122, #156 ) ) ;
#259 = DIRECTION ( 'NONE',  ( -0.0000000000000000000, -0.0000000000000000000, -1.000000000000000000 ) ) ;
#260 = MECHANICAL_DESIGN_GEOMETRIC_PRESENTATION_REPRESENTATION (  '', ( #118 ), #125 ) ;
#261 = MANIFOLD_SOLID_BREP ( 'Cut-Revolve1', #223 ) ;
#262 = DIRECTION ( 'NONE',  ( 1.000000000000000000, 0.0000000000000000000, 0.0000000000000000000 ) ) ;
#263 = DIRECTION ( 'NONE',  ( -1.224646799147353454E-16, -0.0000000000000000000, -1.000000000000000000 ) ) ;
#264 = CARTESIAN_POINT ( 'NONE',  ( 0.07802190000000000514, 9.554927009839488851E-18, 0.0000000000000000000 ) ) ;
#265 = FACE_OUTER_BOUND ( 'NONE', #258, .T. ) ;
#266 = ADVANCED_FACE ( 'NONE', ( #15 ), #83, .F. ) ;
#267 = DIRECTION ( 'NONE',  ( 1.000000000000000000, 0.0000000000000000000, 0.0000000000000000000 ) ) ;
#268 = COLOUR_RGB ( '',0.7921568627450980005, 0.8196078431372548767, 0.9333333333333333481 ) ;
#269 =( CONVERSION_BASED_UNIT ( 'INCH', #293 ) LENGTH_UNIT ( ) NAMED_UNIT ( #170 ) );
#270 = CIRCLE ( 'NONE', #78, 0.09375000000000001388 ) ;
#271 = LINE ( 'NONE', #12, #229 ) ;
#272 =( NAMED_UNIT ( * ) PLANE_ANGLE_UNIT ( ) SI_UNIT ( $, .RADIAN. ) );
#273 = SHAPE_DEFINITION_REPRESENTATION ( #296, #16 ) ;
#274 = CONICAL_SURFACE ( 'NONE', #1, 0.07802190000000000514, 0.1745329251994339192 ) ;
#275 = CARTESIAN_POINT ( 'NONE',  ( 0.0000000000000000000, 0.0000000000000000000, 1.500000000000000222 ) ) ;
#276 = EDGE_CURVE ( 'NONE', #239, #219, #108, .T. ) ;
#277 = ORIENTED_EDGE ( 'NONE', *, *, #5, .F. ) ;
#278 = AXIS2_PLACEMENT_3D ( 'NONE', #34, #36, #124 ) ;
#279 = ORIENTED_EDGE ( 'NONE', *, *, #294, .F. ) ;
#280 = CONICAL_SURFACE ( 'NONE', #143, 0.07875000000000061118, 0.7853981633974562726 ) ;
#281 = PLANE ( 'NONE',  #121 ) ;
#282 = ORIENTED_EDGE ( 'NONE', *, *, #127, .T. ) ;
#283 = CARTESIAN_POINT ( 'NONE',  ( 0.0000000000000000000, 0.0000000000000000000, 1.485000000000000986 ) ) ;
#284 = DIRECTION ( 'NONE',  ( -1.000000000000000000, 0.0000000000000000000, 0.0000000000000000000 ) ) ;
#285 = DIRECTION ( 'NONE',  ( -1.224646799147353454E-16, -0.0000000000000000000, -1.000000000000000000 ) ) ;
#286 = FACE_OUTER_BOUND ( 'NONE', #186, .T. ) ;
#287 = EDGE_LOOP ( 'NONE', ( #133, #44, #74, #139 ) ) ;
#288 = FACE_OUTER_BOUND ( 'NONE', #51, .T. ) ;
#289 = EDGE_CURVE ( 'NONE', #88, #199, #246, .T. ) ;
#290 = DIRECTION ( 'NONE',  ( -1.000000000000000000, 0.0000000000000000000, 1.224646799147353700E-16 ) ) ;
#291 = DIRECTION ( 'NONE',  ( -1.224646799147353454E-16, -0.0000000000000000000, -1.000000000000000000 ) ) ;
#292 = AXIS2_PLACEMENT_3D ( 'NONE', #120, #58, #267 ) ;
#293 = LENGTH_MEASURE_WITH_UNIT ( LENGTH_MEASURE( 0.02539999999999999897 ), #201 );
#294 = EDGE_CURVE ( 'NONE', #119, #45, #48, .T. ) ;
#295 = CARTESIAN_POINT ( 'NONE',  ( 0.09375000000000001388, 1.148106374200643401E-17, 1.485000000000000986 ) ) ;
#296 = PRODUCT_DEFINITION_SHAPE ( 'NONE', 'NONE',  #182 ) ;
#297 = DIRECTION ( 'NONE',  ( 1.000000000000000000, 0.0000000000000000000, 0.0000000000000000000 ) ) ;
#298 = DIMENSIONAL_EXPONENTS ( 1.000000000000000000, 0.0000000000000000000, 0.0000000000000000000, 0.0000000000000000000, 0.0000000000000000000, 0.0000000000000000000, 0.0000000000000000000 ) ;
#299 = CARTESIAN_POINT ( 'NONE',  ( 3.833144481331216295E-17, 0.0000000000000000000, 0.3130000000000000004 ) ) ;
ENDSEC;
END-ISO-10303-21;
