ISO-10303-21;
HEADER;
FILE_DESCRIPTION (( 'STEP AP214' ),
    '1' );
FILE_NAME ('Micro_DM-625-290.STEP',
    '2021-09-02T16:09:15',
    ( '' ),
    ( '' ),
    'SwSTEP 2.0',
    'SolidWorks 2020',
    '' );
FILE_SCHEMA (( 'AUTOMOTIVE_DESIGN' ));
ENDSEC;

DATA;
#1 = ORIENTED_EDGE ( 'NONE', *, *, #304, .T. ) ;
#2 = UNCERTAINTY_MEASURE_WITH_UNIT (LENGTH_MEASURE( 1.000000000000000082E-05 ), #241, 'distance_accuracy_value', 'NONE');
#3 = ORIENTED_EDGE ( 'NONE', *, *, #141, .F. ) ;
#4 = AXIS2_PLACEMENT_3D ( 'NONE', #145, #196, #296 ) ;
#5 = AXIS2_PLACEMENT_3D ( 'NONE', #168, #130, #159 ) ;
#6 = LINE ( 'NONE', #132, #178 ) ;
#7 = UNCERTAINTY_MEASURE_WITH_UNIT (LENGTH_MEASURE( 1.000000000000000082E-05 ), #58, 'distance_accuracy_value', 'NONE');
#8 = LINE ( 'NONE', #313, #270 ) ;
#9 = FILL_AREA_STYLE ('',( #103 ) ) ;
#10 = ADVANCED_BREP_SHAPE_REPRESENTATION ( 'Micro_DM-625-290', ( #214, #295 ), #300 ) ;
#11 =( NAMED_UNIT ( * ) PLANE_ANGLE_UNIT ( ) SI_UNIT ( $, .RADIAN. ) );
#12 = PRESENTATION_STYLE_ASSIGNMENT (( #137 ) ) ;
#13 = DIRECTION ( 'NONE',  ( 1.000000000000000000, 0.0000000000000000000, -0.0000000000000000000 ) ) ;
#14 =( CONVERSION_BASED_UNIT ( 'INCH', #136 ) LENGTH_UNIT ( ) NAMED_UNIT ( #104 ) );
#15 = DIRECTION ( 'NONE',  ( 0.0000000000000000000, 0.0000000000000000000, -1.000000000000000000 ) ) ;
#16 = DIRECTION ( 'NONE',  ( -1.000000000000000000, 0.0000000000000000000, 0.0000000000000000000 ) ) ;
#17 = FACE_BOUND ( 'NONE', #94, .T. ) ;
#18 = CARTESIAN_POINT ( 'NONE',  ( -0.3125000000000000000, 0.0000000000000000000, 1.250000000000000000 ) ) ;
#19 = AXIS2_PLACEMENT_3D ( 'NONE', #260, #185, #13 ) ;
#20 = AXIS2_PLACEMENT_3D ( 'NONE', #30, #156, #182 ) ;
#21 = CARTESIAN_POINT ( 'NONE',  ( -0.2975000000000003197, 0.0000000000000000000, 3.500000000000000000 ) ) ;
#22 = CARTESIAN_POINT ( 'NONE',  ( 0.0000000000000000000, 0.0000000000000000000, 1.250000000000000000 ) ) ;
#23 = EDGE_CURVE ( 'NONE', #174, #24, #251, .T. ) ;
#24 = VERTEX_POINT ( 'NONE', #253 ) ;
#25 = AXIS2_PLACEMENT_3D ( 'NONE', #268, #15, #112 ) ;
#26 = ORIENTED_EDGE ( 'NONE', *, *, #169, .T. ) ;
#27 = FACE_OUTER_BOUND ( 'NONE', #165, .T. ) ;
#28 = CARTESIAN_POINT ( 'NONE',  ( -0.3124500000000000610, 3.826408923935906052E-17, 0.3049499999999988331 ) ) ;
#29 = DIRECTION ( 'NONE',  ( -0.0000000000000000000, -0.0000000000000000000, -1.000000000000000000 ) ) ;
#30 = CARTESIAN_POINT ( 'NONE',  ( 0.0000000000000000000, 0.0000000000000000000, 1.707404996040164512E-17 ) ) ;
#31 = PRODUCT_DEFINITION_FORMATION_WITH_SPECIFIED_SOURCE ( 'ANY', '', #79, .NOT_KNOWN. ) ;
#32 = SHAPE_DEFINITION_REPRESENTATION ( #252, #10 ) ;
#33 = DIRECTION ( 'NONE',  ( -0.0000000000000000000, -0.0000000000000000000, -1.000000000000000000 ) ) ;
#34 = DIRECTION ( 'NONE',  ( -1.000000000000000000, 0.0000000000000000000, 0.0000000000000000000 ) ) ;
#35 = DIRECTION ( 'NONE',  ( -0.0000000000000000000, -0.0000000000000000000, -1.000000000000000000 ) ) ;
#36 = DIRECTION ( 'NONE',  ( 0.0000000000000000000, 0.0000000000000000000, -1.000000000000000000 ) ) ;
#37 = DIRECTION ( 'NONE',  ( -0.0000000000000000000, -0.0000000000000000000, -1.000000000000000000 ) ) ;
#38 = CIRCLE ( 'NONE', #324, 0.2975000000000003197 ) ;
#39 =( GEOMETRIC_REPRESENTATION_CONTEXT ( 3 ) GLOBAL_UNCERTAINTY_ASSIGNED_CONTEXT ( ( #2 ) ) GLOBAL_UNIT_ASSIGNED_CONTEXT ( ( #241, #154, #209 ) ) REPRESENTATION_CONTEXT ( 'NONE', 'WORKASPACE' ) );
#40 = EDGE_CURVE ( 'NONE', #122, #91, #317, .T. ) ;
#41 = CARTESIAN_POINT ( 'NONE',  ( -0.007499999999999999722, 1.959128716935978978E-17, 1.707404996040164512E-17 ) ) ;
#42 = ORIENTED_EDGE ( 'NONE', *, *, #311, .T. ) ;
#43 = ORIENTED_EDGE ( 'NONE', *, *, #75, .T. ) ;
#44 = ADVANCED_FACE ( 'NONE', ( #64 ), #231, .T. ) ;
#45 = APPLICATION_CONTEXT ( 'automotive_design' ) ;
#46 = CARTESIAN_POINT ( 'NONE',  ( 0.2975000000000003197, 3.643324227463378817E-17, 3.500000000000000000 ) ) ;
#47 = ORIENTED_EDGE ( 'NONE', *, *, #325, .F. ) ;
#48 = ORIENTED_EDGE ( 'NONE', *, *, #274, .F. ) ;
#49 = AXIS2_PLACEMENT_3D ( 'NONE', #68, #170, #326 ) ;
#50 = AXIS2_PLACEMENT_3D ( 'NONE', #52, #33, #109 ) ;
#51 = ORIENTED_EDGE ( 'NONE', *, *, #155, .T. ) ;
#52 = CARTESIAN_POINT ( 'NONE',  ( 0.0000000000000000000, 0.0000000000000000000, 1.250000000000000000 ) ) ;
#53 = AXIS2_PLACEMENT_3D ( 'NONE', #22, #328, #73 ) ;
#54 = PRODUCT_DEFINITION_CONTEXT ( 'detailed design', #224, 'design' ) ;
#55 = CARTESIAN_POINT ( 'NONE',  ( 0.0000000000000000000, 0.0000000000000000000, 1.707404996040164512E-17 ) ) ;
#56 = ADVANCED_FACE ( 'NONE', ( #223 ), #322, .T. ) ;
#57 = SURFACE_STYLE_FILL_AREA ( #9 ) ;
#58 =( CONVERSION_BASED_UNIT ( 'INCH', #269 ) LENGTH_UNIT ( ) NAMED_UNIT ( #222 ) );
#59 = FACE_OUTER_BOUND ( 'NONE', #275, .T. ) ;
#60 = DIRECTION ( 'NONE',  ( 0.0000000000000000000, 0.0000000000000000000, 1.000000000000000000 ) ) ;
#61 = DIRECTION ( 'NONE',  ( -0.0000000000000000000, -0.0000000000000000000, -1.000000000000000000 ) ) ;
#62 = ORIENTED_EDGE ( 'NONE', *, *, #283, .T. ) ;
#63 = DIRECTION ( 'NONE',  ( 1.000000000000000000, 0.0000000000000000000, 0.0000000000000000000 ) ) ;
#64 = FACE_OUTER_BOUND ( 'NONE', #206, .T. ) ;
#65 = FACE_OUTER_BOUND ( 'NONE', #234, .T. ) ;
#66 = AXIS2_PLACEMENT_3D ( 'NONE', #292, #36, #143 ) ;
#67 = CIRCLE ( 'NONE', #5, 0.3124500000000002276 ) ;
#68 = CARTESIAN_POINT ( 'NONE',  ( 0.3124500000000002276, 0.0000000000000000000, 1.250000000000000000 ) ) ;
#69 = EDGE_LOOP ( 'NONE', ( #230, #1, #152, #277 ) ) ;
#70 = VERTEX_POINT ( 'NONE', #84 ) ;
#71 = CIRCLE ( 'NONE', #190, 0.2975000000000003197 ) ;
#72 = VERTEX_POINT ( 'NONE', #193 ) ;
#73 = DIRECTION ( 'NONE',  ( -1.000000000000000000, 0.0000000000000000000, 0.0000000000000000000 ) ) ;
#74 = ORIENTED_EDGE ( 'NONE', *, *, #261, .F. ) ;
#75 = EDGE_CURVE ( 'NONE', #24, #122, #289, .T. ) ;
#76 = CYLINDRICAL_SURFACE ( 'NONE', #207, 0.3124500000000001165 ) ;
#77 = DIRECTION ( 'NONE',  ( 1.000000000000000000, 0.0000000000000000000, 0.0000000000000000000 ) ) ;
#78 = ADVANCED_FACE ( 'NONE', ( #59 ), #89, .T. ) ;
#79 = PRODUCT ( 'Micro_DM-625-290', 'Micro_DM-625-290', '', ( #212 ) ) ;
#80 = CARTESIAN_POINT ( 'NONE',  ( 0.0000000000000000000, 0.0000000000000000000, 3.484999999999999432 ) ) ;
#81 = CARTESIAN_POINT ( 'NONE',  ( 0.0000000000000000000, 0.0000000000000000000, 3.500000000000000000 ) ) ;
#82 = DIRECTION ( 'NONE',  ( -1.000000000000000000, 0.0000000000000000000, 0.0000000000000000000 ) ) ;
#83 = DIRECTION ( 'NONE',  ( -1.000000000000000000, 0.0000000000000000000, 0.0000000000000000000 ) ) ;
#84 = CARTESIAN_POINT ( 'NONE',  ( 0.007499999999999999722, 0.0000000000000000000, 1.707404996040164512E-17 ) ) ;
#85 = ORIENTED_EDGE ( 'NONE', *, *, #242, .T. ) ;
#86 = DIRECTION ( 'NONE',  ( -0.0000000000000000000, -0.0000000000000000000, -1.000000000000000000 ) ) ;
#87 = CARTESIAN_POINT ( 'NONE',  ( -0.3124500000000001165, 0.0000000000000000000, 0.0000000000000000000 ) ) ;
#88 = ADVANCED_FACE ( 'NONE', ( #323 ), #309, .T. ) ;
#89 = CYLINDRICAL_SURFACE ( 'NONE', #146, 0.3125000000000000000 ) ;
#90 = VECTOR ( 'NONE', #302, 39.37007874015748143 ) ;
#91 = VERTEX_POINT ( 'NONE', #226 ) ;
#92 = EDGE_CURVE ( 'NONE', #24, #297, #259, .T. ) ;
#93 = ORIENTED_EDGE ( 'NONE', *, *, #169, .F. ) ;
#94 = EDGE_LOOP ( 'NONE', ( #123, #48 ) ) ;
#95 = VECTOR ( 'NONE', #121, 39.37007874015748143 ) ;
#96 = STYLED_ITEM ( 'NONE', ( #12 ), #214 ) ;
#97 = CARTESIAN_POINT ( 'NONE',  ( 0.0000000000000000000, 0.0000000000000000000, 3.500000000000000000 ) ) ;
#98 = ORIENTED_EDGE ( 'NONE', *, *, #325, .T. ) ;
#99 = EDGE_CURVE ( 'NONE', #72, #254, #247, .T. ) ;
#100 = VERTEX_POINT ( 'NONE', #41 ) ;
#101 = AXIS2_PLACEMENT_3D ( 'NONE', #55, #180, #285 ) ;
#102 = ADVANCED_FACE ( 'NONE', ( #249 ), #221, .F. ) ;
#103 = FILL_AREA_STYLE_COLOUR ( '', #129 ) ;
#104 = DIMENSIONAL_EXPONENTS ( 1.000000000000000000, 0.0000000000000000000, 0.0000000000000000000, 0.0000000000000000000, 0.0000000000000000000, 0.0000000000000000000, 0.0000000000000000000 ) ;
#105 = FACE_OUTER_BOUND ( 'NONE', #327, .T. ) ;
#106 = CARTESIAN_POINT ( 'NONE',  ( -0.2975000000000003197, 0.0000000000000000000, 3.500000000000000000 ) ) ;
#107 = CIRCLE ( 'NONE', #225, 0.007499999999999999722 ) ;
#108 =( NAMED_UNIT ( * ) SI_UNIT ( $, .STERADIAN. ) SOLID_ANGLE_UNIT ( ) );
#109 = DIRECTION ( 'NONE',  ( -1.000000000000000000, 0.0000000000000000000, 0.0000000000000000000 ) ) ;
#110 = DIRECTION ( 'NONE',  ( -1.000000000000000000, 0.0000000000000000000, 0.0000000000000000000 ) ) ;
#111 = DIRECTION ( 'NONE',  ( 0.0000000000000000000, 0.0000000000000000000, 1.000000000000000000 ) ) ;
#112 = DIRECTION ( 'NONE',  ( -1.000000000000000000, 0.0000000000000000000, 0.0000000000000000000 ) ) ;
#113 = EDGE_LOOP ( 'NONE', ( #148, #298 ) ) ;
#114 = MECHANICAL_DESIGN_GEOMETRIC_PRESENTATION_REPRESENTATION (  '', ( #96 ), #39 ) ;
#115 = PLANE ( 'NONE',  #49 ) ;
#116 = ORIENTED_EDGE ( 'NONE', *, *, #202, .T. ) ;
#117 = FACE_OUTER_BOUND ( 'NONE', #176, .T. ) ;
#118 = ADVANCED_FACE ( 'NONE', ( #65 ), #144, .T. ) ;
#119 = CARTESIAN_POINT ( 'NONE',  ( -0.3125000000000000000, 0.0000000000000000000, 3.500000000000000000 ) ) ;
#120 = ORIENTED_EDGE ( 'NONE', *, *, #141, .T. ) ;
#121 = DIRECTION ( 'NONE',  ( 0.7071067811865346942, 8.659560562354773853E-17, -0.7071067811865603403 ) ) ;
#122 = VERTEX_POINT ( 'NONE', #18 ) ;
#123 = ORIENTED_EDGE ( 'NONE', *, *, #283, .F. ) ;
#124 = DIRECTION ( 'NONE',  ( -1.000000000000000000, 0.0000000000000000000, 0.0000000000000000000 ) ) ;
#125 = VERTEX_POINT ( 'NONE', #163 ) ;
#126 = ORIENTED_EDGE ( 'NONE', *, *, #191, .F. ) ;
#127 = ADVANCED_FACE ( 'NONE', ( #17, #248 ), #115, .T. ) ;
#128 = DIRECTION ( 'NONE',  ( 0.0000000000000000000, 0.0000000000000000000, -1.000000000000000000 ) ) ;
#129 = COLOUR_RGB ( '',0.7921568627450980005, 0.8196078431372548767, 0.9333333333333333481 ) ;
#130 = DIRECTION ( 'NONE',  ( -0.0000000000000000000, -0.0000000000000000000, -1.000000000000000000 ) ) ;
#131 = CARTESIAN_POINT ( 'NONE',  ( 0.0000000000000000000, 0.0000000000000000000, 0.0000000000000000000 ) ) ;
#132 = CARTESIAN_POINT ( 'NONE',  ( -0.007499999999999999722, 9.184850993605147975E-19, 1.707404996040164512E-17 ) ) ;
#133 = SURFACE_SIDE_STYLE ('',( #184 ) ) ;
#134 = FACE_OUTER_BOUND ( 'NONE', #301, .T. ) ;
#135 = CIRCLE ( 'NONE', #147, 0.3124500000000002276 ) ;
#136 = LENGTH_MEASURE_WITH_UNIT ( LENGTH_MEASURE( 0.02539999999999999897 ), #194 );
#137 = SURFACE_STYLE_USAGE ( .BOTH. , #287 ) ;
#138 = CARTESIAN_POINT ( 'NONE',  ( 0.0000000000000000000, 0.0000000000000000000, 0.3049499999999988331 ) ) ;
#139 = SURFACE_STYLE_USAGE ( .BOTH. , #133 ) ;
#140 = DIRECTION ( 'NONE',  ( -1.000000000000000000, 0.0000000000000000000, 0.0000000000000000000 ) ) ;
#141 = EDGE_CURVE ( 'NONE', #171, #297, #197, .T. ) ;
#142 = CONICAL_SURFACE ( 'NONE', #101, 0.007499999999999999722, 0.7853981633974502774 ) ;
#143 = DIRECTION ( 'NONE',  ( -1.000000000000000000, 0.0000000000000000000, 0.0000000000000000000 ) ) ;
#144 = CYLINDRICAL_SURFACE ( 'NONE', #151, 0.3124500000000001165 ) ;
#145 = CARTESIAN_POINT ( 'NONE',  ( 0.0000000000000000000, 0.0000000000000000000, 3.484999999999999432 ) ) ;
#146 = AXIS2_PLACEMENT_3D ( 'NONE', #166, #37, #34 ) ;
#147 = AXIS2_PLACEMENT_3D ( 'NONE', #263, #29, #124 ) ;
#148 = ORIENTED_EDGE ( 'NONE', *, *, #40, .T. ) ;
#149 = DIRECTION ( 'NONE',  ( -0.7071067811865346942, 0.0000000000000000000, -0.7071067811865603403 ) ) ;
#150 = ORIENTED_EDGE ( 'NONE', *, *, #23, .T. ) ;
#151 = AXIS2_PLACEMENT_3D ( 'NONE', #167, #272, #140 ) ;
#152 = ORIENTED_EDGE ( 'NONE', *, *, #40, .F. ) ;
#153 = ORIENTED_EDGE ( 'NONE', *, *, #282, .F. ) ;
#154 =( NAMED_UNIT ( * ) PLANE_ANGLE_UNIT ( ) SI_UNIT ( $, .RADIAN. ) );
#155 = EDGE_CURVE ( 'NONE', #171, #174, #38, .T. ) ;
#156 = DIRECTION ( 'NONE',  ( -0.0000000000000000000, -0.0000000000000000000, -1.000000000000000000 ) ) ;
#157 = VECTOR ( 'NONE', #149, 39.37007874015748143 ) ;
#158 = STYLED_ITEM ( 'NONE', ( #243 ), #10 ) ;
#159 = DIRECTION ( 'NONE',  ( -1.000000000000000000, 0.0000000000000000000, 0.0000000000000000000 ) ) ;
#160 = CARTESIAN_POINT ( 'NONE',  ( 0.007499999999999999722, 0.0000000000000000000, 1.707404996040164512E-17 ) ) ;
#161 =( LENGTH_UNIT ( ) NAMED_UNIT ( * ) SI_UNIT ( $, .METRE. ) );
#162 = FILL_AREA_STYLE ('',( #321 ) ) ;
#163 = CARTESIAN_POINT ( 'NONE',  ( 0.3124500000000002276, 3.826408923935907901E-17, 1.250000000000000000 ) ) ;
#164 = DIRECTION ( 'NONE',  ( -0.0000000000000000000, -0.0000000000000000000, -1.000000000000000000 ) ) ;
#165 = EDGE_LOOP ( 'NONE', ( #62, #278, #290, #303 ) ) ;
#166 = CARTESIAN_POINT ( 'NONE',  ( 0.0000000000000000000, 0.0000000000000000000, 3.500000000000000000 ) ) ;
#167 = CARTESIAN_POINT ( 'NONE',  ( 0.0000000000000000000, 0.0000000000000000000, 0.0000000000000000000 ) ) ;
#168 = CARTESIAN_POINT ( 'NONE',  ( 0.0000000000000000000, 0.0000000000000000000, 1.250000000000000000 ) ) ;
#169 = EDGE_CURVE ( 'NONE', #100, #70, #107, .T. ) ;
#170 = DIRECTION ( 'NONE',  ( -0.0000000000000000000, 0.0000000000000000000, -1.000000000000000000 ) ) ;
#171 = VERTEX_POINT ( 'NONE', #312 ) ;
#172 = VECTOR ( 'NONE', #61, 39.37007874015748143 ) ;
#173 = ADVANCED_FACE ( 'NONE', ( #134 ), #210, .T. ) ;
#174 = VERTEX_POINT ( 'NONE', #106 ) ;
#175 = ORIENTED_EDGE ( 'NONE', *, *, #261, .T. ) ;
#176 = EDGE_LOOP ( 'NONE', ( #74, #245, #116, #42 ) ) ;
#177 = ORIENTED_EDGE ( 'NONE', *, *, #155, .F. ) ;
#178 = VECTOR ( 'NONE', #264, 39.37007874015748143 ) ;
#179 = DIRECTION ( 'NONE',  ( -0.0000000000000000000, -0.0000000000000000000, -1.000000000000000000 ) ) ;
#180 = DIRECTION ( 'NONE',  ( 0.0000000000000000000, 0.0000000000000000000, 1.000000000000000000 ) ) ;
#181 = AXIS2_PLACEMENT_3D ( 'NONE', #217, #244, #273 ) ;
#182 = DIRECTION ( 'NONE',  ( -1.000000000000000000, 0.0000000000000000000, 0.0000000000000000000 ) ) ;
#183 = EDGE_CURVE ( 'NONE', #254, #227, #239, .T. ) ;
#184 = SURFACE_STYLE_FILL_AREA ( #162 ) ;
#185 = DIRECTION ( 'NONE',  ( 0.0000000000000000000, 0.0000000000000000000, 1.000000000000000000 ) ) ;
#186 = ADVANCED_FACE ( 'NONE', ( #27 ), #76, .T. ) ;
#187 = CARTESIAN_POINT ( 'NONE',  ( 0.0000000000000000000, 0.0000000000000000000, 1.707404996040164512E-17 ) ) ;
#188 = DIRECTION ( 'NONE',  ( 1.000000000000000000, 0.0000000000000000000, 0.0000000000000000000 ) ) ;
#189 = AXIS2_PLACEMENT_3D ( 'NONE', #80, #128, #188 ) ;
#190 = AXIS2_PLACEMENT_3D ( 'NONE', #81, #111, #63 ) ;
#191 = EDGE_CURVE ( 'NONE', #297, #24, #306, .T. ) ;
#192 = ORIENTED_EDGE ( 'NONE', *, *, #311, .F. ) ;
#193 = CARTESIAN_POINT ( 'NONE',  ( -0.3124500000000002276, 0.0000000000000000000, 1.250000000000000000 ) ) ;
#194 =( LENGTH_UNIT ( ) NAMED_UNIT ( * ) SI_UNIT ( $, .METRE. ) );
#195 = DIRECTION ( 'NONE',  ( 0.0000000000000000000, 0.0000000000000000000, 1.000000000000000000 ) ) ;
#196 = DIRECTION ( 'NONE',  ( 0.0000000000000000000, 0.0000000000000000000, -1.000000000000000000 ) ) ;
#197 = LINE ( 'NONE', #46, #95 ) ;
#198 = EDGE_LOOP ( 'NONE', ( #177, #120, #258, #281 ) ) ;
#199 = ORIENTED_EDGE ( 'NONE', *, *, #202, .F. ) ;
#200 = AXIS2_PLACEMENT_3D ( 'NONE', #320, #195, #294 ) ;
#201 =( GEOMETRIC_REPRESENTATION_CONTEXT ( 3 ) GLOBAL_UNCERTAINTY_ASSIGNED_CONTEXT ( ( #279 ) ) GLOBAL_UNIT_ASSIGNED_CONTEXT ( ( #14, #293, #240 ) ) REPRESENTATION_CONTEXT ( 'NONE', 'WORKASPACE' ) );
#202 = EDGE_CURVE ( 'NONE', #70, #227, #308, .T. ) ;
#203 = ORIENTED_EDGE ( 'NONE', *, *, #99, .T. ) ;
#204 = LINE ( 'NONE', #229, #90 ) ;
#205 = ORIENTED_EDGE ( 'NONE', *, *, #183, .T. ) ;
#206 = EDGE_LOOP ( 'NONE', ( #3, #47, #150, #126 ) ) ;
#207 = AXIS2_PLACEMENT_3D ( 'NONE', #131, #179, #82 ) ;
#208 = CIRCLE ( 'NONE', #20, 0.007499999999999999722 ) ;
#209 =( NAMED_UNIT ( * ) SI_UNIT ( $, .STERADIAN. ) SOLID_ANGLE_UNIT ( ) );
#210 = PLANE ( 'NONE',  #19 ) ;
#211 = DIRECTION ( 'NONE',  ( 0.7071067811865489050, 0.0000000000000000000, 0.7071067811865461294 ) ) ;
#212 = PRODUCT_CONTEXT ( 'NONE', #45, 'mechanical' ) ;
#213 = CARTESIAN_POINT ( 'NONE',  ( 0.0000000000000000000, 0.0000000000000000000, 1.707404996040164512E-17 ) ) ;
#214 = MANIFOLD_SOLID_BREP ( 'Cut-Revolve4', #299 ) ;
#215 =( LENGTH_UNIT ( ) NAMED_UNIT ( * ) SI_UNIT ( $, .METRE. ) );
#216 = CARTESIAN_POINT ( 'NONE',  ( 0.0000000000000000000, 0.0000000000000000000, 0.0000000000000000000 ) ) ;
#217 = CARTESIAN_POINT ( 'NONE',  ( 0.0000000000000000000, 0.0000000000000000000, 3.500000000000000000 ) ) ;
#218 = ORIENTED_EDGE ( 'NONE', *, *, #228, .F. ) ;
#219 = CONICAL_SURFACE ( 'NONE', #250, 0.007499999999999999722, 0.7853981633974502774 ) ;
#220 = APPLICATION_PROTOCOL_DEFINITION ( 'draft international standard', 'automotive_design', 1998, #45 ) ;
#221 = PLANE ( 'NONE',  #200 ) ;
#222 = DIMENSIONAL_EXPONENTS ( 1.000000000000000000, 0.0000000000000000000, 0.0000000000000000000, 0.0000000000000000000, 0.0000000000000000000, 0.0000000000000000000, 0.0000000000000000000 ) ;
#223 = FACE_OUTER_BOUND ( 'NONE', #69, .T. ) ;
#224 = APPLICATION_CONTEXT ( 'automotive_design' ) ;
#225 = AXIS2_PLACEMENT_3D ( 'NONE', #213, #237, #83 ) ;
#226 = CARTESIAN_POINT ( 'NONE',  ( 0.3125000000000000000, 3.827021247335478926E-17, 1.250000000000000000 ) ) ;
#227 = VERTEX_POINT ( 'NONE', #265 ) ;
#228 = EDGE_CURVE ( 'NONE', #91, #122, #235, .T. ) ;
#229 = CARTESIAN_POINT ( 'NONE',  ( 0.3124500000000001165, 3.826408923935906052E-17, 0.0000000000000000000 ) ) ;
#230 = ORIENTED_EDGE ( 'NONE', *, *, #92, .T. ) ;
#231 = CONICAL_SURFACE ( 'NONE', #25, 0.2975000000000003197, 0.7853981633974300713 ) ;
#232 = COLOUR_RGB ( '',0.7921568627450980005, 0.8196078431372548767, 0.9333333333333333481 ) ;
#233 = ORIENTED_EDGE ( 'NONE', *, *, #274, .T. ) ;
#234 = EDGE_LOOP ( 'NONE', ( #153, #233, #203, #192 ) ) ;
#235 = CIRCLE ( 'NONE', #50, 0.3125000000000000000 ) ;
#236 = CARTESIAN_POINT ( 'NONE',  ( 0.3125000000000000000, 3.827021247335478926E-17, 3.484999999999999432 ) ) ;
#237 = DIRECTION ( 'NONE',  ( -0.0000000000000000000, -0.0000000000000000000, -1.000000000000000000 ) ) ;
#238 = CARTESIAN_POINT ( 'NONE',  ( 0.0000000000000000000, 0.0000000000000000000, 0.3049499999999988331 ) ) ;
#239 = CIRCLE ( 'NONE', #284, 0.3124500000000000610 ) ;
#240 =( NAMED_UNIT ( * ) SI_UNIT ( $, .STERADIAN. ) SOLID_ANGLE_UNIT ( ) );
#241 =( CONVERSION_BASED_UNIT ( 'INCH', #310 ) LENGTH_UNIT ( ) NAMED_UNIT ( #262 ) );
#242 = EDGE_CURVE ( 'NONE', #70, #100, #208, .T. ) ;
#243 = PRESENTATION_STYLE_ASSIGNMENT (( #139 ) ) ;
#244 = DIRECTION ( 'NONE',  ( -0.0000000000000000000, -0.0000000000000000000, -1.000000000000000000 ) ) ;
#245 = ORIENTED_EDGE ( 'NONE', *, *, #242, .F. ) ;
#246 = PRESENTATION_LAYER_ASSIGNMENT (  '', '', ( #96 ) ) ;
#247 = LINE ( 'NONE', #87, #255 ) ;
#248 = FACE_OUTER_BOUND ( 'NONE', #113, .T. ) ;
#249 = FACE_OUTER_BOUND ( 'NONE', #257, .T. ) ;
#250 = AXIS2_PLACEMENT_3D ( 'NONE', #187, #291, #316 ) ;
#251 = LINE ( 'NONE', #21, #157 ) ;
#252 = PRODUCT_DEFINITION_SHAPE ( 'NONE', 'NONE',  #256 ) ;
#253 = CARTESIAN_POINT ( 'NONE',  ( -0.3125000000000000000, 0.0000000000000000000, 3.484999999999999432 ) ) ;
#254 = VERTEX_POINT ( 'NONE', #28 ) ;
#255 = VECTOR ( 'NONE', #164, 39.37007874015748143 ) ;
#256 = PRODUCT_DEFINITION ( 'UNKNOWN', '', #31, #54 ) ;
#257 = EDGE_LOOP ( 'NONE', ( #85, #26 ) ) ;
#258 = ORIENTED_EDGE ( 'NONE', *, *, #92, .F. ) ;
#259 = CIRCLE ( 'NONE', #4, 0.3125000000000000000 ) ;
#260 = CARTESIAN_POINT ( 'NONE',  ( 0.0000000000000000000, 0.0000000000000000000, 3.500000000000000000 ) ) ;
#261 = EDGE_CURVE ( 'NONE', #100, #254, #6, .T. ) ;
#262 = DIMENSIONAL_EXPONENTS ( 1.000000000000000000, 0.0000000000000000000, 0.0000000000000000000, 0.0000000000000000000, 0.0000000000000000000, 0.0000000000000000000, 0.0000000000000000000 ) ;
#263 = CARTESIAN_POINT ( 'NONE',  ( 0.0000000000000000000, 0.0000000000000000000, 1.250000000000000000 ) ) ;
#264 = DIRECTION ( 'NONE',  ( -0.7071067811865489050, 8.659560562354950115E-17, 0.7071067811865461294 ) ) ;
#265 = CARTESIAN_POINT ( 'NONE',  ( 0.3124500000000000610, 0.0000000000000000000, 0.3049499999999988331 ) ) ;
#266 = PRODUCT_RELATED_PRODUCT_CATEGORY ( 'part', '', ( #79 ) ) ;
#267 = DIRECTION ( 'NONE',  ( 1.000000000000000000, 0.0000000000000000000, 0.0000000000000000000 ) ) ;
#268 = CARTESIAN_POINT ( 'NONE',  ( 0.0000000000000000000, 0.0000000000000000000, 3.500000000000000000 ) ) ;
#269 = LENGTH_MEASURE_WITH_UNIT ( LENGTH_MEASURE( 0.02539999999999999897 ), #215 );
#270 = VECTOR ( 'NONE', #35, 39.37007874015748143 ) ;
#271 = ADVANCED_FACE ( 'NONE', ( #105 ), #142, .T. ) ;
#272 = DIRECTION ( 'NONE',  ( -0.0000000000000000000, -0.0000000000000000000, -1.000000000000000000 ) ) ;
#273 = DIRECTION ( 'NONE',  ( -1.000000000000000000, 0.0000000000000000000, 0.0000000000000000000 ) ) ;
#274 = EDGE_CURVE ( 'NONE', #125, #72, #135, .T. ) ;
#275 = EDGE_LOOP ( 'NONE', ( #305, #276, #43, #218 ) ) ;
#276 = ORIENTED_EDGE ( 'NONE', *, *, #191, .T. ) ;
#277 = ORIENTED_EDGE ( 'NONE', *, *, #75, .F. ) ;
#278 = ORIENTED_EDGE ( 'NONE', *, *, #282, .T. ) ;
#279 = UNCERTAINTY_MEASURE_WITH_UNIT (LENGTH_MEASURE( 1.000000000000000082E-05 ), #14, 'distance_accuracy_value', 'NONE');
#280 = DIRECTION ( 'NONE',  ( 0.0000000000000000000, 0.0000000000000000000, 1.000000000000000000 ) ) ;
#281 = ORIENTED_EDGE ( 'NONE', *, *, #23, .F. ) ;
#282 = EDGE_CURVE ( 'NONE', #125, #227, #204, .T. ) ;
#283 = EDGE_CURVE ( 'NONE', #72, #125, #67, .T. ) ;
#284 = AXIS2_PLACEMENT_3D ( 'NONE', #238, #314, #110 ) ;
#285 = DIRECTION ( 'NONE',  ( 1.000000000000000000, 0.0000000000000000000, 0.0000000000000000000 ) ) ;
#286 = MECHANICAL_DESIGN_GEOMETRIC_PRESENTATION_REPRESENTATION (  '', ( #158 ), #201 ) ;
#287 = SURFACE_SIDE_STYLE ('',( #57 ) ) ;
#288 = VECTOR ( 'NONE', #211, 39.37007874015748143 ) ;
#289 = LINE ( 'NONE', #119, #172 ) ;
#290 = ORIENTED_EDGE ( 'NONE', *, *, #183, .F. ) ;
#291 = DIRECTION ( 'NONE',  ( 0.0000000000000000000, 0.0000000000000000000, 1.000000000000000000 ) ) ;
#292 = CARTESIAN_POINT ( 'NONE',  ( 0.0000000000000000000, 0.0000000000000000000, 3.500000000000000000 ) ) ;
#293 =( NAMED_UNIT ( * ) PLANE_ANGLE_UNIT ( ) SI_UNIT ( $, .RADIAN. ) );
#294 = DIRECTION ( 'NONE',  ( 1.000000000000000000, 0.0000000000000000000, -0.0000000000000000000 ) ) ;
#295 = AXIS2_PLACEMENT_3D ( 'NONE', #216, #60, #267 ) ;
#296 = DIRECTION ( 'NONE',  ( 1.000000000000000000, 0.0000000000000000000, 0.0000000000000000000 ) ) ;
#297 = VERTEX_POINT ( 'NONE', #236 ) ;
#298 = ORIENTED_EDGE ( 'NONE', *, *, #228, .T. ) ;
#299 = CLOSED_SHELL ( 'NONE', ( #186, #271, #88, #56, #78, #173, #44, #127, #315, #118, #102 ) ) ;
#300 =( GEOMETRIC_REPRESENTATION_CONTEXT ( 3 ) GLOBAL_UNCERTAINTY_ASSIGNED_CONTEXT ( ( #7 ) ) GLOBAL_UNIT_ASSIGNED_CONTEXT ( ( #58, #11, #108 ) ) REPRESENTATION_CONTEXT ( 'NONE', 'WORKASPACE' ) );
#301 = EDGE_LOOP ( 'NONE', ( #98, #51 ) ) ;
#302 = DIRECTION ( 'NONE',  ( -0.0000000000000000000, -0.0000000000000000000, -1.000000000000000000 ) ) ;
#303 = ORIENTED_EDGE ( 'NONE', *, *, #99, .F. ) ;
#304 = EDGE_CURVE ( 'NONE', #297, #91, #8, .T. ) ;
#305 = ORIENTED_EDGE ( 'NONE', *, *, #304, .F. ) ;
#306 = CIRCLE ( 'NONE', #189, 0.3125000000000000000 ) ;
#307 = PRESENTATION_LAYER_ASSIGNMENT (  '', '', ( #158 ) ) ;
#308 = LINE ( 'NONE', #160, #288 ) ;
#309 = CONICAL_SURFACE ( 'NONE', #66, 0.2975000000000003197, 0.7853981633974300713 ) ;
#310 = LENGTH_MEASURE_WITH_UNIT ( LENGTH_MEASURE( 0.02539999999999999897 ), #161 );
#311 = EDGE_CURVE ( 'NONE', #227, #254, #329, .T. ) ;
#312 = CARTESIAN_POINT ( 'NONE',  ( 0.2975000000000003197, 3.735172737399428256E-17, 3.500000000000000000 ) ) ;
#313 = CARTESIAN_POINT ( 'NONE',  ( 0.3125000000000000000, 3.827021247335478926E-17, 3.500000000000000000 ) ) ;
#314 = DIRECTION ( 'NONE',  ( -0.0000000000000000000, -0.0000000000000000000, -1.000000000000000000 ) ) ;
#315 = ADVANCED_FACE ( 'NONE', ( #117 ), #219, .T. ) ;
#316 = DIRECTION ( 'NONE',  ( 1.000000000000000000, 0.0000000000000000000, 0.0000000000000000000 ) ) ;
#317 = CIRCLE ( 'NONE', #53, 0.3125000000000000000 ) ;
#318 = AXIS2_PLACEMENT_3D ( 'NONE', #138, #86, #16 ) ;
#319 = APPLICATION_PROTOCOL_DEFINITION ( 'draft international standard', 'automotive_design', 1998, #224 ) ;
#320 = CARTESIAN_POINT ( 'NONE',  ( 0.0000000000000000000, 0.0000000000000000000, 0.0000000000000000000 ) ) ;
#321 = FILL_AREA_STYLE_COLOUR ( '', #232 ) ;
#322 = CYLINDRICAL_SURFACE ( 'NONE', #181, 0.3125000000000000000 ) ;
#323 = FACE_OUTER_BOUND ( 'NONE', #198, .T. ) ;
#324 = AXIS2_PLACEMENT_3D ( 'NONE', #97, #280, #77 ) ;
#325 = EDGE_CURVE ( 'NONE', #174, #171, #71, .T. ) ;
#326 = DIRECTION ( 'NONE',  ( -1.000000000000000000, 0.0000000000000000000, 0.0000000000000000000 ) ) ;
#327 = EDGE_LOOP ( 'NONE', ( #93, #175, #205, #199 ) ) ;
#328 = DIRECTION ( 'NONE',  ( -0.0000000000000000000, -0.0000000000000000000, -1.000000000000000000 ) ) ;
#329 = CIRCLE ( 'NONE', #318, 0.3124500000000000610 ) ;
ENDSEC;
END-ISO-10303-21;
