ISO-10303-21;
HEADER;
FILE_DESCRIPTION (( 'STEP AP214' ),
    '1' );
FILE_NAME ('Micro_RSCM-030-1X.STEP',
    '2021-09-03T17:55:10',
    ( '' ),
    ( '' ),
    'SwSTEP 2.0',
    'SolidWorks 2020',
    '' );
FILE_SCHEMA (( 'AUTOMOTIVE_DESIGN' ));
ENDSEC;

DATA;
#1 = DIRECTION ( 'NONE',  ( -1.000000000000000000, 0.0000000000000000000, 0.0000000000000000000 ) ) ;
#2 = DIRECTION ( 'NONE',  ( 1.000000000000000000, 0.0000000000000000000, 0.0000000000000000000 ) ) ;
#3 = VECTOR ( 'NONE', #249, 39.37007874015748143 ) ;
#4 = CARTESIAN_POINT ( 'NONE',  ( 0.0000000000000000000, 0.0000000000000000000, 1.481062999999999574 ) ) ;
#5 =( CONVERSION_BASED_UNIT ( 'INCH', #126 ) LENGTH_UNIT ( ) NAMED_UNIT ( #157 ) );
#6 = LINE ( 'NONE', #224, #173 ) ;
#7 = VECTOR ( 'NONE', #27, 39.37007874015748854 ) ;
#8 = CARTESIAN_POINT ( 'NONE',  ( -0.003936999999999995191, 4.821434448243123477E-19, 0.0000000000000000000 ) ) ;
#9 = FACE_OUTER_BOUND ( 'NONE', #127, .T. ) ;
#10 = CARTESIAN_POINT ( 'NONE',  ( 0.0000000000000000000, 0.0000000000000000000, 1.496062999999999921 ) ) ;
#11 =( CONVERSION_BASED_UNIT ( 'INCH', #228 ) LENGTH_UNIT ( ) NAMED_UNIT ( #113 ) );
#12 = FILL_AREA_STYLE ('',( #99 ) ) ;
#13 = AXIS2_PLACEMENT_3D ( 'NONE', #211, #37, #16 ) ;
#14 = EDGE_CURVE ( 'NONE', #103, #232, #6, .T. ) ;
#15 = PLANE ( 'NONE',  #195 ) ;
#16 = DIRECTION ( 'NONE',  ( -1.000000000000000000, 0.0000000000000000000, 0.0000000000000000000 ) ) ;
#17 = PRODUCT_DEFINITION_CONTEXT ( 'detailed design', #218, 'design' ) ;
#18 = DIRECTION ( 'NONE',  ( -0.0000000000000000000, -0.0000000000000000000, -1.000000000000000000 ) ) ;
#19 = AXIS2_PLACEMENT_3D ( 'NONE', #96, #94, #109 ) ;
#20 = CONICAL_SURFACE ( 'NONE', #209, 0.003936999999999995191, 0.5235987755983005920 ) ;
#21 = UNCERTAINTY_MEASURE_WITH_UNIT (LENGTH_MEASURE( 1.000000000000000082E-05 ), #11, 'distance_accuracy_value', 'NONE');
#22 = EDGE_CURVE ( 'NONE', #138, #103, #182, .T. ) ;
#23 = ORIENTED_EDGE ( 'NONE', *, *, #235, .T. ) ;
#24 = CIRCLE ( 'NONE', #32, 0.05905500000000000332 ) ;
#25 = ORIENTED_EDGE ( 'NONE', *, *, #80, .T. ) ;
#26 = CONICAL_SURFACE ( 'NONE', #102, 0.04405499999999973326, 0.7853981633974491672 ) ;
#27 = DIRECTION ( 'NONE',  ( 0.5000000000000013323, 0.0000000000000000000, 0.8660254037844377084 ) ) ;
#28 = ORIENTED_EDGE ( 'NONE', *, *, #235, .F. ) ;
#29 = APPLICATION_PROTOCOL_DEFINITION ( 'draft international standard', 'automotive_design', 1998, #50 ) ;
#30 = LINE ( 'NONE', #124, #7 ) ;
#31 = AXIS2_PLACEMENT_3D ( 'NONE', #10, #71, #90 ) ;
#32 = AXIS2_PLACEMENT_3D ( 'NONE', #65, #151, #81 ) ;
#33 = DIRECTION ( 'NONE',  ( 1.000000000000000000, 0.0000000000000000000, 0.0000000000000000000 ) ) ;
#34 = DIRECTION ( 'NONE',  ( 0.0000000000000000000, 0.0000000000000000000, 1.000000000000000000 ) ) ;
#35 = EDGE_CURVE ( 'NONE', #103, #138, #216, .T. ) ;
#36 = CARTESIAN_POINT ( 'NONE',  ( 0.0000000000000000000, 0.0000000000000000000, 0.0000000000000000000 ) ) ;
#37 = DIRECTION ( 'NONE',  ( -0.0000000000000000000, -0.0000000000000000000, -1.000000000000000000 ) ) ;
#38 =( GEOMETRIC_REPRESENTATION_CONTEXT ( 3 ) GLOBAL_UNCERTAINTY_ASSIGNED_CONTEXT ( ( #123 ) ) GLOBAL_UNIT_ASSIGNED_CONTEXT ( ( #5, #241, #143 ) ) REPRESENTATION_CONTEXT ( 'NONE', 'WORKASPACE' ) );
#39 = FACE_OUTER_BOUND ( 'NONE', #237, .T. ) ;
#40 = CARTESIAN_POINT ( 'NONE',  ( -0.04405499999999973326, 0.0000000000000000000, 1.496062999999999921 ) ) ;
#41 = ORIENTED_EDGE ( 'NONE', *, *, #22, .T. ) ;
#42 = SURFACE_STYLE_USAGE ( .BOTH. , #83 ) ;
#43 = EDGE_CURVE ( 'NONE', #186, #76, #200, .T. ) ;
#44 = CLOSED_SHELL ( 'NONE', ( #111, #73, #159, #91, #146, #47, #69, #136 ) ) ;
#45 = CIRCLE ( 'NONE', #177, 0.003936999999999995191 ) ;
#46 = ORIENTED_EDGE ( 'NONE', *, *, #14, .T. ) ;
#47 = ADVANCED_FACE ( 'NONE', ( #244 ), #26, .T. ) ;
#48 = EDGE_LOOP ( 'NONE', ( #236, #168, #166, #243 ) ) ;
#49 = AXIS2_PLACEMENT_3D ( 'NONE', #222, #114, #33 ) ;
#50 = APPLICATION_CONTEXT ( 'automotive_design' ) ;
#51 = CONICAL_SURFACE ( 'NONE', #230, 0.04405499999999973326, 0.7853981633974491672 ) ;
#52 = DIRECTION ( 'NONE',  ( -0.0000000000000000000, -0.0000000000000000000, -1.000000000000000000 ) ) ;
#53 =( NAMED_UNIT ( * ) SI_UNIT ( $, .STERADIAN. ) SOLID_ANGLE_UNIT ( ) );
#54 = DIRECTION ( 'NONE',  ( 0.0000000000000000000, 0.0000000000000000000, -1.000000000000000000 ) ) ;
#55 = EDGE_LOOP ( 'NONE', ( #194, #150, #67, #214 ) ) ;
#56 = SURFACE_STYLE_FILL_AREA ( #95 ) ;
#57 = ORIENTED_EDGE ( 'NONE', *, *, #80, .F. ) ;
#58 =( GEOMETRIC_REPRESENTATION_CONTEXT ( 3 ) GLOBAL_UNCERTAINTY_ASSIGNED_CONTEXT ( ( #21 ) ) GLOBAL_UNIT_ASSIGNED_CONTEXT ( ( #11, #184, #53 ) ) REPRESENTATION_CONTEXT ( 'NONE', 'WORKASPACE' ) );
#59 = PRESENTATION_STYLE_ASSIGNMENT (( #108 ) ) ;
#60 = DIRECTION ( 'NONE',  ( -1.000000000000000000, 0.0000000000000000000, 0.0000000000000000000 ) ) ;
#61 = LINE ( 'NONE', #82, #3 ) ;
#62 = CARTESIAN_POINT ( 'NONE',  ( 0.0000000000000000000, 0.0000000000000000000, 0.0000000000000000000 ) ) ;
#63 = CARTESIAN_POINT ( 'NONE',  ( -0.05905500000000000332, 0.0000000000000000000, 0.09546717641158104783 ) ) ;
#64 = SHAPE_DEFINITION_REPRESENTATION ( #204, #115 ) ;
#65 = CARTESIAN_POINT ( 'NONE',  ( 0.0000000000000000000, 0.0000000000000000000, 1.481062999999999574 ) ) ;
#66 = APPLICATION_PROTOCOL_DEFINITION ( 'draft international standard', 'automotive_design', 1998, #218 ) ;
#67 = ORIENTED_EDGE ( 'NONE', *, *, #197, .T. ) ;
#68 = CIRCLE ( 'NONE', #170, 0.05905500000000000332 ) ;
#69 = ADVANCED_FACE ( 'NONE', ( #130 ), #20, .T. ) ;
#70 = VERTEX_POINT ( 'NONE', #87 ) ;
#71 = DIRECTION ( 'NONE',  ( 0.0000000000000000000, 0.0000000000000000000, 1.000000000000000000 ) ) ;
#72 = PRODUCT_DEFINITION_FORMATION_WITH_SPECIFIED_SOURCE ( 'ANY', '', #129, .NOT_KNOWN. ) ;
#73 = ADVANCED_FACE ( 'NONE', ( #160 ), #51, .T. ) ;
#74 = CYLINDRICAL_SURFACE ( 'NONE', #161, 0.05905500000000000332 ) ;
#75 = DIRECTION ( 'NONE',  ( 0.0000000000000000000, 0.0000000000000000000, -1.000000000000000000 ) ) ;
#76 = VERTEX_POINT ( 'NONE', #221 ) ;
#77 = ORIENTED_EDGE ( 'NONE', *, *, #248, .T. ) ;
#78 = VECTOR ( 'NONE', #239, 39.37007874015748854 ) ;
#79 =( LENGTH_UNIT ( ) NAMED_UNIT ( * ) SI_UNIT ( $, .METRE. ) );
#80 = EDGE_CURVE ( 'NONE', #122, #107, #45, .T. ) ;
#81 = DIRECTION ( 'NONE',  ( 1.000000000000000000, 0.0000000000000000000, 0.0000000000000000000 ) ) ;
#82 = CARTESIAN_POINT ( 'NONE',  ( 0.05905500000000000332, 7.232151672364695422E-18, 1.496062999999999921 ) ) ;
#83 = SURFACE_SIDE_STYLE ('',( #131 ) ) ;
#84 = ORIENTED_EDGE ( 'NONE', *, *, #35, .F. ) ;
#85 = EDGE_CURVE ( 'NONE', #107, #76, #30, .T. ) ;
#86 = CONICAL_SURFACE ( 'NONE', #202, 0.003936999999999995191, 0.5235987755983005920 ) ;
#87 = CARTESIAN_POINT ( 'NONE',  ( -0.05905500000000000332, 0.0000000000000000000, 1.481062999999999574 ) ) ;
#88 = EDGE_CURVE ( 'NONE', #70, #232, #68, .T. ) ;
#89 = AXIS2_PLACEMENT_3D ( 'NONE', #231, #208, #1 ) ;
#90 = DIRECTION ( 'NONE',  ( 1.000000000000000000, 0.0000000000000000000, 0.0000000000000000000 ) ) ;
#91 = ADVANCED_FACE ( 'NONE', ( #9 ), #74, .T. ) ;
#92 = DIRECTION ( 'NONE',  ( -0.0000000000000000000, -0.0000000000000000000, -1.000000000000000000 ) ) ;
#93 = AXIS2_PLACEMENT_3D ( 'NONE', #36, #116, #189 ) ;
#94 = DIRECTION ( 'NONE',  ( -0.0000000000000000000, -0.0000000000000000000, -1.000000000000000000 ) ) ;
#95 = FILL_AREA_STYLE ('',( #179 ) ) ;
#96 = CARTESIAN_POINT ( 'NONE',  ( 0.0000000000000000000, 0.0000000000000000000, 0.09546717641158104783 ) ) ;
#97 = CARTESIAN_POINT ( 'NONE',  ( 0.003936999999999995191, 0.0000000000000000000, 0.0000000000000000000 ) ) ;
#98 = VECTOR ( 'NONE', #18, 39.37007874015748143 ) ;
#99 = FILL_AREA_STYLE_COLOUR ( '', #201 ) ;
#100 = FACE_OUTER_BOUND ( 'NONE', #48, .T. ) ;
#101 = LINE ( 'NONE', #8, #78 ) ;
#102 = AXIS2_PLACEMENT_3D ( 'NONE', #242, #75, #60 ) ;
#103 = VERTEX_POINT ( 'NONE', #229 ) ;
#104 = UNCERTAINTY_MEASURE_WITH_UNIT (LENGTH_MEASURE( 1.000000000000000082E-05 ), #167, 'distance_accuracy_value', 'NONE');
#105 = PRESENTATION_LAYER_ASSIGNMENT (  '', '', ( #183 ) ) ;
#106 = ORIENTED_EDGE ( 'NONE', *, *, #248, .F. ) ;
#107 = VERTEX_POINT ( 'NONE', #97 ) ;
#108 = SURFACE_STYLE_USAGE ( .BOTH. , #164 ) ;
#109 = DIRECTION ( 'NONE',  ( -1.000000000000000000, 0.0000000000000000000, 0.0000000000000000000 ) ) ;
#110 = ORIENTED_EDGE ( 'NONE', *, *, #35, .T. ) ;
#111 = ADVANCED_FACE ( 'NONE', ( #134 ), #86, .T. ) ;
#112 =( LENGTH_UNIT ( ) NAMED_UNIT ( * ) SI_UNIT ( $, .METRE. ) );
#113 = DIMENSIONAL_EXPONENTS ( 1.000000000000000000, 0.0000000000000000000, 0.0000000000000000000, 0.0000000000000000000, 0.0000000000000000000, 0.0000000000000000000, 0.0000000000000000000 ) ;
#114 = DIRECTION ( 'NONE',  ( 0.0000000000000000000, 0.0000000000000000000, 1.000000000000000000 ) ) ;
#115 = ADVANCED_BREP_SHAPE_REPRESENTATION ( 'Micro_RSCM-030-1X', ( #226, #93 ), #38 ) ;
#116 = DIRECTION ( 'NONE',  ( 0.0000000000000000000, 0.0000000000000000000, 1.000000000000000000 ) ) ;
#117 = LINE ( 'NONE', #40, #149 ) ;
#118 = PRODUCT_CONTEXT ( 'NONE', #50, 'mechanical' ) ;
#119 = DIRECTION ( 'NONE',  ( 1.000000000000000000, 0.0000000000000000000, -0.0000000000000000000 ) ) ;
#120 = CARTESIAN_POINT ( 'NONE',  ( -0.05905500000000000332, 0.0000000000000000000, 1.496062999999999921 ) ) ;
#121 = EDGE_LOOP ( 'NONE', ( #77, #25 ) ) ;
#122 = VERTEX_POINT ( 'NONE', #246 ) ;
#123 = UNCERTAINTY_MEASURE_WITH_UNIT (LENGTH_MEASURE( 1.000000000000000082E-05 ), #5, 'distance_accuracy_value', 'NONE');
#124 = CARTESIAN_POINT ( 'NONE',  ( 0.003936999999999995191, 0.0000000000000000000, 0.0000000000000000000 ) ) ;
#125 = ORIENTED_EDGE ( 'NONE', *, *, #85, .T. ) ;
#126 = LENGTH_MEASURE_WITH_UNIT ( LENGTH_MEASURE( 0.02539999999999999897 ), #112 );
#127 = EDGE_LOOP ( 'NONE', ( #198, #128, #162, #158 ) ) ;
#128 = ORIENTED_EDGE ( 'NONE', *, *, #132, .T. ) ;
#129 = PRODUCT ( 'Micro_RSCM-030-1X', 'Micro_RSCM-030-1X', '', ( #118 ) ) ;
#130 = FACE_OUTER_BOUND ( 'NONE', #203, .T. ) ;
#131 = SURFACE_STYLE_FILL_AREA ( #12 ) ;
#132 = EDGE_CURVE ( 'NONE', #232, #70, #24, .T. ) ;
#133 = FACE_OUTER_BOUND ( 'NONE', #121, .T. ) ;
#134 = FACE_OUTER_BOUND ( 'NONE', #233, .T. ) ;
#135 = PLANE ( 'NONE',  #137 ) ;
#136 = ADVANCED_FACE ( 'NONE', ( #133 ), #135, .F. ) ;
#137 = AXIS2_PLACEMENT_3D ( 'NONE', #212, #210, #153 ) ;
#138 = VERTEX_POINT ( 'NONE', #192 ) ;
#139 = CARTESIAN_POINT ( 'NONE',  ( 0.0000000000000000000, 0.0000000000000000000, 1.496062999999999921 ) ) ;
#140 = COLOUR_RGB ( '',0.7921568627450980005, 0.8196078431372548767, 0.9333333333333333481 ) ;
#141 = CIRCLE ( 'NONE', #213, 0.003936999999999995191 ) ;
#142 = CARTESIAN_POINT ( 'NONE',  ( 0.0000000000000000000, 0.0000000000000000000, 1.496062999999999921 ) ) ;
#143 =( NAMED_UNIT ( * ) SI_UNIT ( $, .STERADIAN. ) SOLID_ANGLE_UNIT ( ) );
#144 = ORIENTED_EDGE ( 'NONE', *, *, #88, .F. ) ;
#145 =( NAMED_UNIT ( * ) PLANE_ANGLE_UNIT ( ) SI_UNIT ( $, .RADIAN. ) );
#146 = ADVANCED_FACE ( 'NONE', ( #39 ), #15, .T. ) ;
#147 = ORIENTED_EDGE ( 'NONE', *, *, #43, .T. ) ;
#148 = CARTESIAN_POINT ( 'NONE',  ( 0.0000000000000000000, 0.0000000000000000000, 0.0000000000000000000 ) ) ;
#149 = VECTOR ( 'NONE', #188, 39.37007874015748143 ) ;
#150 = ORIENTED_EDGE ( 'NONE', *, *, #22, .F. ) ;
#151 = DIRECTION ( 'NONE',  ( 0.0000000000000000000, 0.0000000000000000000, -1.000000000000000000 ) ) ;
#152 = EDGE_CURVE ( 'NONE', #76, #186, #175, .T. ) ;
#153 = DIRECTION ( 'NONE',  ( 1.000000000000000000, 0.0000000000000000000, -0.0000000000000000000 ) ) ;
#154 = DIRECTION ( 'NONE',  ( 0.0000000000000000000, 0.0000000000000000000, 1.000000000000000000 ) ) ;
#155 = ORIENTED_EDGE ( 'NONE', *, *, #197, .F. ) ;
#156 = PRESENTATION_STYLE_ASSIGNMENT (( #42 ) ) ;
#157 = DIMENSIONAL_EXPONENTS ( 1.000000000000000000, 0.0000000000000000000, 0.0000000000000000000, 0.0000000000000000000, 0.0000000000000000000, 0.0000000000000000000, 0.0000000000000000000 ) ;
#158 = ORIENTED_EDGE ( 'NONE', *, *, #152, .F. ) ;
#159 = ADVANCED_FACE ( 'NONE', ( #100 ), #193, .T. ) ;
#160 = FACE_OUTER_BOUND ( 'NONE', #178, .T. ) ;
#161 = AXIS2_PLACEMENT_3D ( 'NONE', #142, #220, #247 ) ;
#162 = ORIENTED_EDGE ( 'NONE', *, *, #207, .T. ) ;
#163 = MECHANICAL_DESIGN_GEOMETRIC_PRESENTATION_REPRESENTATION (  '', ( #183 ), #238 ) ;
#164 = SURFACE_SIDE_STYLE ('',( #56 ) ) ;
#165 = DIRECTION ( 'NONE',  ( 0.7071067811865482389, 8.659560562354941486E-17, -0.7071067811865469066 ) ) ;
#166 = ORIENTED_EDGE ( 'NONE', *, *, #43, .F. ) ;
#167 =( CONVERSION_BASED_UNIT ( 'INCH', #245 ) LENGTH_UNIT ( ) NAMED_UNIT ( #176 ) );
#168 = ORIENTED_EDGE ( 'NONE', *, *, #181, .T. ) ;
#169 =( LENGTH_UNIT ( ) NAMED_UNIT ( * ) SI_UNIT ( $, .METRE. ) );
#170 = AXIS2_PLACEMENT_3D ( 'NONE', #4, #240, #185 ) ;
#171 = DIRECTION ( 'NONE',  ( 0.0000000000000000000, 0.0000000000000000000, 1.000000000000000000 ) ) ;
#172 = CARTESIAN_POINT ( 'NONE',  ( 0.0000000000000000000, 0.0000000000000000000, 1.496062999999999921 ) ) ;
#173 = VECTOR ( 'NONE', #165, 39.37007874015748143 ) ;
#174 = DIRECTION ( 'NONE',  ( 1.000000000000000000, 0.0000000000000000000, 0.0000000000000000000 ) ) ;
#175 = CIRCLE ( 'NONE', #13, 0.05905500000000000332 ) ;
#176 = DIMENSIONAL_EXPONENTS ( 1.000000000000000000, 0.0000000000000000000, 0.0000000000000000000, 0.0000000000000000000, 0.0000000000000000000, 0.0000000000000000000, 0.0000000000000000000 ) ;
#177 = AXIS2_PLACEMENT_3D ( 'NONE', #199, #52, #196 ) ;
#178 = EDGE_LOOP ( 'NONE', ( #84, #46, #144, #155 ) ) ;
#179 = FILL_AREA_STYLE_COLOUR ( '', #140 ) ;
#180 = ORIENTED_EDGE ( 'NONE', *, *, #85, .F. ) ;
#181 = EDGE_CURVE ( 'NONE', #232, #76, #61, .T. ) ;
#182 = CIRCLE ( 'NONE', #49, 0.04405499999999973326 ) ;
#183 = STYLED_ITEM ( 'NONE', ( #59 ), #115 ) ;
#184 =( NAMED_UNIT ( * ) PLANE_ANGLE_UNIT ( ) SI_UNIT ( $, .RADIAN. ) );
#185 = DIRECTION ( 'NONE',  ( 1.000000000000000000, 0.0000000000000000000, 0.0000000000000000000 ) ) ;
#186 = VERTEX_POINT ( 'NONE', #63 ) ;
#187 = DIRECTION ( 'NONE',  ( -1.000000000000000000, 0.0000000000000000000, 0.0000000000000000000 ) ) ;
#188 = DIRECTION ( 'NONE',  ( -0.7071067811865482389, 0.0000000000000000000, -0.7071067811865469066 ) ) ;
#189 = DIRECTION ( 'NONE',  ( 1.000000000000000000, 0.0000000000000000000, 0.0000000000000000000 ) ) ;
#190 = PRODUCT_DEFINITION ( 'UNKNOWN', '', #72, #17 ) ;
#191 = LINE ( 'NONE', #120, #98 ) ;
#192 = CARTESIAN_POINT ( 'NONE',  ( -0.04405499999999973326, 0.0000000000000000000, 1.496062999999999921 ) ) ;
#193 = CYLINDRICAL_SURFACE ( 'NONE', #89, 0.05905500000000000332 ) ;
#194 = ORIENTED_EDGE ( 'NONE', *, *, #14, .F. ) ;
#195 = AXIS2_PLACEMENT_3D ( 'NONE', #172, #154, #119 ) ;
#196 = DIRECTION ( 'NONE',  ( -1.000000000000000000, 0.0000000000000000000, 0.0000000000000000000 ) ) ;
#197 = EDGE_CURVE ( 'NONE', #138, #70, #117, .T. ) ;
#198 = ORIENTED_EDGE ( 'NONE', *, *, #181, .F. ) ;
#199 = CARTESIAN_POINT ( 'NONE',  ( 0.0000000000000000000, 0.0000000000000000000, 0.0000000000000000000 ) ) ;
#200 = CIRCLE ( 'NONE', #19, 0.05905500000000000332 ) ;
#201 = COLOUR_RGB ( '',0.7921568627450980005, 0.8196078431372548767, 0.9333333333333333481 ) ;
#202 = AXIS2_PLACEMENT_3D ( 'NONE', #62, #171, #174 ) ;
#203 = EDGE_LOOP ( 'NONE', ( #28, #106, #125, #215 ) ) ;
#204 = PRODUCT_DEFINITION_SHAPE ( 'NONE', 'NONE',  #190 ) ;
#205 = CARTESIAN_POINT ( 'NONE',  ( 0.05905500000000000332, 7.232151672364695422E-18, 1.481062999999999574 ) ) ;
#206 = CARTESIAN_POINT ( 'NONE',  ( 0.0000000000000000000, 0.0000000000000000000, 0.0000000000000000000 ) ) ;
#207 = EDGE_CURVE ( 'NONE', #70, #186, #191, .T. ) ;
#208 = DIRECTION ( 'NONE',  ( -0.0000000000000000000, -0.0000000000000000000, -1.000000000000000000 ) ) ;
#209 = AXIS2_PLACEMENT_3D ( 'NONE', #206, #34, #2 ) ;
#210 = DIRECTION ( 'NONE',  ( 0.0000000000000000000, 0.0000000000000000000, 1.000000000000000000 ) ) ;
#211 = CARTESIAN_POINT ( 'NONE',  ( 0.0000000000000000000, 0.0000000000000000000, 0.09546717641158104783 ) ) ;
#212 = CARTESIAN_POINT ( 'NONE',  ( 0.0000000000000000000, 0.0000000000000000000, 0.0000000000000000000 ) ) ;
#213 = AXIS2_PLACEMENT_3D ( 'NONE', #148, #92, #187 ) ;
#214 = ORIENTED_EDGE ( 'NONE', *, *, #132, .F. ) ;
#215 = ORIENTED_EDGE ( 'NONE', *, *, #152, .T. ) ;
#216 = CIRCLE ( 'NONE', #31, 0.04405499999999973326 ) ;
#217 = STYLED_ITEM ( 'NONE', ( #156 ), #226 ) ;
#218 = APPLICATION_CONTEXT ( 'automotive_design' ) ;
#219 = DIRECTION ( 'NONE',  ( -1.000000000000000000, 0.0000000000000000000, 0.0000000000000000000 ) ) ;
#220 = DIRECTION ( 'NONE',  ( -0.0000000000000000000, -0.0000000000000000000, -1.000000000000000000 ) ) ;
#221 = CARTESIAN_POINT ( 'NONE',  ( 0.05905500000000000332, 7.232151672364695422E-18, 0.09546717641158104783 ) ) ;
#222 = CARTESIAN_POINT ( 'NONE',  ( 0.0000000000000000000, 0.0000000000000000000, 1.496062999999999921 ) ) ;
#223 = MECHANICAL_DESIGN_GEOMETRIC_PRESENTATION_REPRESENTATION (  '', ( #217 ), #58 ) ;
#224 = CARTESIAN_POINT ( 'NONE',  ( 0.04405499999999973326, 5.395181473643630390E-18, 1.496062999999999921 ) ) ;
#225 = PRODUCT_RELATED_PRODUCT_CATEGORY ( 'part', '', ( #129 ) ) ;
#226 = MANIFOLD_SOLID_BREP ( 'Cut-Revolve1', #44 ) ;
#227 =( NAMED_UNIT ( * ) SI_UNIT ( $, .STERADIAN. ) SOLID_ANGLE_UNIT ( ) );
#228 = LENGTH_MEASURE_WITH_UNIT ( LENGTH_MEASURE( 0.02539999999999999897 ), #79 );
#229 = CARTESIAN_POINT ( 'NONE',  ( 0.04405499999999973326, 6.313666573004162521E-18, 1.496062999999999921 ) ) ;
#230 = AXIS2_PLACEMENT_3D ( 'NONE', #139, #54, #219 ) ;
#231 = CARTESIAN_POINT ( 'NONE',  ( 0.0000000000000000000, 0.0000000000000000000, 1.496062999999999921 ) ) ;
#232 = VERTEX_POINT ( 'NONE', #205 ) ;
#233 = EDGE_LOOP ( 'NONE', ( #57, #23, #147, #180 ) ) ;
#234 = PRESENTATION_LAYER_ASSIGNMENT (  '', '', ( #217 ) ) ;
#235 = EDGE_CURVE ( 'NONE', #122, #186, #101, .T. ) ;
#236 = ORIENTED_EDGE ( 'NONE', *, *, #88, .T. ) ;
#237 = EDGE_LOOP ( 'NONE', ( #41, #110 ) ) ;
#238 =( GEOMETRIC_REPRESENTATION_CONTEXT ( 3 ) GLOBAL_UNCERTAINTY_ASSIGNED_CONTEXT ( ( #104 ) ) GLOBAL_UNIT_ASSIGNED_CONTEXT ( ( #167, #145, #227 ) ) REPRESENTATION_CONTEXT ( 'NONE', 'WORKASPACE' ) );
#239 = DIRECTION ( 'NONE',  ( -0.5000000000000013323, 6.123233995736782060E-17, 0.8660254037844377084 ) ) ;
#240 = DIRECTION ( 'NONE',  ( 0.0000000000000000000, 0.0000000000000000000, -1.000000000000000000 ) ) ;
#241 =( NAMED_UNIT ( * ) PLANE_ANGLE_UNIT ( ) SI_UNIT ( $, .RADIAN. ) );
#242 = CARTESIAN_POINT ( 'NONE',  ( 0.0000000000000000000, 0.0000000000000000000, 1.496062999999999921 ) ) ;
#243 = ORIENTED_EDGE ( 'NONE', *, *, #207, .F. ) ;
#244 = FACE_OUTER_BOUND ( 'NONE', #55, .T. ) ;
#245 = LENGTH_MEASURE_WITH_UNIT ( LENGTH_MEASURE( 0.02539999999999999897 ), #169 );
#246 = CARTESIAN_POINT ( 'NONE',  ( -0.003936999999999995191, 3.857147558594504174E-18, 0.0000000000000000000 ) ) ;
#247 = DIRECTION ( 'NONE',  ( -1.000000000000000000, 0.0000000000000000000, 0.0000000000000000000 ) ) ;
#248 = EDGE_CURVE ( 'NONE', #107, #122, #141, .T. ) ;
#249 = DIRECTION ( 'NONE',  ( -0.0000000000000000000, -0.0000000000000000000, -1.000000000000000000 ) ) ;
ENDSEC;
END-ISO-10303-21;
