ISO-10303-21;
HEADER;
FILE_DESCRIPTION (( 'STEP AP214' ),
    '1' );
FILE_NAME ('84631.STEP',
    '2023-06-23T14:12:20',
    ( '' ),
    ( '' ),
    'SwSTEP 2.0',
    'SolidWorks 2023',
    '' );
FILE_SCHEMA (( 'AUTOMOTIVE_DESIGN' ));
ENDSEC;

DATA;
#1 = CLOSED_SHELL ( 'NONE', ( #54, #199, #12, #243 ) ) ;
#2 = STYLED_ITEM ( 'NONE', ( #184 ), #243 ) ;
#3 =( LENGTH_UNIT ( ) NAMED_UNIT ( * ) SI_UNIT ( $, .METRE. ) );
#4 =( CONVERSION_BASED_UNIT ( 'INCH', #222 ) LENGTH_UNIT ( ) NAMED_UNIT ( #111 ) );
#5 = APPLICATION_PROTOCOL_DEFINITION ( 'draft international standard', 'automotive_design', 1998, #75 ) ;
#6 = VECTOR ( 'NONE', #251, 39.37007874015748143 ) ;
#7 = DIRECTION ( 'NONE',  ( 0.000000000000000000, 0.000000000000000000, -1.000000000000000000 ) ) ;
#8 = UNCERTAINTY_MEASURE_WITH_UNIT (LENGTH_MEASURE( 1.000000000000000082E-05 ), #166, 'distance_accuracy_value', 'NONE');
#9 = CARTESIAN_POINT ( 'NONE',  ( 0.000000000000000000, 0.6250000000000000000, 0.000000000000000000 ) ) ;
#10 = DIRECTION ( 'NONE',  ( 3.265724797726278260E-17, 1.000000000000000000, -0.000000000000000000 ) ) ;
#11 = PRESENTATION_STYLE_ASSIGNMENT (( #100 ) ) ;
#12 = ADVANCED_FACE ( 'NONE', ( #202 ), #37, .T. ) ;
#13 = STYLED_ITEM ( 'NONE', ( #259 ), #199 ) ;
#14 = DIRECTION ( 'NONE',  ( -3.265724797726278260E-17, -1.000000000000000000, 0.000000000000000000 ) ) ;
#15 = SURFACE_SIDE_STYLE ('',( #229 ) ) ;
#16 = FILL_AREA_STYLE ('',( #230 ) ) ;
#17 = SURFACE_SIDE_STYLE ('',( #269 ) ) ;
#18 = ADVANCED_FACE ( 'NONE', ( #192 ), #292, .F. ) ;
#19 = ORIENTED_EDGE ( 'NONE', *, *, #296, .F. ) ;
#20 = AXIS2_PLACEMENT_3D ( 'NONE', #240, #237, #161 ) ;
#21 =( CONVERSION_BASED_UNIT ( 'INCH', #128 ) LENGTH_UNIT ( ) NAMED_UNIT ( #254 ) );
#22 = ORIENTED_EDGE ( 'NONE', *, *, #108, .T. ) ;
#23 = SURFACE_STYLE_FILL_AREA ( #280 ) ;
#24 = CIRCLE ( 'NONE', #164, 0.1562500000000000000 ) ;
#25 = SURFACE_STYLE_FILL_AREA ( #276 ) ;
#26 = FACE_OUTER_BOUND ( 'NONE', #127, .T. ) ;
#27 = ADVANCED_FACE ( 'NONE', ( #146 ), #71, .F. ) ;
#28 = LENGTH_MEASURE_WITH_UNIT ( LENGTH_MEASURE( 0.02539999999999999897 ), #3 );
#29 = PRESENTATION_LAYER_ASSIGNMENT (  '', '', ( #158 ) ) ;
#30 = AXIS2_PLACEMENT_3D ( 'NONE', #66, #134, #63 ) ;
#31 = CARTESIAN_POINT ( 'NONE',  ( 0.000000000000000000, 0.000000000000000000, 0.000000000000000000 ) ) ;
#32 = AXIS2_PLACEMENT_3D ( 'NONE', #175, #231, #303 ) ;
#33 = PRODUCT_CONTEXT ( 'NONE', #75, 'mechanical' ) ;
#34 = CYLINDRICAL_SURFACE ( 'NONE', #32, 0.1562500000000000000 ) ;
#35 = AXIS2_PLACEMENT_3D ( 'NONE', #198, #284, #64 ) ;
#36 = CARTESIAN_POINT ( 'NONE',  ( 0.000000000000000000, 0.000000000000000000, -0.1562500000000000000 ) ) ;
#37 = CYLINDRICAL_SURFACE ( 'NONE', #141, 0.1562500000000000000 ) ;
#38 = EDGE_CURVE ( 'NONE', #59, #160, #223, .T. ) ;
#39 = ORIENTED_EDGE ( 'NONE', *, *, #306, .T. ) ;
#40 = PRESENTATION_STYLE_ASSIGNMENT (( #101 ) ) ;
#41 = EDGE_LOOP ( 'NONE', ( #181, #61, #232, #304 ) ) ;
#42 = MECHANICAL_DESIGN_GEOMETRIC_PRESENTATION_REPRESENTATION (  '', ( #253 ), #105 ) ;
#43 = COLOUR_RGB ( '',1.000000000000000000, 0.000000000000000000, 0.000000000000000000 ) ;
#44 = LENGTH_MEASURE_WITH_UNIT ( LENGTH_MEASURE( 0.02539999999999999897 ), #180 );
#45 = EDGE_LOOP ( 'NONE', ( #153, #39 ) ) ;
#46 = CARTESIAN_POINT ( 'NONE',  ( 0.000000000000000000, 0.6250000000000000000, -0.1562500000000000000 ) ) ;
#47 = CARTESIAN_POINT ( 'NONE',  ( 0.000000000000000000, 0.6250000000000000000, 0.000000000000000000 ) ) ;
#48 = CIRCLE ( 'NONE', #220, 0.1562499999999999445 ) ;
#49 = EDGE_CURVE ( 'NONE', #112, #85, #74, .T. ) ;
#50 = FACE_OUTER_BOUND ( 'NONE', #45, .T. ) ;
#51 = SURFACE_STYLE_USAGE ( .BOTH. , #186 ) ;
#52 = DIRECTION ( 'NONE',  ( -0.000000000000000000, -1.000000000000000000, -0.000000000000000000 ) ) ;
#53 = MECHANICAL_DESIGN_GEOMETRIC_PRESENTATION_REPRESENTATION (  '', ( #2 ), #99 ) ;
#54 = ADVANCED_FACE ( 'NONE', ( #264 ), #34, .T. ) ;
#55 = DIRECTION ( 'NONE',  ( -1.000000000000000000, 0.000000000000000000, 0.000000000000000000 ) ) ;
#56 = DIRECTION ( 'NONE',  ( -1.000000000000000000, 0.000000000000000000, 0.000000000000000000 ) ) ;
#57 = CIRCLE ( 'NONE', #151, 0.1562500000000000000 ) ;
#58 = VERTEX_POINT ( 'NONE', #252 ) ;
#59 = VERTEX_POINT ( 'NONE', #150 ) ;
#60 = SURFACE_STYLE_USAGE ( .BOTH. , #17 ) ;
#61 = ORIENTED_EDGE ( 'NONE', *, *, #296, .T. ) ;
#62 = AXIS2_PLACEMENT_3D ( 'NONE', #70, #148, #194 ) ;
#63 = DIRECTION ( 'NONE',  ( 0.000000000000000000, -0.000000000000000000, 1.000000000000000000 ) ) ;
#64 = DIRECTION ( 'NONE',  ( -1.000000000000000000, 0.000000000000000000, 0.000000000000000000 ) ) ;
#65 = MECHANICAL_DESIGN_GEOMETRIC_PRESENTATION_REPRESENTATION (  '', ( #138 ), #263 ) ;
#66 = CARTESIAN_POINT ( 'NONE',  ( 0.000000000000000000, 0.6250000000000000000, 0.000000000000000000 ) ) ;
#67 = EDGE_CURVE ( 'NONE', #58, #307, #155, .T. ) ;
#68 = CARTESIAN_POINT ( 'NONE',  ( 0.000000000000000000, 0.000000000000000000, 0.000000000000000000 ) ) ;
#69 = CARTESIAN_POINT ( 'NONE',  ( 0.000000000000000000, 0.000000000000000000, 0.000000000000000000 ) ) ;
#70 = CARTESIAN_POINT ( 'NONE',  ( 0.000000000000000000, 0.000000000000000000, 0.000000000000000000 ) ) ;
#71 = PLANE ( 'NONE',  #209 ) ;
#72 = UNCERTAINTY_MEASURE_WITH_UNIT (LENGTH_MEASURE( 1.000000000000000082E-05 ), #106, 'distance_accuracy_value', 'NONE');
#73 = CYLINDRICAL_SURFACE ( 'NONE', #114, 0.1562499999999999722 ) ;
#74 = LINE ( 'NONE', #174, #281 ) ;
#75 = APPLICATION_CONTEXT ( 'automotive_design' ) ;
#76 =( NAMED_UNIT ( * ) SI_UNIT ( $, .STERADIAN. ) SOLID_ANGLE_UNIT ( ) );
#77 = ORIENTED_EDGE ( 'NONE', *, *, #135, .F. ) ;
#78 = CIRCLE ( 'NONE', #299, 0.1562500000000000000 ) ;
#79 =( NAMED_UNIT ( * ) PLANE_ANGLE_UNIT ( ) SI_UNIT ( $, .RADIAN. ) );
#80 = EDGE_LOOP ( 'NONE', ( #275, #131, #152, #83 ) ) ;
#81 =( CONVERSION_BASED_UNIT ( 'INCH', #130 ) LENGTH_UNIT ( ) NAMED_UNIT ( #227 ) );
#82 = DIMENSIONAL_EXPONENTS ( 1.000000000000000000, 0.000000000000000000, 0.000000000000000000, 0.000000000000000000, 0.000000000000000000, 0.000000000000000000, 0.000000000000000000 ) ;
#83 = ORIENTED_EDGE ( 'NONE', *, *, #49, .F. ) ;
#84 = COLOUR_RGB ( '',0.7921568627450980005, 0.8196078431372548767, 0.9333333333333333481 ) ;
#85 = VERTEX_POINT ( 'NONE', #36 ) ;
#86 = SURFACE_SIDE_STYLE ('',( #23 ) ) ;
#87 = MANIFOLD_SOLID_BREP ( 'Revolve - Tool Body (Straight Shanked)', #287 ) ;
#88 = PLANE ( 'NONE',  #30 ) ;
#89 = STYLED_ITEM ( 'NONE', ( #40 ), #87 ) ;
#90 =( NAMED_UNIT ( * ) PLANE_ANGLE_UNIT ( ) SI_UNIT ( $, .RADIAN. ) );
#91 = DIRECTION ( 'NONE',  ( 0.000000000000000000, 0.000000000000000000, -1.000000000000000000 ) ) ;
#92 = MANIFOLD_SOLID_BREP ( 'Revolve - Cutting Edge', #1 ) ;
#93 = CIRCLE ( 'NONE', #268, 0.1562500000000000000 ) ;
#94 = UNCERTAINTY_MEASURE_WITH_UNIT (LENGTH_MEASURE( 1.000000000000000082E-05 ), #21, 'distance_accuracy_value', 'NONE');
#95 = CARTESIAN_POINT ( 'NONE',  ( 6.123233995736772199E-17, 2.500000000000000000, 0.000000000000000000 ) ) ;
#96 = EDGE_CURVE ( 'NONE', #277, #205, #248, .T. ) ;
#97 =( LENGTH_UNIT ( ) NAMED_UNIT ( * ) SI_UNIT ( $, .METRE. ) );
#98 = CARTESIAN_POINT ( 'NONE',  ( 1.913510623667739463E-17, 0.000000000000000000, 0.1562500000000000000 ) ) ;
#99 =( GEOMETRIC_REPRESENTATION_CONTEXT ( 3 ) GLOBAL_UNCERTAINTY_ASSIGNED_CONTEXT ( ( #193 ) ) GLOBAL_UNIT_ASSIGNED_CONTEXT ( ( #4, #221, #291 ) ) REPRESENTATION_CONTEXT ( 'NONE', 'WORKASPACE' ) );
#100 = SURFACE_STYLE_USAGE ( .BOTH. , #246 ) ;
#101 = SURFACE_STYLE_USAGE ( .BOTH. , #15 ) ;
#102 = ORIENTED_EDGE ( 'NONE', *, *, #96, .T. ) ;
#103 = PRESENTATION_STYLE_ASSIGNMENT (( #60 ) ) ;
#104 = EDGE_LOOP ( 'NONE', ( #22, #270 ) ) ;
#105 =( GEOMETRIC_REPRESENTATION_CONTEXT ( 3 ) GLOBAL_UNCERTAINTY_ASSIGNED_CONTEXT ( ( #8 ) ) GLOBAL_UNIT_ASSIGNED_CONTEXT ( ( #166, #90, #308 ) ) REPRESENTATION_CONTEXT ( 'NONE', 'WORKASPACE' ) );
#106 =( CONVERSION_BASED_UNIT ( 'INCH', #44 ) LENGTH_UNIT ( ) NAMED_UNIT ( #82 ) );
#107 = ORIENTED_EDGE ( 'NONE', *, *, #108, .F. ) ;
#108 = EDGE_CURVE ( 'NONE', #307, #205, #113, .T. ) ;
#109 =( NAMED_UNIT ( * ) SI_UNIT ( $, .STERADIAN. ) SOLID_ANGLE_UNIT ( ) );
#110 = PLANE ( 'NONE',  #215 ) ;
#111 = DIMENSIONAL_EXPONENTS ( 1.000000000000000000, 0.000000000000000000, 0.000000000000000000, 0.000000000000000000, 0.000000000000000000, 0.000000000000000000, 0.000000000000000000 ) ;
#112 = VERTEX_POINT ( 'NONE', #46 ) ;
#113 = CIRCLE ( 'NONE', #35, 0.1562499999999999445 ) ;
#114 = AXIS2_PLACEMENT_3D ( 'NONE', #95, #295, #55 ) ;
#115 =( CONVERSION_BASED_UNIT ( 'INCH', #28 ) LENGTH_UNIT ( ) NAMED_UNIT ( #201 ) );
#116 = LENGTH_MEASURE_WITH_UNIT ( LENGTH_MEASURE( 0.02539999999999999897 ), #129 );
#117 = CARTESIAN_POINT ( 'NONE',  ( 0.000000000000000000, 0.6250000000000000000, 0.000000000000000000 ) ) ;
#118 = EDGE_CURVE ( 'NONE', #112, #59, #288, .T. ) ;
#119 = DIRECTION ( 'NONE',  ( -0.000000000000000000, -1.000000000000000000, -0.000000000000000000 ) ) ;
#120 = FACE_OUTER_BOUND ( 'NONE', #178, .T. ) ;
#121 = CARTESIAN_POINT ( 'NONE',  ( 0.1562500000000000000, 0.6250000000000000000, 1.913510623667738847E-17 ) ) ;
#122 = FILL_AREA_STYLE_COLOUR ( '', #294 ) ;
#123 =( LENGTH_UNIT ( ) NAMED_UNIT ( * ) SI_UNIT ( $, .METRE. ) );
#124 = MECHANICAL_DESIGN_GEOMETRIC_PRESENTATION_REPRESENTATION (  '', ( #89 ), #226 ) ;
#125 = FILL_AREA_STYLE ('',( #206 ) ) ;
#126 = ORIENTED_EDGE ( 'NONE', *, *, #154, .F. ) ;
#127 = EDGE_LOOP ( 'NONE', ( #247, #301, #255, #305 ) ) ;
#128 = LENGTH_MEASURE_WITH_UNIT ( LENGTH_MEASURE( 0.02539999999999999897 ), #300 );
#129 =( LENGTH_UNIT ( ) NAMED_UNIT ( * ) SI_UNIT ( $, .METRE. ) );
#130 = LENGTH_MEASURE_WITH_UNIT ( LENGTH_MEASURE( 0.02539999999999999897 ), #123 );
#131 = ORIENTED_EDGE ( 'NONE', *, *, #38, .T. ) ;
#132 =( NAMED_UNIT ( * ) SI_UNIT ( $, .STERADIAN. ) SOLID_ANGLE_UNIT ( ) );
#133 = CARTESIAN_POINT ( 'NONE',  ( 0.1562500000000000278, 2.500000000000000000, 1.913510623667738847E-17 ) ) ;
#134 = DIRECTION ( 'NONE',  ( 0.000000000000000000, 1.000000000000000000, 0.000000000000000000 ) ) ;
#135 = EDGE_CURVE ( 'NONE', #58, #277, #57, .T. ) ;
#136 = MECHANICAL_DESIGN_GEOMETRIC_PRESENTATION_REPRESENTATION (  '', ( #158 ), #258 ) ;
#137 = CARTESIAN_POINT ( 'NONE',  ( 0.000000000000000000, 0.6250000000000000000, 0.000000000000000000 ) ) ;
#138 = STYLED_ITEM ( 'NONE', ( #103 ), #92 ) ;
#139 = DIRECTION ( 'NONE',  ( 0.000000000000000000, 0.000000000000000000, -1.000000000000000000 ) ) ;
#140 =( NAMED_UNIT ( * ) SI_UNIT ( $, .STERADIAN. ) SOLID_ANGLE_UNIT ( ) );
#141 = AXIS2_PLACEMENT_3D ( 'NONE', #68, #52, #241 ) ;
#142 = CIRCLE ( 'NONE', #62, 0.1562500000000000000 ) ;
#143 = DIRECTION ( 'NONE',  ( -1.000000000000000000, 3.265724797726278260E-17, 0.000000000000000000 ) ) ;
#144 = PRODUCT_DEFINITION_CONTEXT ( 'detailed design', #228, 'design' ) ;
#145 = DIRECTION ( 'NONE',  ( 0.000000000000000000, -1.000000000000000000, -0.000000000000000000 ) ) ;
#146 = FACE_OUTER_BOUND ( 'NONE', #233, .T. ) ;
#147 = ADVANCED_BREP_SHAPE_REPRESENTATION ( '84631', ( #92, #87, #203 ), #282 ) ;
#148 = DIRECTION ( 'NONE',  ( -0.000000000000000000, -1.000000000000000000, -0.000000000000000000 ) ) ;
#149 = SURFACE_STYLE_FILL_AREA ( #225 ) ;
#150 = CARTESIAN_POINT ( 'NONE',  ( 1.913510623667739463E-17, 0.6250000000000000000, 0.1562500000000000000 ) ) ;
#151 = AXIS2_PLACEMENT_3D ( 'NONE', #117, #285, #260 ) ;
#152 = ORIENTED_EDGE ( 'NONE', *, *, #278, .F. ) ;
#153 = ORIENTED_EDGE ( 'NONE', *, *, #278, .T. ) ;
#154 = EDGE_CURVE ( 'NONE', #277, #58, #24, .T. ) ;
#155 = LINE ( 'NONE', #271, #6 ) ;
#156 = PRESENTATION_STYLE_ASSIGNMENT (( #272 ) ) ;
#157 = FILL_AREA_STYLE ('',( #176 ) ) ;
#158 = STYLED_ITEM ( 'NONE', ( #11 ), #54 ) ;
#159 = AXIS2_PLACEMENT_3D ( 'NONE', #47, #235, #239 ) ;
#160 = VERTEX_POINT ( 'NONE', #165 ) ;
#161 = DIRECTION ( 'NONE',  ( -1.000000000000000000, 0.000000000000000000, 0.000000000000000000 ) ) ;
#162 = CYLINDRICAL_SURFACE ( 'NONE', #20, 0.1562499999999999722 ) ;
#163 = PRODUCT ( '84631', '84631', '', ( #33 ) ) ;
#164 = AXIS2_PLACEMENT_3D ( 'NONE', #137, #216, #309 ) ;
#165 = CARTESIAN_POINT ( 'NONE',  ( 1.913510623667739463E-17, 0.000000000000000000, 0.1562500000000000000 ) ) ;
#166 =( CONVERSION_BASED_UNIT ( 'INCH', #116 ) LENGTH_UNIT ( ) NAMED_UNIT ( #273 ) );
#167 = DIRECTION ( 'NONE',  ( 0.000000000000000000, 0.000000000000000000, 1.000000000000000000 ) ) ;
#168 = COLOUR_RGB ( '',0.7921568627450980005, 0.8196078431372548767, 0.9333333333333333481 ) ;
#169 = SHAPE_DEFINITION_REPRESENTATION ( #249, #147 ) ;
#170 = UNCERTAINTY_MEASURE_WITH_UNIT (LENGTH_MEASURE( 1.000000000000000082E-05 ), #115, 'distance_accuracy_value', 'NONE');
#171 = DIRECTION ( 'NONE',  ( -0.000000000000000000, -1.000000000000000000, -0.000000000000000000 ) ) ;
#172 = CARTESIAN_POINT ( 'NONE',  ( 8.331998792565891279E-35, 0.6250000000000000000, 0.000000000000000000 ) ) ;
#173 = PRESENTATION_LAYER_ASSIGNMENT (  '', '', ( #253 ) ) ;
#174 = CARTESIAN_POINT ( 'NONE',  ( 0.000000000000000000, 0.000000000000000000, -0.1562500000000000000 ) ) ;
#175 = CARTESIAN_POINT ( 'NONE',  ( 0.000000000000000000, 0.000000000000000000, 0.000000000000000000 ) ) ;
#176 = FILL_AREA_STYLE_COLOUR ( '', #168 ) ;
#177 = PRESENTATION_LAYER_ASSIGNMENT (  '', '', ( #89 ) ) ;
#178 = EDGE_LOOP ( 'NONE', ( #208, #102, #107, #200 ) ) ;
#179 = SURFACE_SIDE_STYLE ('',( #298 ) ) ;
#180 =( LENGTH_UNIT ( ) NAMED_UNIT ( * ) SI_UNIT ( $, .METRE. ) );
#181 = ORIENTED_EDGE ( 'NONE', *, *, #38, .F. ) ;
#182 = MECHANICAL_DESIGN_GEOMETRIC_PRESENTATION_REPRESENTATION (  '', ( #13 ), #236 ) ;
#183 = FACE_OUTER_BOUND ( 'NONE', #250, .T. ) ;
#184 = PRESENTATION_STYLE_ASSIGNMENT (( #211 ) ) ;
#185 = PRESENTATION_LAYER_ASSIGNMENT (  '', '', ( #138 ) ) ;
#186 = SURFACE_SIDE_STYLE ('',( #25 ) ) ;
#187 =( NAMED_UNIT ( * ) PLANE_ANGLE_UNIT ( ) SI_UNIT ( $, .RADIAN. ) );
#188 = CARTESIAN_POINT ( 'NONE',  ( 0.000000000000000000, 0.000000000000000000, 0.000000000000000000 ) ) ;
#189 = PRODUCT_RELATED_PRODUCT_CATEGORY ( 'part', '', ( #163 ) ) ;
#190 = PRESENTATION_LAYER_ASSIGNMENT (  '', '', ( #13 ) ) ;
#191 = CARTESIAN_POINT ( 'NONE',  ( -0.1562499999999998612, 2.500000000000000000, 0.000000000000000000 ) ) ;
#192 = FACE_OUTER_BOUND ( 'NONE', #104, .T. ) ;
#193 = UNCERTAINTY_MEASURE_WITH_UNIT (LENGTH_MEASURE( 1.000000000000000082E-05 ), #4, 'distance_accuracy_value', 'NONE');
#194 = DIRECTION ( 'NONE',  ( 0.000000000000000000, 0.000000000000000000, -1.000000000000000000 ) ) ;
#195 = DIRECTION ( 'NONE',  ( -0.000000000000000000, -1.000000000000000000, -0.000000000000000000 ) ) ;
#196 = AXIS2_PLACEMENT_3D ( 'NONE', #244, #14, #286 ) ;
#197 = DIRECTION ( 'NONE',  ( 3.265724797726278260E-17, 1.000000000000000000, -0.000000000000000000 ) ) ;
#198 = CARTESIAN_POINT ( 'NONE',  ( 6.123233995736772199E-17, 2.500000000000000000, 0.000000000000000000 ) ) ;
#199 = ADVANCED_FACE ( 'NONE', ( #183 ), #88, .T. ) ;
#200 = ORIENTED_EDGE ( 'NONE', *, *, #67, .F. ) ;
#201 = DIMENSIONAL_EXPONENTS ( 1.000000000000000000, 0.000000000000000000, 0.000000000000000000, 0.000000000000000000, 0.000000000000000000, 0.000000000000000000, 0.000000000000000000 ) ;
#202 = FACE_OUTER_BOUND ( 'NONE', #41, .T. ) ;
#203 = AXIS2_PLACEMENT_3D ( 'NONE', #69, #167, #218 ) ;
#204 =( NAMED_UNIT ( * ) PLANE_ANGLE_UNIT ( ) SI_UNIT ( $, .RADIAN. ) );
#205 = VERTEX_POINT ( 'NONE', #207 ) ;
#206 = FILL_AREA_STYLE_COLOUR ( '', #84 ) ;
#207 = CARTESIAN_POINT ( 'NONE',  ( 0.1562500000000000000, 2.500000000000000000, 1.913510623667738847E-17 ) ) ;
#208 = ORIENTED_EDGE ( 'NONE', *, *, #135, .T. ) ;
#209 = AXIS2_PLACEMENT_3D ( 'NONE', #172, #197, #143 ) ;
#210 = PRESENTATION_LAYER_ASSIGNMENT (  '', '', ( #2 ) ) ;
#211 = SURFACE_STYLE_USAGE ( .BOTH. , #86 ) ;
#212 =( LENGTH_UNIT ( ) NAMED_UNIT ( * ) SI_UNIT ( $, .METRE. ) );
#213 = ADVANCED_FACE ( 'NONE', ( #26 ), #162, .T. ) ;
#214 = DIRECTION ( 'NONE',  ( 3.265724797726278260E-17, 1.000000000000000000, -0.000000000000000000 ) ) ;
#215 = AXIS2_PLACEMENT_3D ( 'NONE', #31, #145, #7 ) ;
#216 = DIRECTION ( 'NONE',  ( 3.265724797726278260E-17, 1.000000000000000000, -0.000000000000000000 ) ) ;
#217 =( CONVERSION_BASED_UNIT ( 'INCH', #224 ) LENGTH_UNIT ( ) NAMED_UNIT ( #279 ) );
#218 = DIRECTION ( 'NONE',  ( 1.000000000000000000, 0.000000000000000000, 0.000000000000000000 ) ) ;
#219 = UNCERTAINTY_MEASURE_WITH_UNIT (LENGTH_MEASURE( 1.000000000000000082E-05 ), #81, 'distance_accuracy_value', 'NONE');
#220 = AXIS2_PLACEMENT_3D ( 'NONE', #265, #10, #56 ) ;
#221 =( NAMED_UNIT ( * ) PLANE_ANGLE_UNIT ( ) SI_UNIT ( $, .RADIAN. ) );
#222 = LENGTH_MEASURE_WITH_UNIT ( LENGTH_MEASURE( 0.02539999999999999897 ), #212 );
#223 = LINE ( 'NONE', #98, #274 ) ;
#224 = LENGTH_MEASURE_WITH_UNIT ( LENGTH_MEASURE( 0.02539999999999999897 ), #97 );
#225 = FILL_AREA_STYLE ('',( #122 ) ) ;
#226 =( GEOMETRIC_REPRESENTATION_CONTEXT ( 3 ) GLOBAL_UNCERTAINTY_ASSIGNED_CONTEXT ( ( #94 ) ) GLOBAL_UNIT_ASSIGNED_CONTEXT ( ( #21, #297, #76 ) ) REPRESENTATION_CONTEXT ( 'NONE', 'WORKASPACE' ) );
#227 = DIMENSIONAL_EXPONENTS ( 1.000000000000000000, 0.000000000000000000, 0.000000000000000000, 0.000000000000000000, 0.000000000000000000, 0.000000000000000000, 0.000000000000000000 ) ;
#228 = APPLICATION_CONTEXT ( 'automotive_design' ) ;
#229 = SURFACE_STYLE_FILL_AREA ( #125 ) ;
#230 = FILL_AREA_STYLE_COLOUR ( '', #267 ) ;
#231 = DIRECTION ( 'NONE',  ( -0.000000000000000000, -1.000000000000000000, -0.000000000000000000 ) ) ;
#232 = ORIENTED_EDGE ( 'NONE', *, *, #49, .T. ) ;
#233 = EDGE_LOOP ( 'NONE', ( #77, #126 ) ) ;
#234 = ORIENTED_EDGE ( 'NONE', *, *, #118, .F. ) ;
#235 = DIRECTION ( 'NONE',  ( -0.000000000000000000, -1.000000000000000000, -0.000000000000000000 ) ) ;
#236 =( GEOMETRIC_REPRESENTATION_CONTEXT ( 3 ) GLOBAL_UNCERTAINTY_ASSIGNED_CONTEXT ( ( #170 ) ) GLOBAL_UNIT_ASSIGNED_CONTEXT ( ( #115, #187, #261 ) ) REPRESENTATION_CONTEXT ( 'NONE', 'WORKASPACE' ) );
#237 = DIRECTION ( 'NONE',  ( 3.265724797726278260E-17, 1.000000000000000000, -0.000000000000000000 ) ) ;
#238 = FILL_AREA_STYLE_COLOUR ( '', #43 ) ;
#239 = DIRECTION ( 'NONE',  ( 0.000000000000000000, 0.000000000000000000, -1.000000000000000000 ) ) ;
#240 = CARTESIAN_POINT ( 'NONE',  ( 6.123233995736772199E-17, 2.500000000000000000, 0.000000000000000000 ) ) ;
#241 = DIRECTION ( 'NONE',  ( 0.000000000000000000, 0.000000000000000000, -1.000000000000000000 ) ) ;
#242 = COLOUR_RGB ( '',1.000000000000000000, 0.000000000000000000, 0.000000000000000000 ) ;
#243 = ADVANCED_FACE ( 'NONE', ( #50 ), #110, .T. ) ;
#244 = CARTESIAN_POINT ( 'NONE',  ( 0.1562500000000000000, 2.500000000000000000, 0.000000000000000000 ) ) ;
#245 = DIRECTION ( 'NONE',  ( -0.000000000000000000, -1.000000000000000000, -0.000000000000000000 ) ) ;
#246 = SURFACE_SIDE_STYLE ('',( #149 ) ) ;
#247 = ORIENTED_EDGE ( 'NONE', *, *, #96, .F. ) ;
#248 = LINE ( 'NONE', #133, #289 ) ;
#249 = PRODUCT_DEFINITION_SHAPE ( 'NONE', 'NONE',  #257 ) ;
#250 = EDGE_LOOP ( 'NONE', ( #234, #19 ) ) ;
#251 = DIRECTION ( 'NONE',  ( 3.265724797726278260E-17, 1.000000000000000000, -0.000000000000000000 ) ) ;
#252 = CARTESIAN_POINT ( 'NONE',  ( -0.1562500000000000000, 0.6250000000000000000, 0.000000000000000000 ) ) ;
#253 = STYLED_ITEM ( 'NONE', ( #156 ), #12 ) ;
#254 = DIMENSIONAL_EXPONENTS ( 1.000000000000000000, 0.000000000000000000, 0.000000000000000000, 0.000000000000000000, 0.000000000000000000, 0.000000000000000000, 0.000000000000000000 ) ;
#255 = ORIENTED_EDGE ( 'NONE', *, *, #67, .T. ) ;
#256 = FILL_AREA_STYLE_COLOUR ( '', #242 ) ;
#257 = PRODUCT_DEFINITION ( 'UNKNOWN', '', #283, #144 ) ;
#258 =( GEOMETRIC_REPRESENTATION_CONTEXT ( 3 ) GLOBAL_UNCERTAINTY_ASSIGNED_CONTEXT ( ( #219 ) ) GLOBAL_UNIT_ASSIGNED_CONTEXT ( ( #81, #79, #109 ) ) REPRESENTATION_CONTEXT ( 'NONE', 'WORKASPACE' ) );
#259 = PRESENTATION_STYLE_ASSIGNMENT (( #51 ) ) ;
#260 = DIRECTION ( 'NONE',  ( -1.000000000000000000, 0.000000000000000000, 0.000000000000000000 ) ) ;
#261 =( NAMED_UNIT ( * ) SI_UNIT ( $, .STERADIAN. ) SOLID_ANGLE_UNIT ( ) );
#262 = ADVANCED_FACE ( 'NONE', ( #120 ), #73, .T. ) ;
#263 =( GEOMETRIC_REPRESENTATION_CONTEXT ( 3 ) GLOBAL_UNCERTAINTY_ASSIGNED_CONTEXT ( ( #72 ) ) GLOBAL_UNIT_ASSIGNED_CONTEXT ( ( #106, #204, #132 ) ) REPRESENTATION_CONTEXT ( 'NONE', 'WORKASPACE' ) );
#264 = FACE_OUTER_BOUND ( 'NONE', #80, .T. ) ;
#265 = CARTESIAN_POINT ( 'NONE',  ( 6.123233995736772199E-17, 2.500000000000000000, 0.000000000000000000 ) ) ;
#266 = UNCERTAINTY_MEASURE_WITH_UNIT (LENGTH_MEASURE( 1.000000000000000082E-05 ), #217, 'distance_accuracy_value', 'NONE');
#267 = COLOUR_RGB ( '',1.000000000000000000, 0.000000000000000000, 0.000000000000000000 ) ;
#268 = AXIS2_PLACEMENT_3D ( 'NONE', #9, #171, #91 ) ;
#269 = SURFACE_STYLE_FILL_AREA ( #157 ) ;
#270 = ORIENTED_EDGE ( 'NONE', *, *, #302, .T. ) ;
#271 = CARTESIAN_POINT ( 'NONE',  ( -0.1562499999999999167, 2.500000000000000000, 0.000000000000000000 ) ) ;
#272 = SURFACE_STYLE_USAGE ( .BOTH. , #179 ) ;
#273 = DIMENSIONAL_EXPONENTS ( 1.000000000000000000, 0.000000000000000000, 0.000000000000000000, 0.000000000000000000, 0.000000000000000000, 0.000000000000000000, 0.000000000000000000 ) ;
#274 = VECTOR ( 'NONE', #195, 39.37007874015748143 ) ;
#275 = ORIENTED_EDGE ( 'NONE', *, *, #118, .T. ) ;
#276 = FILL_AREA_STYLE ('',( #238 ) ) ;
#277 = VERTEX_POINT ( 'NONE', #121 ) ;
#278 = EDGE_CURVE ( 'NONE', #85, #160, #142, .T. ) ;
#279 = DIMENSIONAL_EXPONENTS ( 1.000000000000000000, 0.000000000000000000, 0.000000000000000000, 0.000000000000000000, 0.000000000000000000, 0.000000000000000000, 0.000000000000000000 ) ;
#280 = FILL_AREA_STYLE ('',( #256 ) ) ;
#281 = VECTOR ( 'NONE', #245, 39.37007874015748143 ) ;
#282 =( GEOMETRIC_REPRESENTATION_CONTEXT ( 3 ) GLOBAL_UNCERTAINTY_ASSIGNED_CONTEXT ( ( #266 ) ) GLOBAL_UNIT_ASSIGNED_CONTEXT ( ( #217, #293, #140 ) ) REPRESENTATION_CONTEXT ( 'NONE', 'WORKASPACE' ) );
#283 = PRODUCT_DEFINITION_FORMATION_WITH_SPECIFIED_SOURCE ( 'ANY', '', #163, .NOT_KNOWN. ) ;
#284 = DIRECTION ( 'NONE',  ( 3.265724797726278260E-17, 1.000000000000000000, -0.000000000000000000 ) ) ;
#285 = DIRECTION ( 'NONE',  ( 3.265724797726278260E-17, 1.000000000000000000, -0.000000000000000000 ) ) ;
#286 = DIRECTION ( 'NONE',  ( 1.000000000000000000, -3.265724797726278260E-17, 0.000000000000000000 ) ) ;
#287 = CLOSED_SHELL ( 'NONE', ( #262, #27, #213, #18 ) ) ;
#288 = CIRCLE ( 'NONE', #159, 0.1562500000000000000 ) ;
#289 = VECTOR ( 'NONE', #214, 39.37007874015748143 ) ;
#290 = APPLICATION_PROTOCOL_DEFINITION ( 'draft international standard', 'automotive_design', 1998, #228 ) ;
#291 =( NAMED_UNIT ( * ) SI_UNIT ( $, .STERADIAN. ) SOLID_ANGLE_UNIT ( ) );
#292 = PLANE ( 'NONE',  #196 ) ;
#293 =( NAMED_UNIT ( * ) PLANE_ANGLE_UNIT ( ) SI_UNIT ( $, .RADIAN. ) );
#294 = COLOUR_RGB ( '',1.000000000000000000, 0.000000000000000000, 0.000000000000000000 ) ;
#295 = DIRECTION ( 'NONE',  ( 3.265724797726278260E-17, 1.000000000000000000, -0.000000000000000000 ) ) ;
#296 = EDGE_CURVE ( 'NONE', #59, #112, #93, .T. ) ;
#297 =( NAMED_UNIT ( * ) PLANE_ANGLE_UNIT ( ) SI_UNIT ( $, .RADIAN. ) );
#298 = SURFACE_STYLE_FILL_AREA ( #16 ) ;
#299 = AXIS2_PLACEMENT_3D ( 'NONE', #188, #119, #139 ) ;
#300 =( LENGTH_UNIT ( ) NAMED_UNIT ( * ) SI_UNIT ( $, .METRE. ) );
#301 = ORIENTED_EDGE ( 'NONE', *, *, #154, .T. ) ;
#302 = EDGE_CURVE ( 'NONE', #205, #307, #48, .T. ) ;
#303 = DIRECTION ( 'NONE',  ( 0.000000000000000000, 0.000000000000000000, -1.000000000000000000 ) ) ;
#304 = ORIENTED_EDGE ( 'NONE', *, *, #306, .F. ) ;
#305 = ORIENTED_EDGE ( 'NONE', *, *, #302, .F. ) ;
#306 = EDGE_CURVE ( 'NONE', #160, #85, #78, .T. ) ;
#307 = VERTEX_POINT ( 'NONE', #191 ) ;
#308 =( NAMED_UNIT ( * ) SI_UNIT ( $, .STERADIAN. ) SOLID_ANGLE_UNIT ( ) );
#309 = DIRECTION ( 'NONE',  ( -1.000000000000000000, 0.000000000000000000, 0.000000000000000000 ) ) ;
ENDSEC;
END-ISO-10303-21;
