ISO-10303-21;
HEADER;
FILE_DESCRIPTION (( 'STEP AP214' ),
    '1' );
FILE_NAME ('59512.STEP',
    '2023-07-24T15:08:30',
    ( '' ),
    ( '' ),
    'SwSTEP 2.0',
    'SolidWorks 2023',
    '' );
FILE_SCHEMA (( 'AUTOMOTIVE_DESIGN' ));
ENDSEC;

DATA;
#1 = CARTESIAN_POINT ( 'NONE',  ( 1.409462824231155764E-14, 18.00000000000000355, 0.000000000000000000 ) ) ;
#2 = DIRECTION ( 'NONE',  ( 0.000000000000000000, 0.000000000000000000, -1.000000000000000000 ) ) ;
#3 = AXIS2_PLACEMENT_3D ( 'NONE', #1, #31, #215 ) ;
#4 = UNCERTAINTY_MEASURE_WITH_UNIT (LENGTH_MEASURE( 1.000000000000000082E-05 ), #178, 'distance_accuracy_value', 'NONE');
#5 =( NAMED_UNIT ( * ) SI_UNIT ( $, .STERADIAN. ) SOLID_ANGLE_UNIT ( ) );
#6 = ORIENTED_EDGE ( 'NONE', *, *, #282, .F. ) ;
#7 = STYLED_ITEM ( 'NONE', ( #242 ), #260 ) ;
#8 = SURFACE_STYLE_USAGE ( .BOTH. , #134 ) ;
#9 = CARTESIAN_POINT ( 'NONE',  ( 7.592810154713587074E-15, 63.00000000000000000, 0.000000000000000000 ) ) ;
#10 = ORIENTED_EDGE ( 'NONE', *, *, #332, .T. ) ;
#11 = UNCERTAINTY_MEASURE_WITH_UNIT (LENGTH_MEASURE( 1.000000000000000082E-05 ), #304, 'distance_accuracy_value', 'NONE');
#12 =( LENGTH_UNIT ( ) NAMED_UNIT ( * ) SI_UNIT ( .MILLI., .METRE. ) );
#13 = EDGE_LOOP ( 'NONE', ( #189, #311, #194, #262 ) ) ;
#14 = EDGE_CURVE ( 'NONE', #159, #277, #107, .T. ) ;
#15 = EDGE_CURVE ( 'NONE', #283, #281, #67, .T. ) ;
#16 = ADVANCED_FACE ( 'NONE', ( #220 ), #127, .T. ) ;
#17 = EDGE_LOOP ( 'NONE', ( #112, #49 ) ) ;
#18 =( NAMED_UNIT ( * ) SI_UNIT ( $, .STERADIAN. ) SOLID_ANGLE_UNIT ( ) );
#19 = AXIS2_PLACEMENT_3D ( 'NONE', #32, #180, #121 ) ;
#20 = CARTESIAN_POINT ( 'NONE',  ( 0.000000000000000000, 0.000000000000000000, 0.000000000000000000 ) ) ;
#21 = APPLICATION_PROTOCOL_DEFINITION ( 'draft international standard', 'automotive_design', 1998, #192 ) ;
#22 = CARTESIAN_POINT ( 'NONE',  ( 7.592810154713587074E-15, 63.00000000000000000, 0.000000000000000000 ) ) ;
#23 = AXIS2_PLACEMENT_3D ( 'NONE', #366, #26, #265 ) ;
#24 = DIRECTION ( 'NONE',  ( -1.000000000000000000, 0.000000000000000000, 0.000000000000000000 ) ) ;
#25 =( LENGTH_UNIT ( ) NAMED_UNIT ( * ) SI_UNIT ( .MILLI., .METRE. ) );
#26 = DIRECTION ( 'NONE',  ( -1.444848463910660280E-16, 1.000000000000000000, -0.000000000000000000 ) ) ;
#27 =( GEOMETRIC_REPRESENTATION_CONTEXT ( 3 ) GLOBAL_UNCERTAINTY_ASSIGNED_CONTEXT ( ( #124 ) ) GLOBAL_UNIT_ASSIGNED_CONTEXT ( ( #12, #307, #5 ) ) REPRESENTATION_CONTEXT ( 'NONE', 'WORKASPACE' ) );
#28 = CARTESIAN_POINT ( 'NONE',  ( 0.000000000000000000, 1.000000000000000000, -2.000000000000000000 ) ) ;
#29 = AXIS2_PLACEMENT_3D ( 'NONE', #187, #36, #2 ) ;
#30 = UNCERTAINTY_MEASURE_WITH_UNIT (LENGTH_MEASURE( 1.000000000000000082E-05 ), #25, 'distance_accuracy_value', 'NONE');
#31 = DIRECTION ( 'NONE',  ( -1.444848463910660280E-16, 1.000000000000000000, -0.000000000000000000 ) ) ;
#32 = CARTESIAN_POINT ( 'NONE',  ( 2.999999999999999112, 63.00000000000000000, 0.000000000000000000 ) ) ;
#33 =( GEOMETRIC_REPRESENTATION_CONTEXT ( 3 ) GLOBAL_UNCERTAINTY_ASSIGNED_CONTEXT ( ( #345 ) ) GLOBAL_UNIT_ASSIGNED_CONTEXT ( ( #86, #169, #209 ) ) REPRESENTATION_CONTEXT ( 'NONE', 'WORKASPACE' ) );
#34 = MECHANICAL_DESIGN_GEOMETRIC_PRESENTATION_REPRESENTATION (  '', ( #144 ), #340 ) ;
#35 = CARTESIAN_POINT ( 'NONE',  ( 0.000000000000000000, 18.00000000000000355, 0.000000000000000000 ) ) ;
#36 = DIRECTION ( 'NONE',  ( -0.000000000000000000, -1.000000000000000000, -0.000000000000000000 ) ) ;
#37 = CARTESIAN_POINT ( 'NONE',  ( 3.673940397442059375E-16, 18.00000000000000355, 2.999999999999999112 ) ) ;
#38 = AXIS2_PLACEMENT_3D ( 'NONE', #247, #77, #46 ) ;
#39 = LINE ( 'NONE', #128, #349 ) ;
#40 = CARTESIAN_POINT ( 'NONE',  ( 2.449293598294706414E-16, 1.000000000000000000, 2.000000000000000000 ) ) ;
#41 = MECHANICAL_DESIGN_GEOMETRIC_PRESENTATION_REPRESENTATION (  '', ( #139 ), #27 ) ;
#42 = FACE_OUTER_BOUND ( 'NONE', #17, .T. ) ;
#43 = ORIENTED_EDGE ( 'NONE', *, *, #295, .T. ) ;
#44 = SURFACE_STYLE_FILL_AREA ( #326 ) ;
#45 = VERTEX_POINT ( 'NONE', #151 ) ;
#46 = DIRECTION ( 'NONE',  ( 0.000000000000000000, 0.000000000000000000, -1.000000000000000000 ) ) ;
#47 = DIRECTION ( 'NONE',  ( 1.000000000000000000, 0.000000000000000000, -1.224646799147353207E-16 ) ) ;
#48 = AXIS2_PLACEMENT_3D ( 'NONE', #20, #198, #280 ) ;
#49 = ORIENTED_EDGE ( 'NONE', *, *, #292, .F. ) ;
#50 = STYLED_ITEM ( 'NONE', ( #324 ), #60 ) ;
#51 = ADVANCED_FACE ( 'NONE', ( #273 ), #299, .F. ) ;
#52 = ORIENTED_EDGE ( 'NONE', *, *, #295, .F. ) ;
#53 = DIRECTION ( 'NONE',  ( -0.000000000000000000, -1.000000000000000000, -0.000000000000000000 ) ) ;
#54 = ADVANCED_BREP_SHAPE_REPRESENTATION ( '59512', ( #263, #260, #185 ), #156 ) ;
#55 = CARTESIAN_POINT ( 'NONE',  ( 0.000000000000000000, 0.000000000000000000, -2.000000000000000000 ) ) ;
#56 = EDGE_CURVE ( 'NONE', #277, #85, #245, .T. ) ;
#57 = CIRCLE ( 'NONE', #109, 1.000000000000000000 ) ;
#58 = TOROIDAL_SURFACE ( 'NONE', #356, 2.000000000000000000, 1.000000000000000000 ) ;
#59 = DIRECTION ( 'NONE',  ( -1.444848463910660280E-16, 1.000000000000000000, -0.000000000000000000 ) ) ;
#60 = ADVANCED_FACE ( 'NONE', ( #244 ), #268, .T. ) ;
#61 = SURFACE_SIDE_STYLE ('',( #82 ) ) ;
#62 =( LENGTH_UNIT ( ) NAMED_UNIT ( * ) SI_UNIT ( .MILLI., .METRE. ) );
#63 = CIRCLE ( 'NONE', #287, 2.000000000000000000 ) ;
#64 = DIRECTION ( 'NONE',  ( -0.000000000000000000, -1.000000000000000000, -0.000000000000000000 ) ) ;
#65 = DIRECTION ( 'NONE',  ( -0.000000000000000000, -1.000000000000000000, -0.000000000000000000 ) ) ;
#66 =( LENGTH_UNIT ( ) NAMED_UNIT ( * ) SI_UNIT ( .MILLI., .METRE. ) );
#67 = CIRCLE ( 'NONE', #3, 2.999999999999984457 ) ;
#68 = PRODUCT_RELATED_PRODUCT_CATEGORY ( 'part', '', ( #350 ) ) ;
#69 = PRESENTATION_LAYER_ASSIGNMENT (  '', '', ( #7 ) ) ;
#70 = EDGE_CURVE ( 'NONE', #159, #74, #90, .T. ) ;
#71 = CARTESIAN_POINT ( 'NONE',  ( 0.000000000000000000, 1.000000000000000000, 0.000000000000000000 ) ) ;
#72 = TOROIDAL_SURFACE ( 'NONE', #296, 2.000000000000000000, 1.000000000000000000 ) ;
#73 = CARTESIAN_POINT ( 'NONE',  ( 2.999999999999999556, 63.00000000000000000, 3.673940397442047542E-16 ) ) ;
#74 = VERTEX_POINT ( 'NONE', #294 ) ;
#75 = DIRECTION ( 'NONE',  ( -1.000000000000000000, 0.000000000000000000, 0.000000000000000000 ) ) ;
#76 = PLANE ( 'NONE',  #348 ) ;
#77 = DIRECTION ( 'NONE',  ( -0.000000000000000000, -1.000000000000000000, -0.000000000000000000 ) ) ;
#78 = CARTESIAN_POINT ( 'NONE',  ( 1.409462824231155764E-14, 18.00000000000000355, 0.000000000000000000 ) ) ;
#79 = ORIENTED_EDGE ( 'NONE', *, *, #269, .T. ) ;
#80 = UNCERTAINTY_MEASURE_WITH_UNIT (LENGTH_MEASURE( 1.000000000000000082E-05 ), #140, 'distance_accuracy_value', 'NONE');
#81 = ORIENTED_EDGE ( 'NONE', *, *, #195, .T. ) ;
#82 = SURFACE_STYLE_FILL_AREA ( #363 ) ;
#83 = ORIENTED_EDGE ( 'NONE', *, *, #14, .F. ) ;
#84 = STYLED_ITEM ( 'NONE', ( #173 ), #251 ) ;
#85 = VERTEX_POINT ( 'NONE', #177 ) ;
#86 =( LENGTH_UNIT ( ) NAMED_UNIT ( * ) SI_UNIT ( .MILLI., .METRE. ) );
#87 = PRESENTATION_LAYER_ASSIGNMENT (  '', '', ( #258 ) ) ;
#88 = PRESENTATION_STYLE_ASSIGNMENT (( #205 ) ) ;
#89 = DIRECTION ( 'NONE',  ( 0.000000000000000000, 0.000000000000000000, -1.000000000000000000 ) ) ;
#90 = LINE ( 'NONE', #322, #230 ) ;
#91 = AXIS2_PLACEMENT_3D ( 'NONE', #22, #115, #24 ) ;
#92 = FILL_AREA_STYLE_COLOUR ( '', #219 ) ;
#93 = FILL_AREA_STYLE_COLOUR ( '', #298 ) ;
#94 = EDGE_CURVE ( 'NONE', #85, #229, #57, .T. ) ;
#95 =( NAMED_UNIT ( * ) SI_UNIT ( $, .STERADIAN. ) SOLID_ANGLE_UNIT ( ) );
#96 =( GEOMETRIC_REPRESENTATION_CONTEXT ( 3 ) GLOBAL_UNCERTAINTY_ASSIGNED_CONTEXT ( ( #4 ) ) GLOBAL_UNIT_ASSIGNED_CONTEXT ( ( #178, #325, #176 ) ) REPRESENTATION_CONTEXT ( 'NONE', 'WORKASPACE' ) );
#97 = PRESENTATION_LAYER_ASSIGNMENT (  '', '', ( #50 ) ) ;
#98 = FILL_AREA_STYLE_COLOUR ( '', #104 ) ;
#99 = PRODUCT_DEFINITION_SHAPE ( 'NONE', 'NONE',  #213 ) ;
#100 =( LENGTH_UNIT ( ) NAMED_UNIT ( * ) SI_UNIT ( .MILLI., .METRE. ) );
#101 = DIRECTION ( 'NONE',  ( -0.000000000000000000, -1.000000000000000000, -0.000000000000000000 ) ) ;
#102 = ORIENTED_EDGE ( 'NONE', *, *, #56, .T. ) ;
#103 = DIRECTION ( 'NONE',  ( -1.444848463910660280E-16, 1.000000000000000000, -0.000000000000000000 ) ) ;
#104 = COLOUR_RGB ( '',1.000000000000000000, 0.000000000000000000, 0.000000000000000000 ) ;
#105 = CARTESIAN_POINT ( 'NONE',  ( 0.000000000000000000, 0.000000000000000000, 0.000000000000000000 ) ) ;
#106 = EDGE_LOOP ( 'NONE', ( #210, #170, #102, #331 ) ) ;
#107 = CIRCLE ( 'NONE', #175, 2.999999999999999112 ) ;
#108 =( NAMED_UNIT ( * ) PLANE_ANGLE_UNIT ( ) SI_UNIT ( $, .RADIAN. ) );
#109 = AXIS2_PLACEMENT_3D ( 'NONE', #28, #353, #285 ) ;
#110 = AXIS2_PLACEMENT_3D ( 'NONE', #362, #143, #171 ) ;
#111 = SHAPE_DEFINITION_REPRESENTATION ( #99, #54 ) ;
#112 = ORIENTED_EDGE ( 'NONE', *, *, #15, .F. ) ;
#113 = STYLED_ITEM ( 'NONE', ( #222 ), #358 ) ;
#114 = ADVANCED_FACE ( 'NONE', ( #234 ), #163, .T. ) ;
#115 = DIRECTION ( 'NONE',  ( -1.444848463910660280E-16, 1.000000000000000000, -0.000000000000000000 ) ) ;
#116 = FILL_AREA_STYLE ('',( #365 ) ) ;
#117 = MECHANICAL_DESIGN_GEOMETRIC_PRESENTATION_REPRESENTATION (  '', ( #258 ), #336 ) ;
#118 = PRESENTATION_LAYER_ASSIGNMENT (  '', '', ( #144 ) ) ;
#119 = DIRECTION ( 'NONE',  ( -1.000000000000000000, 0.000000000000000000, 0.000000000000000000 ) ) ;
#120 = ADVANCED_FACE ( 'NONE', ( #42 ), #76, .F. ) ;
#121 = DIRECTION ( 'NONE',  ( 1.000000000000000000, 1.444848463910660280E-16, 0.000000000000000000 ) ) ;
#122 = CARTESIAN_POINT ( 'NONE',  ( 0.000000000000000000, 0.000000000000000000, -2.999999999999999556 ) ) ;
#123 = MECHANICAL_DESIGN_GEOMETRIC_PRESENTATION_REPRESENTATION (  '', ( #84 ), #248 ) ;
#124 = UNCERTAINTY_MEASURE_WITH_UNIT (LENGTH_MEASURE( 1.000000000000000082E-05 ), #12, 'distance_accuracy_value', 'NONE');
#125 = PRESENTATION_STYLE_ASSIGNMENT (( #346 ) ) ;
#126 = UNCERTAINTY_MEASURE_WITH_UNIT (LENGTH_MEASURE( 1.000000000000000082E-05 ), #62, 'distance_accuracy_value', 'NONE');
#127 = PLANE ( 'NONE',  #367 ) ;
#128 = CARTESIAN_POINT ( 'NONE',  ( -2.999999999999980460, 63.00000000000000000, 0.000000000000000000 ) ) ;
#129 = CIRCLE ( 'NONE', #212, 1.000000000000000000 ) ;
#130 = SURFACE_SIDE_STYLE ('',( #228 ) ) ;
#131 = MECHANICAL_DESIGN_GEOMETRIC_PRESENTATION_REPRESENTATION (  '', ( #7 ), #33 ) ;
#132 = EDGE_LOOP ( 'NONE', ( #243, #351, #250, #6 ) ) ;
#133 =( NAMED_UNIT ( * ) PLANE_ANGLE_UNIT ( ) SI_UNIT ( $, .RADIAN. ) );
#134 = SURFACE_SIDE_STYLE ('',( #44 ) ) ;
#135 = FACE_OUTER_BOUND ( 'NONE', #330, .T. ) ;
#136 = VERTEX_POINT ( 'NONE', #188 ) ;
#137 = DIRECTION ( 'NONE',  ( -0.000000000000000000, -1.000000000000000000, -0.000000000000000000 ) ) ;
#138 = FILL_AREA_STYLE_COLOUR ( '', #271 ) ;
#139 = STYLED_ITEM ( 'NONE', ( #167 ), #184 ) ;
#140 =( LENGTH_UNIT ( ) NAMED_UNIT ( * ) SI_UNIT ( .MILLI., .METRE. ) );
#141 = EDGE_LOOP ( 'NONE', ( #206, #83 ) ) ;
#142 = SURFACE_STYLE_USAGE ( .BOTH. , #174 ) ;
#143 = DIRECTION ( 'NONE',  ( -1.444848463910660280E-16, 1.000000000000000000, -0.000000000000000000 ) ) ;
#144 = STYLED_ITEM ( 'NONE', ( #125 ), #16 ) ;
#145 =( NAMED_UNIT ( * ) SI_UNIT ( $, .STERADIAN. ) SOLID_ANGLE_UNIT ( ) );
#146 = CARTESIAN_POINT ( 'NONE',  ( 0.000000000000000000, 18.00000000000000355, 0.000000000000000000 ) ) ;
#147 = CARTESIAN_POINT ( 'NONE',  ( 0.000000000000000000, 1.000000000000000000, 0.000000000000000000 ) ) ;
#148 = EDGE_CURVE ( 'NONE', #74, #136, #129, .T. ) ;
#149 = AXIS2_PLACEMENT_3D ( 'NONE', #71, #308, #160 ) ;
#150 = VECTOR ( 'NONE', #65, 1000.000000000000000 ) ;
#151 = CARTESIAN_POINT ( 'NONE',  ( -2.999999999999983569, 63.00000000000000000, 0.000000000000000000 ) ) ;
#152 = PRODUCT_DEFINITION_FORMATION_WITH_SPECIFIED_SOURCE ( 'ANY', '', #350, .NOT_KNOWN. ) ;
#153 = SURFACE_STYLE_USAGE ( .BOTH. , #214 ) ;
#154 = UNCERTAINTY_MEASURE_WITH_UNIT (LENGTH_MEASURE( 1.000000000000000082E-05 ), #66, 'distance_accuracy_value', 'NONE');
#155 = SURFACE_STYLE_FILL_AREA ( #211 ) ;
#156 =( GEOMETRIC_REPRESENTATION_CONTEXT ( 3 ) GLOBAL_UNCERTAINTY_ASSIGNED_CONTEXT ( ( #182 ) ) GLOBAL_UNIT_ASSIGNED_CONTEXT ( ( #100, #359, #226 ) ) REPRESENTATION_CONTEXT ( 'NONE', 'WORKASPACE' ) );
#157 = CARTESIAN_POINT ( 'NONE',  ( 2.999999999999996003, 63.00000000000000000, 3.673940397442045077E-16 ) ) ;
#158 = DIRECTION ( 'NONE',  ( -0.000000000000000000, -1.000000000000000000, -0.000000000000000000 ) ) ;
#159 = VERTEX_POINT ( 'NONE', #37 ) ;
#160 = DIRECTION ( 'NONE',  ( 0.000000000000000000, 0.000000000000000000, -1.000000000000000000 ) ) ;
#161 = FILL_AREA_STYLE_COLOUR ( '', #168 ) ;
#162 = VERTEX_POINT ( 'NONE', #73 ) ;
#163 = PLANE ( 'NONE',  #48 ) ;
#164 = ORIENTED_EDGE ( 'NONE', *, *, #94, .F. ) ;
#165 =( NAMED_UNIT ( * ) PLANE_ANGLE_UNIT ( ) SI_UNIT ( $, .RADIAN. ) );
#166 = EDGE_CURVE ( 'NONE', #85, #74, #218, .T. ) ;
#167 = PRESENTATION_STYLE_ASSIGNMENT (( #259 ) ) ;
#168 = COLOUR_RGB ( '',1.000000000000000000, 0.000000000000000000, 0.000000000000000000 ) ;
#169 =( NAMED_UNIT ( * ) PLANE_ANGLE_UNIT ( ) SI_UNIT ( $, .RADIAN. ) );
#170 = ORIENTED_EDGE ( 'NONE', *, *, #14, .T. ) ;
#171 = DIRECTION ( 'NONE',  ( -1.000000000000000000, 0.000000000000000000, 0.000000000000000000 ) ) ;
#172 = FACE_OUTER_BOUND ( 'NONE', #132, .T. ) ;
#173 = PRESENTATION_STYLE_ASSIGNMENT (( #201 ) ) ;
#174 = SURFACE_SIDE_STYLE ('',( #316 ) ) ;
#175 = AXIS2_PLACEMENT_3D ( 'NONE', #146, #321, #89 ) ;
#176 =( NAMED_UNIT ( * ) SI_UNIT ( $, .STERADIAN. ) SOLID_ANGLE_UNIT ( ) );
#177 = CARTESIAN_POINT ( 'NONE',  ( 0.000000000000000000, 1.000000000000000000, -3.000000000000000000 ) ) ;
#178 =( LENGTH_UNIT ( ) NAMED_UNIT ( * ) SI_UNIT ( .MILLI., .METRE. ) );
#179 = PRESENTATION_LAYER_ASSIGNMENT (  '', '', ( #113 ) ) ;
#180 = DIRECTION ( 'NONE',  ( 1.444848463910660280E-16, -1.000000000000000000, 0.000000000000000000 ) ) ;
#181 = MECHANICAL_DESIGN_GEOMETRIC_PRESENTATION_REPRESENTATION (  '', ( #355 ), #217 ) ;
#182 = UNCERTAINTY_MEASURE_WITH_UNIT (LENGTH_MEASURE( 1.000000000000000082E-05 ), #100, 'distance_accuracy_value', 'NONE');
#183 = LINE ( 'NONE', #157, #203 ) ;
#184 = ADVANCED_FACE ( 'NONE', ( #135 ), #249, .T. ) ;
#185 = AXIS2_PLACEMENT_3D ( 'NONE', #306, #312, #279 ) ;
#186 = ORIENTED_EDGE ( 'NONE', *, *, #364, .T. ) ;
#187 = CARTESIAN_POINT ( 'NONE',  ( 0.000000000000000000, 18.00000000000000355, 0.000000000000000000 ) ) ;
#188 = CARTESIAN_POINT ( 'NONE',  ( 3.061616997868383141E-16, 0.000000000000000000, 2.000000000000000000 ) ) ;
#189 = ORIENTED_EDGE ( 'NONE', *, *, #290, .F. ) ;
#190 = CARTESIAN_POINT ( 'NONE',  ( 0.000000000000000000, 1.000000000000000000, 0.000000000000000000 ) ) ;
#191 = PRODUCT_DEFINITION_CONTEXT ( 'detailed design', #192, 'design' ) ;
#192 = APPLICATION_CONTEXT ( 'automotive_design' ) ;
#193 = DIRECTION ( 'NONE',  ( -1.224646799147353207E-16, 0.000000000000000000, -1.000000000000000000 ) ) ;
#194 = ORIENTED_EDGE ( 'NONE', *, *, #282, .T. ) ;
#195 = EDGE_CURVE ( 'NONE', #162, #45, #301, .T. ) ;
#196 = EDGE_CURVE ( 'NONE', #45, #162, #339, .T. ) ;
#197 = DIRECTION ( 'NONE',  ( 0.000000000000000000, 0.000000000000000000, -1.000000000000000000 ) ) ;
#198 = DIRECTION ( 'NONE',  ( 0.000000000000000000, -1.000000000000000000, -0.000000000000000000 ) ) ;
#199 = APPLICATION_PROTOCOL_DEFINITION ( 'draft international standard', 'automotive_design', 1998, #236 ) ;
#200 = AXIS2_PLACEMENT_3D ( 'NONE', #347, #368, #342 ) ;
#201 = SURFACE_STYLE_USAGE ( .BOTH. , #61 ) ;
#202 = ORIENTED_EDGE ( 'NONE', *, *, #364, .F. ) ;
#203 = VECTOR ( 'NONE', #328, 1000.000000000000000 ) ;
#204 = FILL_AREA_STYLE ('',( #239 ) ) ;
#205 = SURFACE_STYLE_USAGE ( .BOTH. , #337 ) ;
#206 = ORIENTED_EDGE ( 'NONE', *, *, #332, .F. ) ;
#207 = FILL_AREA_STYLE_COLOUR ( '', #284 ) ;
#208 = AXIS2_PLACEMENT_3D ( 'NONE', #310, #101, #252 ) ;
#209 =( NAMED_UNIT ( * ) SI_UNIT ( $, .STERADIAN. ) SOLID_ANGLE_UNIT ( ) );
#210 = ORIENTED_EDGE ( 'NONE', *, *, #70, .F. ) ;
#211 = FILL_AREA_STYLE ('',( #92 ) ) ;
#212 = AXIS2_PLACEMENT_3D ( 'NONE', #40, #47, #193 ) ;
#213 = PRODUCT_DEFINITION ( 'UNKNOWN', '', #152, #191 ) ;
#214 = SURFACE_SIDE_STYLE ('',( #155 ) ) ;
#215 = DIRECTION ( 'NONE',  ( -1.000000000000000000, 0.000000000000000000, 0.000000000000000000 ) ) ;
#216 = DIRECTION ( 'NONE',  ( 0.000000000000000000, -0.000000000000000000, 1.000000000000000000 ) ) ;
#217 =( GEOMETRIC_REPRESENTATION_CONTEXT ( 3 ) GLOBAL_UNCERTAINTY_ASSIGNED_CONTEXT ( ( #11 ) ) GLOBAL_UNIT_ASSIGNED_CONTEXT ( ( #304, #108, #231 ) ) REPRESENTATION_CONTEXT ( 'NONE', 'WORKASPACE' ) );
#218 = CIRCLE ( 'NONE', #208, 3.000000000000000000 ) ;
#219 = COLOUR_RGB ( '',1.000000000000000000, 0.000000000000000000, 0.000000000000000000 ) ;
#220 = FACE_OUTER_BOUND ( 'NONE', #141, .T. ) ;
#221 = CARTESIAN_POINT ( 'NONE',  ( 0.000000000000000000, 0.000000000000000000, 0.000000000000000000 ) ) ;
#222 = PRESENTATION_STYLE_ASSIGNMENT (( #8 ) ) ;
#223 = PRESENTATION_STYLE_ASSIGNMENT (( #327 ) ) ;
#224 = ORIENTED_EDGE ( 'NONE', *, *, #166, .T. ) ;
#225 = CARTESIAN_POINT ( 'NONE',  ( -2.999999999999970690, 18.00000000000000355, 0.000000000000000000 ) ) ;
#226 =( NAMED_UNIT ( * ) SI_UNIT ( $, .STERADIAN. ) SOLID_ANGLE_UNIT ( ) );
#227 = MECHANICAL_DESIGN_GEOMETRIC_PRESENTATION_REPRESENTATION (  '', ( #113 ), #254 ) ;
#228 = SURFACE_STYLE_FILL_AREA ( #360 ) ;
#229 = VERTEX_POINT ( 'NONE', #55 ) ;
#230 = VECTOR ( 'NONE', #64, 1000.000000000000000 ) ;
#231 =( NAMED_UNIT ( * ) SI_UNIT ( $, .STERADIAN. ) SOLID_ANGLE_UNIT ( ) );
#232 = ADVANCED_FACE ( 'NONE', ( #319 ), #334, .T. ) ;
#233 = EDGE_LOOP ( 'NONE', ( #361, #79, #354, #52 ) ) ;
#234 = FACE_OUTER_BOUND ( 'NONE', #333, .T. ) ;
#235 = EDGE_LOOP ( 'NONE', ( #224, #317, #202, #164 ) ) ;
#236 = APPLICATION_CONTEXT ( 'automotive_design' ) ;
#237 = MECHANICAL_DESIGN_GEOMETRIC_PRESENTATION_REPRESENTATION (  '', ( #50 ), #96 ) ;
#238 = AXIS2_PLACEMENT_3D ( 'NONE', #352, #274, #75 ) ;
#239 = FILL_AREA_STYLE_COLOUR ( '', #320 ) ;
#240 = DIRECTION ( 'NONE',  ( 0.000000000000000000, 0.000000000000000000, -1.000000000000000000 ) ) ;
#241 = CLOSED_SHELL ( 'NONE', ( #246, #120, #232, #51 ) ) ;
#242 = PRESENTATION_STYLE_ASSIGNMENT (( #142 ) ) ;
#243 = ORIENTED_EDGE ( 'NONE', *, *, #15, .T. ) ;
#244 = FACE_OUTER_BOUND ( 'NONE', #106, .T. ) ;
#245 = LINE ( 'NONE', #122, #150 ) ;
#246 = ADVANCED_FACE ( 'NONE', ( #172 ), #289, .T. ) ;
#247 = CARTESIAN_POINT ( 'NONE',  ( 0.000000000000000000, 0.000000000000000000, 0.000000000000000000 ) ) ;
#248 =( GEOMETRIC_REPRESENTATION_CONTEXT ( 3 ) GLOBAL_UNCERTAINTY_ASSIGNED_CONTEXT ( ( #30 ) ) GLOBAL_UNIT_ASSIGNED_CONTEXT ( ( #25, #266, #145 ) ) REPRESENTATION_CONTEXT ( 'NONE', 'WORKASPACE' ) );
#249 = CYLINDRICAL_SURFACE ( 'NONE', #264, 2.999999999999999556 ) ;
#250 = ORIENTED_EDGE ( 'NONE', *, *, #196, .F. ) ;
#251 = ADVANCED_FACE ( 'NONE', ( #291 ), #58, .T. ) ;
#252 = DIRECTION ( 'NONE',  ( 0.000000000000000000, 0.000000000000000000, -1.000000000000000000 ) ) ;
#253 =( NAMED_UNIT ( * ) SI_UNIT ( $, .STERADIAN. ) SOLID_ANGLE_UNIT ( ) );
#254 =( GEOMETRIC_REPRESENTATION_CONTEXT ( 3 ) GLOBAL_UNCERTAINTY_ASSIGNED_CONTEXT ( ( #80 ) ) GLOBAL_UNIT_ASSIGNED_CONTEXT ( ( #140, #165, #18 ) ) REPRESENTATION_CONTEXT ( 'NONE', 'WORKASPACE' ) );
#255 = CIRCLE ( 'NONE', #29, 2.999999999999999112 ) ;
#256 = SURFACE_SIDE_STYLE ('',( #357 ) ) ;
#257 = ORIENTED_EDGE ( 'NONE', *, *, #56, .F. ) ;
#258 = STYLED_ITEM ( 'NONE', ( #88 ), #263 ) ;
#259 = SURFACE_STYLE_USAGE ( .BOTH. , #130 ) ;
#260 = MANIFOLD_SOLID_BREP ( 'Revolve - Tool Body (Straight Shanked)', #241 ) ;
#261 = DIRECTION ( 'NONE',  ( -1.444848463910660280E-16, 1.000000000000000000, 0.000000000000000000 ) ) ;
#262 = ORIENTED_EDGE ( 'NONE', *, *, #195, .F. ) ;
#263 = MANIFOLD_SOLID_BREP ( 'Revolve - Cutting Edge', #270 ) ;
#264 = AXIS2_PLACEMENT_3D ( 'NONE', #105, #158, #276 ) ;
#265 = DIRECTION ( 'NONE',  ( -1.000000000000000000, 0.000000000000000000, 0.000000000000000000 ) ) ;
#266 =( NAMED_UNIT ( * ) PLANE_ANGLE_UNIT ( ) SI_UNIT ( $, .RADIAN. ) );
#267 = CIRCLE ( 'NONE', #149, 3.000000000000000000 ) ;
#268 = CYLINDRICAL_SURFACE ( 'NONE', #200, 2.999999999999999556 ) ;
#269 = EDGE_CURVE ( 'NONE', #74, #85, #267, .T. ) ;
#270 = CLOSED_SHELL ( 'NONE', ( #184, #251, #114, #358, #60, #16 ) ) ;
#271 = COLOUR_RGB ( '',1.000000000000000000, 0.000000000000000000, 0.000000000000000000 ) ;
#272 = COLOUR_RGB ( '',0.7921568627450980005, 0.8196078431372548767, 0.9333333333333333481 ) ;
#273 = FACE_OUTER_BOUND ( 'NONE', #286, .T. ) ;
#274 = DIRECTION ( 'NONE',  ( -1.444848463910660280E-16, 1.000000000000000000, -0.000000000000000000 ) ) ;
#275 = CARTESIAN_POINT ( 'NONE',  ( 2.999999999999999112, 18.00000000000000355, 3.673940397442046556E-16 ) ) ;
#276 = DIRECTION ( 'NONE',  ( 0.000000000000000000, 0.000000000000000000, -1.000000000000000000 ) ) ;
#277 = VERTEX_POINT ( 'NONE', #278 ) ;
#278 = CARTESIAN_POINT ( 'NONE',  ( 0.000000000000000000, 18.00000000000000355, -2.999999999999999112 ) ) ;
#279 = DIRECTION ( 'NONE',  ( 1.000000000000000000, 0.000000000000000000, 0.000000000000000000 ) ) ;
#280 = DIRECTION ( 'NONE',  ( 0.000000000000000000, 0.000000000000000000, -1.000000000000000000 ) ) ;
#281 = VERTEX_POINT ( 'NONE', #275 ) ;
#282 = EDGE_CURVE ( 'NONE', #283, #45, #39, .T. ) ;
#283 = VERTEX_POINT ( 'NONE', #225 ) ;
#284 = COLOUR_RGB ( '',1.000000000000000000, 0.000000000000000000, 0.000000000000000000 ) ;
#285 = DIRECTION ( 'NONE',  ( 0.000000000000000000, 0.000000000000000000, 1.000000000000000000 ) ) ;
#286 = EDGE_LOOP ( 'NONE', ( #315, #81 ) ) ;
#287 = AXIS2_PLACEMENT_3D ( 'NONE', #221, #137, #303 ) ;
#288 = DIRECTION ( 'NONE',  ( -0.000000000000000000, -1.000000000000000000, -0.000000000000000000 ) ) ;
#289 = CYLINDRICAL_SURFACE ( 'NONE', #23, 2.999999999999988454 ) ;
#290 = EDGE_CURVE ( 'NONE', #281, #162, #183, .T. ) ;
#291 = FACE_OUTER_BOUND ( 'NONE', #235, .T. ) ;
#292 = EDGE_CURVE ( 'NONE', #281, #283, #293, .T. ) ;
#293 = CIRCLE ( 'NONE', #238, 2.999999999999984457 ) ;
#294 = CARTESIAN_POINT ( 'NONE',  ( 3.673940397442059375E-16, 1.000000000000000000, 3.000000000000000000 ) ) ;
#295 = EDGE_CURVE ( 'NONE', #136, #229, #63, .T. ) ;
#296 = AXIS2_PLACEMENT_3D ( 'NONE', #190, #288, #197 ) ;
#297 = SURFACE_STYLE_FILL_AREA ( #343 ) ;
#298 = COLOUR_RGB ( '',1.000000000000000000, 0.000000000000000000, 0.000000000000000000 ) ;
#299 = PLANE ( 'NONE',  #19 ) ;
#300 = PRESENTATION_LAYER_ASSIGNMENT (  '', '', ( #355 ) ) ;
#301 = CIRCLE ( 'NONE', #344, 2.999999999999991562 ) ;
#302 =( NAMED_UNIT ( * ) PLANE_ANGLE_UNIT ( ) SI_UNIT ( $, .RADIAN. ) );
#303 = DIRECTION ( 'NONE',  ( 0.000000000000000000, 0.000000000000000000, -1.000000000000000000 ) ) ;
#304 =( LENGTH_UNIT ( ) NAMED_UNIT ( * ) SI_UNIT ( .MILLI., .METRE. ) );
#305 = FACE_OUTER_BOUND ( 'NONE', #233, .T. ) ;
#306 = CARTESIAN_POINT ( 'NONE',  ( 0.000000000000000000, 0.000000000000000000, 0.000000000000000000 ) ) ;
#307 =( NAMED_UNIT ( * ) PLANE_ANGLE_UNIT ( ) SI_UNIT ( $, .RADIAN. ) );
#308 = DIRECTION ( 'NONE',  ( -0.000000000000000000, -1.000000000000000000, -0.000000000000000000 ) ) ;
#309 = PRESENTATION_LAYER_ASSIGNMENT (  '', '', ( #139 ) ) ;
#310 = CARTESIAN_POINT ( 'NONE',  ( 0.000000000000000000, 1.000000000000000000, 0.000000000000000000 ) ) ;
#311 = ORIENTED_EDGE ( 'NONE', *, *, #292, .T. ) ;
#312 = DIRECTION ( 'NONE',  ( 0.000000000000000000, 0.000000000000000000, 1.000000000000000000 ) ) ;
#313 = FILL_AREA_STYLE ('',( #138 ) ) ;
#314 = DIRECTION ( 'NONE',  ( -1.000000000000000000, -1.444848463910660280E-16, 0.000000000000000000 ) ) ;
#315 = ORIENTED_EDGE ( 'NONE', *, *, #196, .T. ) ;
#316 = SURFACE_STYLE_FILL_AREA ( #116 ) ;
#317 = ORIENTED_EDGE ( 'NONE', *, *, #148, .T. ) ;
#318 = SURFACE_STYLE_FILL_AREA ( #204 ) ;
#319 = FACE_OUTER_BOUND ( 'NONE', #13, .T. ) ;
#320 = COLOUR_RGB ( '',0.7921568627450980005, 0.8196078431372548767, 0.9333333333333333481 ) ;
#321 = DIRECTION ( 'NONE',  ( -0.000000000000000000, -1.000000000000000000, -0.000000000000000000 ) ) ;
#322 = CARTESIAN_POINT ( 'NONE',  ( 3.673940397442059375E-16, 0.000000000000000000, 2.999999999999999556 ) ) ;
#323 = PRESENTATION_LAYER_ASSIGNMENT (  '', '', ( #84 ) ) ;
#324 = PRESENTATION_STYLE_ASSIGNMENT (( #153 ) ) ;
#325 =( NAMED_UNIT ( * ) PLANE_ANGLE_UNIT ( ) SI_UNIT ( $, .RADIAN. ) );
#326 = FILL_AREA_STYLE ('',( #98 ) ) ;
#327 = SURFACE_STYLE_USAGE ( .BOTH. , #256 ) ;
#328 = DIRECTION ( 'NONE',  ( -1.444848463910660280E-16, 1.000000000000000000, -0.000000000000000000 ) ) ;
#329 = PRODUCT_CONTEXT ( 'NONE', #236, 'mechanical' ) ;
#330 = EDGE_LOOP ( 'NONE', ( #10, #341, #335, #257 ) ) ;
#331 = ORIENTED_EDGE ( 'NONE', *, *, #269, .F. ) ;
#332 = EDGE_CURVE ( 'NONE', #277, #159, #255, .T. ) ;
#333 = EDGE_LOOP ( 'NONE', ( #186, #43 ) ) ;
#334 = CYLINDRICAL_SURFACE ( 'NONE', #91, 2.999999999999988454 ) ;
#335 = ORIENTED_EDGE ( 'NONE', *, *, #166, .F. ) ;
#336 =( GEOMETRIC_REPRESENTATION_CONTEXT ( 3 ) GLOBAL_UNCERTAINTY_ASSIGNED_CONTEXT ( ( #126 ) ) GLOBAL_UNIT_ASSIGNED_CONTEXT ( ( #62, #133, #253 ) ) REPRESENTATION_CONTEXT ( 'NONE', 'WORKASPACE' ) );
#337 = SURFACE_SIDE_STYLE ('',( #318 ) ) ;
#338 = CIRCLE ( 'NONE', #38, 2.000000000000000000 ) ;
#339 = CIRCLE ( 'NONE', #110, 2.999999999999991562 ) ;
#340 =( GEOMETRIC_REPRESENTATION_CONTEXT ( 3 ) GLOBAL_UNCERTAINTY_ASSIGNED_CONTEXT ( ( #154 ) ) GLOBAL_UNIT_ASSIGNED_CONTEXT ( ( #66, #302, #95 ) ) REPRESENTATION_CONTEXT ( 'NONE', 'WORKASPACE' ) );
#341 = ORIENTED_EDGE ( 'NONE', *, *, #70, .T. ) ;
#342 = DIRECTION ( 'NONE',  ( 0.000000000000000000, 0.000000000000000000, -1.000000000000000000 ) ) ;
#343 = FILL_AREA_STYLE ('',( #93 ) ) ;
#344 = AXIS2_PLACEMENT_3D ( 'NONE', #9, #59, #119 ) ;
#345 = UNCERTAINTY_MEASURE_WITH_UNIT (LENGTH_MEASURE( 1.000000000000000082E-05 ), #86, 'distance_accuracy_value', 'NONE');
#346 = SURFACE_STYLE_USAGE ( .BOTH. , #369 ) ;
#347 = CARTESIAN_POINT ( 'NONE',  ( 0.000000000000000000, 0.000000000000000000, 0.000000000000000000 ) ) ;
#348 = AXIS2_PLACEMENT_3D ( 'NONE', #78, #261, #314 ) ;
#349 = VECTOR ( 'NONE', #103, 1000.000000000000000 ) ;
#350 = PRODUCT ( '59512', '59512', '', ( #329 ) ) ;
#351 = ORIENTED_EDGE ( 'NONE', *, *, #290, .T. ) ;
#352 = CARTESIAN_POINT ( 'NONE',  ( 1.409462824231155764E-14, 18.00000000000000355, 0.000000000000000000 ) ) ;
#353 = DIRECTION ( 'NONE',  ( -1.000000000000000000, 0.000000000000000000, 0.000000000000000000 ) ) ;
#354 = ORIENTED_EDGE ( 'NONE', *, *, #94, .T. ) ;
#355 = STYLED_ITEM ( 'NONE', ( #223 ), #114 ) ;
#356 = AXIS2_PLACEMENT_3D ( 'NONE', #147, #53, #240 ) ;
#357 = SURFACE_STYLE_FILL_AREA ( #313 ) ;
#358 = ADVANCED_FACE ( 'NONE', ( #305 ), #72, .T. ) ;
#359 =( NAMED_UNIT ( * ) PLANE_ANGLE_UNIT ( ) SI_UNIT ( $, .RADIAN. ) );
#360 = FILL_AREA_STYLE ('',( #161 ) ) ;
#361 = ORIENTED_EDGE ( 'NONE', *, *, #148, .F. ) ;
#362 = CARTESIAN_POINT ( 'NONE',  ( 7.592810154713587074E-15, 63.00000000000000000, 0.000000000000000000 ) ) ;
#363 = FILL_AREA_STYLE ('',( #207 ) ) ;
#364 = EDGE_CURVE ( 'NONE', #229, #136, #338, .T. ) ;
#365 = FILL_AREA_STYLE_COLOUR ( '', #272 ) ;
#366 = CARTESIAN_POINT ( 'NONE',  ( 7.592810154713587074E-15, 63.00000000000000000, 0.000000000000000000 ) ) ;
#367 = AXIS2_PLACEMENT_3D ( 'NONE', #35, #370, #216 ) ;
#368 = DIRECTION ( 'NONE',  ( -0.000000000000000000, -1.000000000000000000, -0.000000000000000000 ) ) ;
#369 = SURFACE_SIDE_STYLE ('',( #297 ) ) ;
#370 = DIRECTION ( 'NONE',  ( 0.000000000000000000, 1.000000000000000000, 0.000000000000000000 ) ) ;
ENDSEC;
END-ISO-10303-21;
