ISO-10303-21;
HEADER;
FILE_DESCRIPTION (( 'STEP AP214' ),
    '1' );
FILE_NAME ('59607.STEP',
    '2023-07-24T15:50:13',
    ( '' ),
    ( '' ),
    'SwSTEP 2.0',
    'SolidWorks 2023',
    '' );
FILE_SCHEMA (( 'AUTOMOTIVE_DESIGN' ));
ENDSEC;

DATA;
#1 = EDGE_LOOP ( 'NONE', ( #160, #21, #47, #229 ) ) ;
#2 = STYLED_ITEM ( 'NONE', ( #78 ), #187 ) ;
#3 = FACE_OUTER_BOUND ( 'NONE', #250, .T. ) ;
#4 =( NAMED_UNIT ( * ) SI_UNIT ( $, .STERADIAN. ) SOLID_ANGLE_UNIT ( ) );
#5 = SURFACE_STYLE_USAGE ( .BOTH. , #168 ) ;
#6 = FILL_AREA_STYLE ('',( #217 ) ) ;
#7 = CIRCLE ( 'NONE', #43, 10.00000000000000000 ) ;
#8 =( GEOMETRIC_REPRESENTATION_CONTEXT ( 3 ) GLOBAL_UNCERTAINTY_ASSIGNED_CONTEXT ( ( #144 ) ) GLOBAL_UNIT_ASSIGNED_CONTEXT ( ( #159, #88, #34 ) ) REPRESENTATION_CONTEXT ( 'NONE', 'WORKASPACE' ) );
#9 = CARTESIAN_POINT ( 'NONE',  ( 0.000000000000000000, 40.00000000000000000, 0.000000000000000000 ) ) ;
#10 = CARTESIAN_POINT ( 'NONE',  ( -10.00000000000000000, 40.00000000000000000, 0.000000000000000000 ) ) ;
#11 = ADVANCED_FACE ( 'NONE', ( #93 ), #185, .F. ) ;
#12 = PLANE ( 'NONE',  #162 ) ;
#13 = SHAPE_DEFINITION_REPRESENTATION ( #242, #79 ) ;
#14 =( NAMED_UNIT ( * ) SI_UNIT ( $, .STERADIAN. ) SOLID_ANGLE_UNIT ( ) );
#15 = EDGE_LOOP ( 'NONE', ( #205, #118 ) ) ;
#16 = APPLICATION_CONTEXT ( 'automotive_design' ) ;
#17 = AXIS2_PLACEMENT_3D ( 'NONE', #86, #252, #196 ) ;
#18 = EDGE_LOOP ( 'NONE', ( #202, #134 ) ) ;
#19 = EDGE_LOOP ( 'NONE', ( #90, #278, #207, #42 ) ) ;
#20 = SURFACE_STYLE_FILL_AREA ( #71 ) ;
#21 = ORIENTED_EDGE ( 'NONE', *, *, #165, .T. ) ;
#22 = UNCERTAINTY_MEASURE_WITH_UNIT (LENGTH_MEASURE( 1.000000000000000082E-05 ), #253, 'distance_accuracy_value', 'NONE');
#23 = DIRECTION ( 'NONE',  ( -2.245185798436817151E-17, 1.000000000000000000, -0.000000000000000000 ) ) ;
#24 = EDGE_CURVE ( 'NONE', #263, #75, #87, .T. ) ;
#25 = COLOUR_RGB ( '',0.7921568627450980005, 0.8196078431372548767, 0.9333333333333333481 ) ;
#26 = PRESENTATION_STYLE_ASSIGNMENT (( #145 ) ) ;
#27 = CARTESIAN_POINT ( 'NONE',  ( 1.224646799147353256E-15, 40.00000000000000000, 10.00000000000000000 ) ) ;
#28 = APPLICATION_PROTOCOL_DEFINITION ( 'draft international standard', 'automotive_design', 1998, #16 ) ;
#29 =( LENGTH_UNIT ( ) NAMED_UNIT ( * ) SI_UNIT ( .MILLI., .METRE. ) );
#30 = PLANE ( 'NONE',  #44 ) ;
#31 =( NAMED_UNIT ( * ) PLANE_ANGLE_UNIT ( ) SI_UNIT ( $, .RADIAN. ) );
#32 = PRODUCT_DEFINITION ( 'UNKNOWN', '', #40, #70 ) ;
#33 = CARTESIAN_POINT ( 'NONE',  ( 0.000000000000000000, 0.000000000000000000, -10.00000000000000000 ) ) ;
#34 =( NAMED_UNIT ( * ) SI_UNIT ( $, .STERADIAN. ) SOLID_ANGLE_UNIT ( ) );
#35 = VERTEX_POINT ( 'NONE', #246 ) ;
#36 = STYLED_ITEM ( 'NONE', ( #259 ), #53 ) ;
#37 = VECTOR ( 'NONE', #176, 1000.000000000000000 ) ;
#38 =( GEOMETRIC_REPRESENTATION_CONTEXT ( 3 ) GLOBAL_UNCERTAINTY_ASSIGNED_CONTEXT ( ( #163 ) ) GLOBAL_UNIT_ASSIGNED_CONTEXT ( ( #273, #105, #14 ) ) REPRESENTATION_CONTEXT ( 'NONE', 'WORKASPACE' ) );
#39 = CLOSED_SHELL ( 'NONE', ( #187, #198, #53, #221 ) ) ;
#40 = PRODUCT_DEFINITION_FORMATION_WITH_SPECIFIED_SOURCE ( 'ANY', '', #279, .NOT_KNOWN. ) ;
#41 = EDGE_LOOP ( 'NONE', ( #267, #138, #240, #122 ) ) ;
#42 = ORIENTED_EDGE ( 'NONE', *, *, #241, .F. ) ;
#43 = AXIS2_PLACEMENT_3D ( 'NONE', #249, #23, #209 ) ;
#44 = AXIS2_PLACEMENT_3D ( 'NONE', #173, #255, #130 ) ;
#45 = SURFACE_STYLE_FILL_AREA ( #46 ) ;
#46 = FILL_AREA_STYLE ('',( #248 ) ) ;
#47 = ORIENTED_EDGE ( 'NONE', *, *, #287, .F. ) ;
#48 = FILL_AREA_STYLE ('',( #77 ) ) ;
#49 = COLOUR_RGB ( '',0.7921568627450980005, 0.8196078431372548767, 0.9333333333333333481 ) ;
#50 = DIRECTION ( 'NONE',  ( -0.000000000000000000, -1.000000000000000000, -0.000000000000000000 ) ) ;
#51 = CARTESIAN_POINT ( 'NONE',  ( -1.347111479062090180E-15, 100.0000000000000000, 0.000000000000000000 ) ) ;
#52 =( NAMED_UNIT ( * ) SI_UNIT ( $, .STERADIAN. ) SOLID_ANGLE_UNIT ( ) );
#53 = ADVANCED_FACE ( 'NONE', ( #141 ), #96, .T. ) ;
#54 = DIRECTION ( 'NONE',  ( -0.000000000000000000, -1.000000000000000000, -0.000000000000000000 ) ) ;
#55 = LINE ( 'NONE', #132, #243 ) ;
#56 = PRESENTATION_LAYER_ASSIGNMENT (  '', '', ( #276 ) ) ;
#57 = COLOUR_RGB ( '',1.000000000000000000, 0.000000000000000000, 0.000000000000000000 ) ;
#58 = CARTESIAN_POINT ( 'NONE',  ( 10.00000000000000000, 40.00000000000000000, 1.224646799147353454E-15 ) ) ;
#59 = AXIS2_PLACEMENT_3D ( 'NONE', #106, #218, #80 ) ;
#60 = MECHANICAL_DESIGN_GEOMETRIC_PRESENTATION_REPRESENTATION (  '', ( #276 ), #139 ) ;
#61 = AXIS2_PLACEMENT_3D ( 'NONE', #155, #269, #256 ) ;
#62 = EDGE_CURVE ( 'NONE', #181, #95, #247, .T. ) ;
#63 = PRESENTATION_LAYER_ASSIGNMENT (  '', '', ( #100 ) ) ;
#64 = ORIENTED_EDGE ( 'NONE', *, *, #142, .F. ) ;
#65 = AXIS2_PLACEMENT_3D ( 'NONE', #113, #161, #114 ) ;
#66 = UNCERTAINTY_MEASURE_WITH_UNIT (LENGTH_MEASURE( 1.000000000000000082E-05 ), #128, 'distance_accuracy_value', 'NONE');
#67 = EDGE_CURVE ( 'NONE', #206, #244, #271, .T. ) ;
#68 = DIRECTION ( 'NONE',  ( 2.245185798436817151E-17, -1.000000000000000000, 0.000000000000000000 ) ) ;
#69 = ORIENTED_EDGE ( 'NONE', *, *, #287, .T. ) ;
#70 = PRODUCT_DEFINITION_CONTEXT ( 'detailed design', #16, 'design' ) ;
#71 = FILL_AREA_STYLE ('',( #148 ) ) ;
#72 = SURFACE_STYLE_FILL_AREA ( #265 ) ;
#73 = DIRECTION ( 'NONE',  ( 0.000000000000000000, 0.000000000000000000, -1.000000000000000000 ) ) ;
#74 = CIRCLE ( 'NONE', #143, 10.00000000000000000 ) ;
#75 = VERTEX_POINT ( 'NONE', #58 ) ;
#76 =( NAMED_UNIT ( * ) SI_UNIT ( $, .STERADIAN. ) SOLID_ANGLE_UNIT ( ) );
#77 = FILL_AREA_STYLE_COLOUR ( '', #284 ) ;
#78 = PRESENTATION_STYLE_ASSIGNMENT (( #270 ) ) ;
#79 = ADVANCED_BREP_SHAPE_REPRESENTATION ( '59607', ( #200, #203, #65 ), #137 ) ;
#80 = DIRECTION ( 'NONE',  ( -1.000000000000000000, 0.000000000000000000, 0.000000000000000000 ) ) ;
#81 = CYLINDRICAL_SURFACE ( 'NONE', #204, 10.00000000000000000 ) ;
#82 = EDGE_CURVE ( 'NONE', #206, #95, #104, .T. ) ;
#83 = CARTESIAN_POINT ( 'NONE',  ( 0.000000000000000000, 0.000000000000000000, -10.00000000000000000 ) ) ;
#84 = CARTESIAN_POINT ( 'NONE',  ( 2.520429634751184325E-33, 40.00000000000000000, 0.000000000000000000 ) ) ;
#85 = DIRECTION ( 'NONE',  ( 0.000000000000000000, 0.000000000000000000, -1.000000000000000000 ) ) ;
#86 = CARTESIAN_POINT ( 'NONE',  ( -1.347111479062090180E-15, 100.0000000000000000, 0.000000000000000000 ) ) ;
#87 = CIRCLE ( 'NONE', #183, 10.00000000000000000 ) ;
#88 =( NAMED_UNIT ( * ) PLANE_ANGLE_UNIT ( ) SI_UNIT ( $, .RADIAN. ) );
#89 = AXIS2_PLACEMENT_3D ( 'NONE', #261, #68, #245 ) ;
#90 = ORIENTED_EDGE ( 'NONE', *, *, #236, .F. ) ;
#91 = ADVANCED_FACE ( 'NONE', ( #109 ), #12, .F. ) ;
#92 = AXIS2_PLACEMENT_3D ( 'NONE', #175, #149, #112 ) ;
#93 = FACE_OUTER_BOUND ( 'NONE', #15, .T. ) ;
#94 = UNCERTAINTY_MEASURE_WITH_UNIT (LENGTH_MEASURE( 1.000000000000000082E-05 ), #124, 'distance_accuracy_value', 'NONE');
#95 = VERTEX_POINT ( 'NONE', #33 ) ;
#96 = CYLINDRICAL_SURFACE ( 'NONE', #232, 10.00000000000000000 ) ;
#97 = EDGE_LOOP ( 'NONE', ( #146, #282 ) ) ;
#98 = APPLICATION_CONTEXT ( 'automotive_design' ) ;
#99 =( NAMED_UNIT ( * ) PLANE_ANGLE_UNIT ( ) SI_UNIT ( $, .RADIAN. ) );
#100 = STYLED_ITEM ( 'NONE', ( #156 ), #198 ) ;
#101 = DIRECTION ( 'NONE',  ( -0.000000000000000000, -1.000000000000000000, -0.000000000000000000 ) ) ;
#102 =( NAMED_UNIT ( * ) SI_UNIT ( $, .STERADIAN. ) SOLID_ANGLE_UNIT ( ) );
#103 = SURFACE_SIDE_STYLE ('',( #45 ) ) ;
#104 = LINE ( 'NONE', #83, #222 ) ;
#105 =( NAMED_UNIT ( * ) PLANE_ANGLE_UNIT ( ) SI_UNIT ( $, .RADIAN. ) );
#106 = CARTESIAN_POINT ( 'NONE',  ( -1.347111479062090180E-15, 100.0000000000000000, 0.000000000000000000 ) ) ;
#107 = VECTOR ( 'NONE', #238, 1000.000000000000000 ) ;
#108 = SURFACE_STYLE_FILL_AREA ( #6 ) ;
#109 = FACE_OUTER_BOUND ( 'NONE', #97, .T. ) ;
#110 = CARTESIAN_POINT ( 'NONE',  ( 0.000000000000000000, 0.000000000000000000, 0.000000000000000000 ) ) ;
#111 = CARTESIAN_POINT ( 'NONE',  ( 0.000000000000000000, 0.000000000000000000, 0.000000000000000000 ) ) ;
#112 = DIRECTION ( 'NONE',  ( 0.000000000000000000, 0.000000000000000000, -1.000000000000000000 ) ) ;
#113 = CARTESIAN_POINT ( 'NONE',  ( 0.000000000000000000, 0.000000000000000000, 0.000000000000000000 ) ) ;
#114 = DIRECTION ( 'NONE',  ( 1.000000000000000000, 0.000000000000000000, 0.000000000000000000 ) ) ;
#115 =( GEOMETRIC_REPRESENTATION_CONTEXT ( 3 ) GLOBAL_UNCERTAINTY_ASSIGNED_CONTEXT ( ( #94 ) ) GLOBAL_UNIT_ASSIGNED_CONTEXT ( ( #124, #152, #76 ) ) REPRESENTATION_CONTEXT ( 'NONE', 'WORKASPACE' ) );
#116 = ADVANCED_FACE ( 'NONE', ( #174 ), #125, .T. ) ;
#117 = STYLED_ITEM ( 'NONE', ( #190 ), #200 ) ;
#118 = ORIENTED_EDGE ( 'NONE', *, *, #241, .T. ) ;
#119 = AXIS2_PLACEMENT_3D ( 'NONE', #274, #153, #235 ) ;
#120 = ORIENTED_EDGE ( 'NONE', *, *, #62, .T. ) ;
#121 = SURFACE_SIDE_STYLE ('',( #108 ) ) ;
#122 = ORIENTED_EDGE ( 'NONE', *, *, #62, .F. ) ;
#123 = VERTEX_POINT ( 'NONE', #127 ) ;
#124 =( LENGTH_UNIT ( ) NAMED_UNIT ( * ) SI_UNIT ( .MILLI., .METRE. ) );
#125 = CYLINDRICAL_SURFACE ( 'NONE', #17, 10.00000000000000178 ) ;
#126 = PRESENTATION_LAYER_ASSIGNMENT (  '', '', ( #117 ) ) ;
#127 = CARTESIAN_POINT ( 'NONE',  ( 10.00000000000000178, 100.0000000000000000, 1.224646799147353454E-15 ) ) ;
#128 =( LENGTH_UNIT ( ) NAMED_UNIT ( * ) SI_UNIT ( .MILLI., .METRE. ) );
#129 = DIRECTION ( 'NONE',  ( -0.000000000000000000, -1.000000000000000000, -0.000000000000000000 ) ) ;
#130 = DIRECTION ( 'NONE',  ( 0.000000000000000000, -0.000000000000000000, 1.000000000000000000 ) ) ;
#131 = CARTESIAN_POINT ( 'NONE',  ( 10.00000000000000000, 100.0000000000000000, 1.224646799147353454E-15 ) ) ;
#132 = CARTESIAN_POINT ( 'NONE',  ( -10.00000000000000355, 100.0000000000000000, 0.000000000000000000 ) ) ;
#133 = DIRECTION ( 'NONE',  ( 0.000000000000000000, 0.000000000000000000, -1.000000000000000000 ) ) ;
#134 = ORIENTED_EDGE ( 'NONE', *, *, #136, .F. ) ;
#135 = ADVANCED_FACE ( 'NONE', ( #194 ), #257, .T. ) ;
#136 = EDGE_CURVE ( 'NONE', #244, #206, #239, .T. ) ;
#137 =( GEOMETRIC_REPRESENTATION_CONTEXT ( 3 ) GLOBAL_UNCERTAINTY_ASSIGNED_CONTEXT ( ( #66 ) ) GLOBAL_UNIT_ASSIGNED_CONTEXT ( ( #128, #99, #102 ) ) REPRESENTATION_CONTEXT ( 'NONE', 'WORKASPACE' ) );
#138 = ORIENTED_EDGE ( 'NONE', *, *, #136, .T. ) ;
#139 =( GEOMETRIC_REPRESENTATION_CONTEXT ( 3 ) GLOBAL_UNCERTAINTY_ASSIGNED_CONTEXT ( ( #22 ) ) GLOBAL_UNIT_ASSIGNED_CONTEXT ( ( #253, #234, #215 ) ) REPRESENTATION_CONTEXT ( 'NONE', 'WORKASPACE' ) );
#140 = PRESENTATION_LAYER_ASSIGNMENT (  '', '', ( #2 ) ) ;
#141 = FACE_OUTER_BOUND ( 'NONE', #41, .T. ) ;
#142 = EDGE_CURVE ( 'NONE', #263, #35, #55, .T. ) ;
#143 = AXIS2_PLACEMENT_3D ( 'NONE', #110, #147, #85 ) ;
#144 = UNCERTAINTY_MEASURE_WITH_UNIT (LENGTH_MEASURE( 1.000000000000000082E-05 ), #159, 'distance_accuracy_value', 'NONE');
#145 = SURFACE_STYLE_USAGE ( .BOTH. , #103 ) ;
#146 = ORIENTED_EDGE ( 'NONE', *, *, #24, .F. ) ;
#147 = DIRECTION ( 'NONE',  ( -0.000000000000000000, -1.000000000000000000, -0.000000000000000000 ) ) ;
#148 = FILL_AREA_STYLE_COLOUR ( '', #25 ) ;
#149 = DIRECTION ( 'NONE',  ( -0.000000000000000000, -1.000000000000000000, -0.000000000000000000 ) ) ;
#150 = PRESENTATION_LAYER_ASSIGNMENT (  '', '', ( #260 ) ) ;
#151 = PRESENTATION_LAYER_ASSIGNMENT (  '', '', ( #36 ) ) ;
#152 =( NAMED_UNIT ( * ) PLANE_ANGLE_UNIT ( ) SI_UNIT ( $, .RADIAN. ) );
#153 = DIRECTION ( 'NONE',  ( -0.000000000000000000, -1.000000000000000000, -0.000000000000000000 ) ) ;
#154 = FILL_AREA_STYLE ('',( #180 ) ) ;
#155 = CARTESIAN_POINT ( 'NONE',  ( -1.347111479062090180E-15, 100.0000000000000000, 0.000000000000000000 ) ) ;
#156 = PRESENTATION_STYLE_ASSIGNMENT (( #220 ) ) ;
#157 = DIRECTION ( 'NONE',  ( -2.245185798436817151E-17, 1.000000000000000000, -0.000000000000000000 ) ) ;
#158 = FACE_OUTER_BOUND ( 'NONE', #1, .T. ) ;
#159 =( LENGTH_UNIT ( ) NAMED_UNIT ( * ) SI_UNIT ( .MILLI., .METRE. ) );
#160 = ORIENTED_EDGE ( 'NONE', *, *, #67, .T. ) ;
#161 = DIRECTION ( 'NONE',  ( 0.000000000000000000, 0.000000000000000000, 1.000000000000000000 ) ) ;
#162 = AXIS2_PLACEMENT_3D ( 'NONE', #84, #210, #216 ) ;
#163 = UNCERTAINTY_MEASURE_WITH_UNIT (LENGTH_MEASURE( 1.000000000000000082E-05 ), #273, 'distance_accuracy_value', 'NONE');
#164 = DIRECTION ( 'NONE',  ( -1.000000000000000000, 0.000000000000000000, 0.000000000000000000 ) ) ;
#165 = EDGE_CURVE ( 'NONE', #244, #181, #178, .T. ) ;
#166 = AXIS2_PLACEMENT_3D ( 'NONE', #262, #264, #73 ) ;
#167 =( GEOMETRIC_REPRESENTATION_CONTEXT ( 3 ) GLOBAL_UNCERTAINTY_ASSIGNED_CONTEXT ( ( #208 ) ) GLOBAL_UNIT_ASSIGNED_CONTEXT ( ( #286, #228, #4 ) ) REPRESENTATION_CONTEXT ( 'NONE', 'WORKASPACE' ) );
#168 = SURFACE_SIDE_STYLE ('',( #72 ) ) ;
#169 = SURFACE_STYLE_USAGE ( .BOTH. , #121 ) ;
#170 = LINE ( 'NONE', #131, #37 ) ;
#171 = SURFACE_STYLE_USAGE ( .BOTH. , #231 ) ;
#172 = COLOUR_RGB ( '',1.000000000000000000, 0.000000000000000000, 0.000000000000000000 ) ;
#173 = CARTESIAN_POINT ( 'NONE',  ( 0.000000000000000000, 40.00000000000000000, 0.000000000000000000 ) ) ;
#174 = FACE_OUTER_BOUND ( 'NONE', #19, .T. ) ;
#175 = CARTESIAN_POINT ( 'NONE',  ( 0.000000000000000000, 40.00000000000000000, 0.000000000000000000 ) ) ;
#176 = DIRECTION ( 'NONE',  ( -2.245185798436817151E-17, 1.000000000000000000, -0.000000000000000000 ) ) ;
#177 = FACE_OUTER_BOUND ( 'NONE', #18, .T. ) ;
#178 = LINE ( 'NONE', #199, #107 ) ;
#179 = MECHANICAL_DESIGN_GEOMETRIC_PRESENTATION_REPRESENTATION (  '', ( #100 ), #8 ) ;
#180 = FILL_AREA_STYLE_COLOUR ( '', #172 ) ;
#181 = VERTEX_POINT ( 'NONE', #275 ) ;
#182 = AXIS2_PLACEMENT_3D ( 'NONE', #51, #193, #268 ) ;
#183 = AXIS2_PLACEMENT_3D ( 'NONE', #288, #285, #164 ) ;
#184 = AXIS2_PLACEMENT_3D ( 'NONE', #9, #129, #272 ) ;
#185 = PLANE ( 'NONE',  #89 ) ;
#187 = ADVANCED_FACE ( 'NONE', ( #158 ), #81, .T. ) ;
#186 = PLANE ( 'NONE',  #166 ) ;
#188 = ORIENTED_EDGE ( 'NONE', *, *, #24, .T. ) ;
#189 = FILL_AREA_STYLE_COLOUR ( '', #57 ) ;
#190 = PRESENTATION_STYLE_ASSIGNMENT (( #169 ) ) ;
#191 = MECHANICAL_DESIGN_GEOMETRIC_PRESENTATION_REPRESENTATION (  '', ( #260 ), #167 ) ;
#192 =( GEOMETRIC_REPRESENTATION_CONTEXT ( 3 ) GLOBAL_UNCERTAINTY_ASSIGNED_CONTEXT ( ( #226 ) ) GLOBAL_UNIT_ASSIGNED_CONTEXT ( ( #29, #31, #52 ) ) REPRESENTATION_CONTEXT ( 'NONE', 'WORKASPACE' ) );
#193 = DIRECTION ( 'NONE',  ( -2.245185798436817151E-17, 1.000000000000000000, -0.000000000000000000 ) ) ;
#194 = FACE_OUTER_BOUND ( 'NONE', #223, .T. ) ;
#195 = CARTESIAN_POINT ( 'NONE',  ( 0.000000000000000000, 40.00000000000000000, -10.00000000000000000 ) ) ;
#196 = DIRECTION ( 'NONE',  ( -1.000000000000000000, 0.000000000000000000, 0.000000000000000000 ) ) ;
#197 = CARTESIAN_POINT ( 'NONE',  ( 0.000000000000000000, 0.000000000000000000, 0.000000000000000000 ) ) ;
#198 = ADVANCED_FACE ( 'NONE', ( #177 ), #30, .T. ) ;
#199 = CARTESIAN_POINT ( 'NONE',  ( 1.224646799147353256E-15, 0.000000000000000000, 10.00000000000000000 ) ) ;
#200 = MANIFOLD_SOLID_BREP ( 'Revolve - Cutting Edge', #39 ) ;
#201 = EDGE_CURVE ( 'NONE', #35, #123, #266, .T. ) ;
#202 = ORIENTED_EDGE ( 'NONE', *, *, #67, .F. ) ;
#203 = MANIFOLD_SOLID_BREP ( 'Revolve - Tool Body (Straight Shanked)', #212 ) ;
#204 = AXIS2_PLACEMENT_3D ( 'NONE', #111, #54, #133 ) ;
#205 = ORIENTED_EDGE ( 'NONE', *, *, #201, .T. ) ;
#206 = VERTEX_POINT ( 'NONE', #195 ) ;
#207 = ORIENTED_EDGE ( 'NONE', *, *, #142, .T. ) ;
#208 = UNCERTAINTY_MEASURE_WITH_UNIT (LENGTH_MEASURE( 1.000000000000000082E-05 ), #286, 'distance_accuracy_value', 'NONE');
#209 = DIRECTION ( 'NONE',  ( -1.000000000000000000, 0.000000000000000000, 0.000000000000000000 ) ) ;
#210 = DIRECTION ( 'NONE',  ( -2.245185798436817151E-17, 1.000000000000000000, 0.000000000000000000 ) ) ;
#211 = APPLICATION_PROTOCOL_DEFINITION ( 'draft international standard', 'automotive_design', 1998, #98 ) ;
#212 = CLOSED_SHELL ( 'NONE', ( #135, #91, #116, #11 ) ) ;
#213 = CIRCLE ( 'NONE', #59, 10.00000000000000355 ) ;
#214 = SURFACE_SIDE_STYLE ('',( #233 ) ) ;
#215 =( NAMED_UNIT ( * ) SI_UNIT ( $, .STERADIAN. ) SOLID_ANGLE_UNIT ( ) );
#216 = DIRECTION ( 'NONE',  ( -1.000000000000000000, -2.245185798436817151E-17, 0.000000000000000000 ) ) ;
#217 = FILL_AREA_STYLE_COLOUR ( '', #49 ) ;
#218 = DIRECTION ( 'NONE',  ( -2.245185798436817151E-17, 1.000000000000000000, -0.000000000000000000 ) ) ;
#219 = DIRECTION ( 'NONE',  ( 0.000000000000000000, 0.000000000000000000, -1.000000000000000000 ) ) ;
#220 = SURFACE_STYLE_USAGE ( .BOTH. , #237 ) ;
#221 = ADVANCED_FACE ( 'NONE', ( #3 ), #186, .T. ) ;
#222 = VECTOR ( 'NONE', #101, 1000.000000000000000 ) ;
#223 = EDGE_LOOP ( 'NONE', ( #188, #230, #283, #64 ) ) ;
#224 = PRODUCT_CONTEXT ( 'NONE', #98, 'mechanical' ) ;
#225 = EDGE_CURVE ( 'NONE', #75, #263, #7, .T. ) ;
#226 = UNCERTAINTY_MEASURE_WITH_UNIT (LENGTH_MEASURE( 1.000000000000000082E-05 ), #29, 'distance_accuracy_value', 'NONE');
#227 = MECHANICAL_DESIGN_GEOMETRIC_PRESENTATION_REPRESENTATION (  '', ( #2 ), #38 ) ;
#228 =( NAMED_UNIT ( * ) PLANE_ANGLE_UNIT ( ) SI_UNIT ( $, .RADIAN. ) );
#229 = ORIENTED_EDGE ( 'NONE', *, *, #82, .F. ) ;
#230 = ORIENTED_EDGE ( 'NONE', *, *, #236, .T. ) ;
#231 = SURFACE_SIDE_STYLE ('',( #20 ) ) ;
#232 = AXIS2_PLACEMENT_3D ( 'NONE', #197, #50, #219 ) ;
#233 = SURFACE_STYLE_FILL_AREA ( #48 ) ;
#234 =( NAMED_UNIT ( * ) PLANE_ANGLE_UNIT ( ) SI_UNIT ( $, .RADIAN. ) );
#235 = DIRECTION ( 'NONE',  ( 0.000000000000000000, 0.000000000000000000, -1.000000000000000000 ) ) ;
#236 = EDGE_CURVE ( 'NONE', #75, #123, #170, .T. ) ;
#237 = SURFACE_SIDE_STYLE ('',( #258 ) ) ;
#238 = DIRECTION ( 'NONE',  ( -0.000000000000000000, -1.000000000000000000, -0.000000000000000000 ) ) ;
#239 = CIRCLE ( 'NONE', #92, 10.00000000000000000 ) ;
#240 = ORIENTED_EDGE ( 'NONE', *, *, #82, .T. ) ;
#241 = EDGE_CURVE ( 'NONE', #123, #35, #213, .T. ) ;
#242 = PRODUCT_DEFINITION_SHAPE ( 'NONE', 'NONE',  #32 ) ;
#243 = VECTOR ( 'NONE', #157, 1000.000000000000000 ) ;
#244 = VERTEX_POINT ( 'NONE', #27 ) ;
#245 = DIRECTION ( 'NONE',  ( 1.000000000000000000, 2.245185798436817151E-17, 0.000000000000000000 ) ) ;
#246 = CARTESIAN_POINT ( 'NONE',  ( -10.00000000000000533, 100.0000000000000000, 0.000000000000000000 ) ) ;
#247 = CIRCLE ( 'NONE', #119, 10.00000000000000000 ) ;
#248 = FILL_AREA_STYLE_COLOUR ( '', #254 ) ;
#249 = CARTESIAN_POINT ( 'NONE',  ( 1.925929944387235853E-31, 40.00000000000000000, 0.000000000000000000 ) ) ;
#250 = EDGE_LOOP ( 'NONE', ( #69, #120 ) ) ;
#251 = PRESENTATION_STYLE_ASSIGNMENT (( #171 ) ) ;
#252 = DIRECTION ( 'NONE',  ( -2.245185798436817151E-17, 1.000000000000000000, -0.000000000000000000 ) ) ;
#253 =( LENGTH_UNIT ( ) NAMED_UNIT ( * ) SI_UNIT ( .MILLI., .METRE. ) );
#254 = COLOUR_RGB ( '',1.000000000000000000, 0.000000000000000000, 0.000000000000000000 ) ;
#255 = DIRECTION ( 'NONE',  ( 0.000000000000000000, 1.000000000000000000, 0.000000000000000000 ) ) ;
#256 = DIRECTION ( 'NONE',  ( -1.000000000000000000, 0.000000000000000000, 0.000000000000000000 ) ) ;
#257 = CYLINDRICAL_SURFACE ( 'NONE', #61, 10.00000000000000178 ) ;
#258 = SURFACE_STYLE_FILL_AREA ( #154 ) ;
#259 = PRESENTATION_STYLE_ASSIGNMENT (( #5 ) ) ;
#260 = STYLED_ITEM ( 'NONE', ( #251 ), #203 ) ;
#261 = CARTESIAN_POINT ( 'NONE',  ( 10.00000000000000178, 100.0000000000000000, 0.000000000000000000 ) ) ;
#262 = CARTESIAN_POINT ( 'NONE',  ( 0.000000000000000000, 0.000000000000000000, 0.000000000000000000 ) ) ;
#263 = VERTEX_POINT ( 'NONE', #10 ) ;
#264 = DIRECTION ( 'NONE',  ( 0.000000000000000000, -1.000000000000000000, -0.000000000000000000 ) ) ;
#265 = FILL_AREA_STYLE ('',( #189 ) ) ;
#266 = CIRCLE ( 'NONE', #182, 10.00000000000000355 ) ;
#267 = ORIENTED_EDGE ( 'NONE', *, *, #165, .F. ) ;
#268 = DIRECTION ( 'NONE',  ( -1.000000000000000000, 0.000000000000000000, 0.000000000000000000 ) ) ;
#269 = DIRECTION ( 'NONE',  ( -2.245185798436817151E-17, 1.000000000000000000, -0.000000000000000000 ) ) ;
#270 = SURFACE_STYLE_USAGE ( .BOTH. , #214 ) ;
#271 = CIRCLE ( 'NONE', #184, 10.00000000000000000 ) ;
#272 = DIRECTION ( 'NONE',  ( 0.000000000000000000, 0.000000000000000000, -1.000000000000000000 ) ) ;
#273 =( LENGTH_UNIT ( ) NAMED_UNIT ( * ) SI_UNIT ( .MILLI., .METRE. ) );
#274 = CARTESIAN_POINT ( 'NONE',  ( 0.000000000000000000, 0.000000000000000000, 0.000000000000000000 ) ) ;
#275 = CARTESIAN_POINT ( 'NONE',  ( 1.224646799147353256E-15, 0.000000000000000000, 10.00000000000000000 ) ) ;
#276 = STYLED_ITEM ( 'NONE', ( #26 ), #221 ) ;
#277 = MECHANICAL_DESIGN_GEOMETRIC_PRESENTATION_REPRESENTATION (  '', ( #117 ), #115 ) ;
#278 = ORIENTED_EDGE ( 'NONE', *, *, #225, .T. ) ;
#279 = PRODUCT ( '59607', '59607', '', ( #224 ) ) ;
#280 = PRODUCT_RELATED_PRODUCT_CATEGORY ( 'part', '', ( #279 ) ) ;
#281 = MECHANICAL_DESIGN_GEOMETRIC_PRESENTATION_REPRESENTATION (  '', ( #36 ), #192 ) ;
#282 = ORIENTED_EDGE ( 'NONE', *, *, #225, .F. ) ;
#283 = ORIENTED_EDGE ( 'NONE', *, *, #201, .F. ) ;
#284 = COLOUR_RGB ( '',1.000000000000000000, 0.000000000000000000, 0.000000000000000000 ) ;
#285 = DIRECTION ( 'NONE',  ( -2.245185798436817151E-17, 1.000000000000000000, -0.000000000000000000 ) ) ;
#287 = EDGE_CURVE ( 'NONE', #95, #181, #74, .T. ) ;
#286 =( LENGTH_UNIT ( ) NAMED_UNIT ( * ) SI_UNIT ( .MILLI., .METRE. ) );
#288 = CARTESIAN_POINT ( 'NONE',  ( 1.925929944387235853E-31, 40.00000000000000000, 0.000000000000000000 ) ) ;
ENDSEC;
END-ISO-10303-21;
