ISO-10303-21;
HEADER;
FILE_DESCRIPTION (( 'STEP AP214' ),
    '1' );
FILE_NAME ('59577.STEP',
    '2023-07-24T15:49:27',
    ( '' ),
    ( '' ),
    'SwSTEP 2.0',
    'SolidWorks 2023',
    '' );
FILE_SCHEMA (( 'AUTOMOTIVE_DESIGN' ));
ENDSEC;

DATA;
#1 = AXIS2_PLACEMENT_3D ( 'NONE', #7, #92, #72 ) ;
#2 = VERTEX_POINT ( 'NONE', #38 ) ;
#3 = UNCERTAINTY_MEASURE_WITH_UNIT (LENGTH_MEASURE( 1.000000000000000082E-05 ), #220, 'distance_accuracy_value', 'NONE');
#4 = VERTEX_POINT ( 'NONE', #233 ) ;
#5 = CYLINDRICAL_SURFACE ( 'NONE', #260, 4.000000000000000000 ) ;
#6 = FACE_OUTER_BOUND ( 'NONE', #234, .T. ) ;
#7 = CARTESIAN_POINT ( 'NONE',  ( 0.000000000000000000, 12.00000000000000000, 0.000000000000000000 ) ) ;
#8 = EDGE_CURVE ( 'NONE', #141, #255, #67, .T. ) ;
#9 = DIRECTION ( 'NONE',  ( -0.000000000000000000, -1.000000000000000000, -0.000000000000000000 ) ) ;
#10 =( GEOMETRIC_REPRESENTATION_CONTEXT ( 3 ) GLOBAL_UNCERTAINTY_ASSIGNED_CONTEXT ( ( #79 ) ) GLOBAL_UNIT_ASSIGNED_CONTEXT ( ( #138, #97, #12 ) ) REPRESENTATION_CONTEXT ( 'NONE', 'WORKASPACE' ) );
#11 = ORIENTED_EDGE ( 'NONE', *, *, #53, .T. ) ;
#12 =( NAMED_UNIT ( * ) SI_UNIT ( $, .STERADIAN. ) SOLID_ANGLE_UNIT ( ) );
#13 = AXIS2_PLACEMENT_3D ( 'NONE', #287, #80, #134 ) ;
#14 = EDGE_CURVE ( 'NONE', #2, #130, #96, .T. ) ;
#15 = FILL_AREA_STYLE ('',( #168 ) ) ;
#16 =( GEOMETRIC_REPRESENTATION_CONTEXT ( 3 ) GLOBAL_UNCERTAINTY_ASSIGNED_CONTEXT ( ( #177 ) ) GLOBAL_UNIT_ASSIGNED_CONTEXT ( ( #40, #66, #208 ) ) REPRESENTATION_CONTEXT ( 'NONE', 'WORKASPACE' ) );
#17 = AXIS2_PLACEMENT_3D ( 'NONE', #70, #36, #254 ) ;
#18 =( LENGTH_UNIT ( ) NAMED_UNIT ( * ) SI_UNIT ( .MILLI., .METRE. ) );
#19 = ADVANCED_FACE ( 'NONE', ( #52 ), #116, .T. ) ;
#20 = SHAPE_DEFINITION_REPRESENTATION ( #156, #146 ) ;
#21 = PLANE ( 'NONE',  #13 ) ;
#22 = SURFACE_SIDE_STYLE ('',( #171 ) ) ;
#23 = STYLED_ITEM ( 'NONE', ( #44 ), #149 ) ;
#24 = STYLED_ITEM ( 'NONE', ( #89 ), #222 ) ;
#25 = ORIENTED_EDGE ( 'NONE', *, *, #217, .F. ) ;
#26 = CARTESIAN_POINT ( 'NONE',  ( 1.469576158976823750E-15, 63.00000000000000000, 0.000000000000000000 ) ) ;
#27 = PRODUCT_RELATED_PRODUCT_CATEGORY ( 'part', '', ( #33 ) ) ;
#28 = VERTEX_POINT ( 'NONE', #189 ) ;
#29 = DIRECTION ( 'NONE',  ( 2.881521880346712812E-17, 1.000000000000000000, -0.000000000000000000 ) ) ;
#30 = ORIENTED_EDGE ( 'NONE', *, *, #14, .F. ) ;
#31 = CARTESIAN_POINT ( 'NONE',  ( 0.000000000000000000, 0.000000000000000000, 0.000000000000000000 ) ) ;
#32 = VECTOR ( 'NONE', #98, 1000.000000000000000 ) ;
#33 = PRODUCT ( '59577', '59577', '', ( #73 ) ) ;
#34 = DIRECTION ( 'NONE',  ( 2.881521880346712812E-17, 1.000000000000000000, -0.000000000000000000 ) ) ;
#35 = FILL_AREA_STYLE_COLOUR ( '', #212 ) ;
#36 = DIRECTION ( 'NONE',  ( 2.881521880346712812E-17, 1.000000000000000000, -0.000000000000000000 ) ) ;
#37 = AXIS2_PLACEMENT_3D ( 'NONE', #31, #94, #205 ) ;
#38 = CARTESIAN_POINT ( 'NONE',  ( -3.999999999999996447, 63.00000000000000000, 0.000000000000000000 ) ) ;
#39 = APPLICATION_CONTEXT ( 'automotive_design' ) ;
#40 =( LENGTH_UNIT ( ) NAMED_UNIT ( * ) SI_UNIT ( .MILLI., .METRE. ) );
#41 = EDGE_CURVE ( 'NONE', #107, #141, #119, .T. ) ;
#42 = STYLED_ITEM ( 'NONE', ( #132 ), #57 ) ;
#43 = SURFACE_SIDE_STYLE ('',( #86 ) ) ;
#44 = PRESENTATION_STYLE_ASSIGNMENT (( #264 ) ) ;
#45 = UNCERTAINTY_MEASURE_WITH_UNIT (LENGTH_MEASURE( 1.000000000000000082E-05 ), #240, 'distance_accuracy_value', 'NONE');
#46 = PRESENTATION_LAYER_ASSIGNMENT (  '', '', ( #251 ) ) ;
#47 = ORIENTED_EDGE ( 'NONE', *, *, #71, .F. ) ;
#48 = LINE ( 'NONE', #59, #117 ) ;
#49 = AXIS2_PLACEMENT_3D ( 'NONE', #121, #34, #236 ) ;
#50 = FILL_AREA_STYLE ('',( #35 ) ) ;
#51 = SURFACE_STYLE_USAGE ( .BOTH. , #253 ) ;
#52 = FACE_OUTER_BOUND ( 'NONE', #185, .T. ) ;
#53 = EDGE_CURVE ( 'NONE', #255, #141, #93, .T. ) ;
#54 = MECHANICAL_DESIGN_GEOMETRIC_PRESENTATION_REPRESENTATION (  '', ( #251 ), #16 ) ;
#55 = PRESENTATION_LAYER_ASSIGNMENT (  '', '', ( #261 ) ) ;
#56 = PLANE ( 'NONE',  #49 ) ;
#57 = ADVANCED_FACE ( 'NONE', ( #285 ), #125, .T. ) ;
#58 = UNCERTAINTY_MEASURE_WITH_UNIT (LENGTH_MEASURE( 1.000000000000000082E-05 ), #148, 'distance_accuracy_value', 'NONE');
#59 = CARTESIAN_POINT ( 'NONE',  ( 4.000000000000000888, 63.00000000000000000, 4.898587196589411843E-16 ) ) ;
#60 =( NAMED_UNIT ( * ) SI_UNIT ( $, .STERADIAN. ) SOLID_ANGLE_UNIT ( ) );
#61 =( NAMED_UNIT ( * ) SI_UNIT ( $, .STERADIAN. ) SOLID_ANGLE_UNIT ( ) );
#62 = ADVANCED_FACE ( 'NONE', ( #179 ), #226, .T. ) ;
#63 = ORIENTED_EDGE ( 'NONE', *, *, #178, .F. ) ;
#64 = FACE_OUTER_BOUND ( 'NONE', #244, .T. ) ;
#65 = PRESENTATION_LAYER_ASSIGNMENT (  '', '', ( #24 ) ) ;
#66 =( NAMED_UNIT ( * ) PLANE_ANGLE_UNIT ( ) SI_UNIT ( $, .RADIAN. ) );
#67 = CIRCLE ( 'NONE', #268, 4.000000000000000000 ) ;
#68 = EDGE_LOOP ( 'NONE', ( #11, #164 ) ) ;
#69 = SURFACE_STYLE_FILL_AREA ( #50 ) ;
#70 = CARTESIAN_POINT ( 'NONE',  ( 1.469576158976823750E-15, 63.00000000000000000, 0.000000000000000000 ) ) ;
#71 = EDGE_CURVE ( 'NONE', #107, #28, #77, .T. ) ;
#72 = DIRECTION ( 'NONE',  ( 0.000000000000000000, 0.000000000000000000, -1.000000000000000000 ) ) ;
#73 = PRODUCT_CONTEXT ( 'NONE', #199, 'mechanical' ) ;
#74 = SURFACE_SIDE_STYLE ('',( #123 ) ) ;
#75 = COLOUR_RGB ( '',1.000000000000000000, 0.000000000000000000, 0.000000000000000000 ) ;
#76 = CARTESIAN_POINT ( 'NONE',  ( 0.000000000000000000, 0.000000000000000000, 0.000000000000000000 ) ) ;
#77 = CIRCLE ( 'NONE', #139, 4.000000000000000000 ) ;
#78 =( NAMED_UNIT ( * ) SI_UNIT ( $, .STERADIAN. ) SOLID_ANGLE_UNIT ( ) );
#79 = UNCERTAINTY_MEASURE_WITH_UNIT (LENGTH_MEASURE( 1.000000000000000082E-05 ), #138, 'distance_accuracy_value', 'NONE');
#80 = DIRECTION ( 'NONE',  ( -2.881521880346712812E-17, -1.000000000000000000, 0.000000000000000000 ) ) ;
#81 = ADVANCED_FACE ( 'NONE', ( #64 ), #21, .F. ) ;
#82 = DIRECTION ( 'NONE',  ( 0.000000000000000000, -0.000000000000000000, 1.000000000000000000 ) ) ;
#83 = ORIENTED_EDGE ( 'NONE', *, *, #8, .F. ) ;
#84 = SURFACE_STYLE_USAGE ( .BOTH. , #22 ) ;
#85 = DIRECTION ( 'NONE',  ( 0.000000000000000000, 0.000000000000000000, -1.000000000000000000 ) ) ;
#86 = SURFACE_STYLE_FILL_AREA ( #200 ) ;
#87 =( GEOMETRIC_REPRESENTATION_CONTEXT ( 3 ) GLOBAL_UNCERTAINTY_ASSIGNED_CONTEXT ( ( #45 ) ) GLOBAL_UNIT_ASSIGNED_CONTEXT ( ( #240, #145, #60 ) ) REPRESENTATION_CONTEXT ( 'NONE', 'WORKASPACE' ) );
#88 = ORIENTED_EDGE ( 'NONE', *, *, #178, .T. ) ;
#89 = PRESENTATION_STYLE_ASSIGNMENT (( #51 ) ) ;
#90 = ORIENTED_EDGE ( 'NONE', *, *, #100, .T. ) ;
#91 = CARTESIAN_POINT ( 'NONE',  ( 0.000000000000000000, 11.99999999999999645, 0.000000000000000000 ) ) ;
#92 = DIRECTION ( 'NONE',  ( -0.000000000000000000, -1.000000000000000000, -0.000000000000000000 ) ) ;
#93 = CIRCLE ( 'NONE', #191, 4.000000000000000000 ) ;
#94 = DIRECTION ( 'NONE',  ( 0.000000000000000000, -1.000000000000000000, -0.000000000000000000 ) ) ;
#95 = ORIENTED_EDGE ( 'NONE', *, *, #273, .F. ) ;
#96 = CIRCLE ( 'NONE', #17, 3.999999999999998224 ) ;
#97 =( NAMED_UNIT ( * ) PLANE_ANGLE_UNIT ( ) SI_UNIT ( $, .RADIAN. ) );
#98 = DIRECTION ( 'NONE',  ( -0.000000000000000000, -1.000000000000000000, -0.000000000000000000 ) ) ;
#99 = DIRECTION ( 'NONE',  ( 2.881521880346712812E-17, 1.000000000000000000, -0.000000000000000000 ) ) ;
#100 = EDGE_CURVE ( 'NONE', #4, #2, #204, .T. ) ;
#101 = MECHANICAL_DESIGN_GEOMETRIC_PRESENTATION_REPRESENTATION (  '', ( #42 ), #210 ) ;
#102 = FILL_AREA_STYLE_COLOUR ( '', #75 ) ;
#103 = DIRECTION ( 'NONE',  ( 0.000000000000000000, 1.000000000000000000, 0.000000000000000000 ) ) ;
#104 = VECTOR ( 'NONE', #150, 1000.000000000000000 ) ;
#105 = CARTESIAN_POINT ( 'NONE',  ( 0.000000000000000000, 12.00000000000000000, 0.000000000000000000 ) ) ;
#106 = COLOUR_RGB ( '',1.000000000000000000, 0.000000000000000000, 0.000000000000000000 ) ;
#107 = VERTEX_POINT ( 'NONE', #151 ) ;
#108 = DIRECTION ( 'NONE',  ( -0.000000000000000000, -1.000000000000000000, -0.000000000000000000 ) ) ;
#109 = FACE_OUTER_BOUND ( 'NONE', #153, .T. ) ;
#110 = ORIENTED_EDGE ( 'NONE', *, *, #53, .F. ) ;
#111 = DIRECTION ( 'NONE',  ( -1.000000000000000000, 0.000000000000000000, 0.000000000000000000 ) ) ;
#112 = PRESENTATION_STYLE_ASSIGNMENT (( #232 ) ) ;
#113 = CARTESIAN_POINT ( 'NONE',  ( 0.000000000000000000, 0.000000000000000000, 0.000000000000000000 ) ) ;
#114 = DIRECTION ( 'NONE',  ( -1.000000000000000000, 0.000000000000000000, 0.000000000000000000 ) ) ;
#115 = VECTOR ( 'NONE', #29, 1000.000000000000000 ) ;
#116 = CYLINDRICAL_SURFACE ( 'NONE', #209, 4.000000000000000000 ) ;
#117 = VECTOR ( 'NONE', #154, 1000.000000000000000 ) ;
#118 = DIRECTION ( 'NONE',  ( -0.000000000000000000, -1.000000000000000000, -0.000000000000000000 ) ) ;
#119 = LINE ( 'NONE', #216, #32 ) ;
#120 = SURFACE_STYLE_FILL_AREA ( #15 ) ;
#121 = CARTESIAN_POINT ( 'NONE',  ( 1.660633669383370983E-33, 12.00000000000000000, 0.000000000000000000 ) ) ;
#122 = AXIS2_PLACEMENT_3D ( 'NONE', #91, #159, #111 ) ;
#123 = SURFACE_STYLE_FILL_AREA ( #197 ) ;
#124 = EDGE_CURVE ( 'NONE', #279, #130, #48, .T. ) ;
#125 = PLANE ( 'NONE',  #174 ) ;
#126 = CARTESIAN_POINT ( 'NONE',  ( 4.000000000000000000, 11.99999999999999645, 4.898587196589411843E-16 ) ) ;
#127 = DIRECTION ( 'NONE',  ( 0.000000000000000000, 0.000000000000000000, -1.000000000000000000 ) ) ;
#128 = DIRECTION ( 'NONE',  ( -1.000000000000000000, 0.000000000000000000, 0.000000000000000000 ) ) ;
#129 = CARTESIAN_POINT ( 'NONE',  ( 0.000000000000000000, 0.000000000000000000, -4.000000000000000000 ) ) ;
#130 = VERTEX_POINT ( 'NONE', #247 ) ;
#131 = COLOUR_RGB ( '',1.000000000000000000, 0.000000000000000000, 0.000000000000000000 ) ;
#132 = PRESENTATION_STYLE_ASSIGNMENT (( #84 ) ) ;
#133 = ORIENTED_EDGE ( 'NONE', *, *, #124, .T. ) ;
#134 = DIRECTION ( 'NONE',  ( 1.000000000000000000, -2.881521880346712812E-17, 0.000000000000000000 ) ) ;
#135 = CARTESIAN_POINT ( 'NONE',  ( 1.469576158976823750E-15, 63.00000000000000000, 0.000000000000000000 ) ) ;
#136 = DIRECTION ( 'NONE',  ( 0.000000000000000000, 0.000000000000000000, -1.000000000000000000 ) ) ;
#137 = EDGE_LOOP ( 'NONE', ( #63, #25 ) ) ;
#138 =( LENGTH_UNIT ( ) NAMED_UNIT ( * ) SI_UNIT ( .MILLI., .METRE. ) );
#139 = AXIS2_PLACEMENT_3D ( 'NONE', #196, #108, #127 ) ;
#140 = PRODUCT_DEFINITION ( 'UNKNOWN', '', #144, #173 ) ;
#141 = VERTEX_POINT ( 'NONE', #228 ) ;
#142 = DIRECTION ( 'NONE',  ( 0.000000000000000000, 0.000000000000000000, -1.000000000000000000 ) ) ;
#143 = PRESENTATION_LAYER_ASSIGNMENT (  '', '', ( #187 ) ) ;
#144 = PRODUCT_DEFINITION_FORMATION_WITH_SPECIFIED_SOURCE ( 'ANY', '', #33, .NOT_KNOWN. ) ;
#145 =( NAMED_UNIT ( * ) PLANE_ANGLE_UNIT ( ) SI_UNIT ( $, .RADIAN. ) );
#146 = ADVANCED_BREP_SHAPE_REPRESENTATION ( '59577', ( #188, #288, #276 ), #87 ) ;
#147 = DIRECTION ( 'NONE',  ( 2.881521880346712812E-17, 1.000000000000000000, -0.000000000000000000 ) ) ;
#148 =( LENGTH_UNIT ( ) NAMED_UNIT ( * ) SI_UNIT ( .MILLI., .METRE. ) );
#149 = ADVANCED_FACE ( 'NONE', ( #109 ), #5, .T. ) ;
#150 = DIRECTION ( 'NONE',  ( -0.000000000000000000, -1.000000000000000000, -0.000000000000000000 ) ) ;
#151 = CARTESIAN_POINT ( 'NONE',  ( 4.898587196589412829E-16, 12.00000000000000000, 4.000000000000000000 ) ) ;
#152 =( NAMED_UNIT ( * ) SI_UNIT ( $, .STERADIAN. ) SOLID_ANGLE_UNIT ( ) );
#153 = EDGE_LOOP ( 'NONE', ( #161, #259, #110, #95 ) ) ;
#154 = DIRECTION ( 'NONE',  ( 2.881521880346712812E-17, 1.000000000000000000, -0.000000000000000000 ) ) ;
#155 = CLOSED_SHELL ( 'NONE', ( #252, #163, #62, #81 ) ) ;
#156 = PRODUCT_DEFINITION_SHAPE ( 'NONE', 'NONE',  #140 ) ;
#157 = CIRCLE ( 'NONE', #223, 4.000000000000000000 ) ;
#158 = SURFACE_SIDE_STYLE ('',( #120 ) ) ;
#159 = DIRECTION ( 'NONE',  ( 2.881521880346712812E-17, 1.000000000000000000, -0.000000000000000000 ) ) ;
#160 = CLOSED_SHELL ( 'NONE', ( #149, #57, #19, #222 ) ) ;
#161 = ORIENTED_EDGE ( 'NONE', *, *, #201, .T. ) ;
#162 = FILL_AREA_STYLE_COLOUR ( '', #131 ) ;
#163 = ADVANCED_FACE ( 'NONE', ( #269 ), #56, .F. ) ;
#164 = ORIENTED_EDGE ( 'NONE', *, *, #8, .T. ) ;
#165 = ORIENTED_EDGE ( 'NONE', *, *, #100, .F. ) ;
#166 = CARTESIAN_POINT ( 'NONE',  ( 0.000000000000000000, 0.000000000000000000, 0.000000000000000000 ) ) ;
#167 = MECHANICAL_DESIGN_GEOMETRIC_PRESENTATION_REPRESENTATION (  '', ( #187 ), #231 ) ;
#168 = FILL_AREA_STYLE_COLOUR ( '', #206 ) ;
#169 = PRESENTATION_LAYER_ASSIGNMENT (  '', '', ( #23 ) ) ;
#170 = APPLICATION_PROTOCOL_DEFINITION ( 'draft international standard', 'automotive_design', 1998, #39 ) ;
#171 = SURFACE_STYLE_FILL_AREA ( #194 ) ;
#172 = LINE ( 'NONE', #129, #104 ) ;
#173 = PRODUCT_DEFINITION_CONTEXT ( 'detailed design', #39, 'design' ) ;
#174 = AXIS2_PLACEMENT_3D ( 'NONE', #105, #103, #82 ) ;
#175 =( NAMED_UNIT ( * ) PLANE_ANGLE_UNIT ( ) SI_UNIT ( $, .RADIAN. ) );
#176 =( NAMED_UNIT ( * ) PLANE_ANGLE_UNIT ( ) SI_UNIT ( $, .RADIAN. ) );
#177 = UNCERTAINTY_MEASURE_WITH_UNIT (LENGTH_MEASURE( 1.000000000000000082E-05 ), #40, 'distance_accuracy_value', 'NONE');
#178 = EDGE_CURVE ( 'NONE', #4, #279, #157, .T. ) ;
#179 = FACE_OUTER_BOUND ( 'NONE', #224, .T. ) ;
#180 = CIRCLE ( 'NONE', #1, 4.000000000000000000 ) ;
#181 = CARTESIAN_POINT ( 'NONE',  ( -3.999999999999997335, 63.00000000000000000, 0.000000000000000000 ) ) ;
#182 = PRESENTATION_STYLE_ASSIGNMENT (( #229 ) ) ;
#183 = DIRECTION ( 'NONE',  ( 2.881521880346712812E-17, 1.000000000000000000, -0.000000000000000000 ) ) ;
#184 = PLANE ( 'NONE',  #37 ) ;
#185 = EDGE_LOOP ( 'NONE', ( #235, #270, #227, #83 ) ) ;
#186 = FACE_OUTER_BOUND ( 'NONE', #68, .T. ) ;
#187 = STYLED_ITEM ( 'NONE', ( #265 ), #288 ) ;
#188 = MANIFOLD_SOLID_BREP ( 'Revolve - Cutting Edge', #160 ) ;
#189 = CARTESIAN_POINT ( 'NONE',  ( 0.000000000000000000, 12.00000000000000000, -4.000000000000000000 ) ) ;
#190 = DIRECTION ( 'NONE',  ( -0.000000000000000000, -1.000000000000000000, -0.000000000000000000 ) ) ;
#191 = AXIS2_PLACEMENT_3D ( 'NONE', #76, #190, #284 ) ;
#192 = MECHANICAL_DESIGN_GEOMETRIC_PRESENTATION_REPRESENTATION (  '', ( #261 ), #241 ) ;
#193 = AXIS2_PLACEMENT_3D ( 'NONE', #215, #99, #128 ) ;
#194 = FILL_AREA_STYLE ('',( #102 ) ) ;
#195 = UNCERTAINTY_MEASURE_WITH_UNIT (LENGTH_MEASURE( 1.000000000000000082E-05 ), #198, 'distance_accuracy_value', 'NONE');
#196 = CARTESIAN_POINT ( 'NONE',  ( 0.000000000000000000, 12.00000000000000000, 0.000000000000000000 ) ) ;
#197 = FILL_AREA_STYLE ('',( #219 ) ) ;
#198 =( LENGTH_UNIT ( ) NAMED_UNIT ( * ) SI_UNIT ( .MILLI., .METRE. ) );
#199 = APPLICATION_CONTEXT ( 'automotive_design' ) ;
#200 = FILL_AREA_STYLE ('',( #239 ) ) ;
#201 = EDGE_CURVE ( 'NONE', #28, #107, #180, .T. ) ;
#202 = ORIENTED_EDGE ( 'NONE', *, *, #256, .T. ) ;
#203 = ORIENTED_EDGE ( 'NONE', *, *, #201, .F. ) ;
#204 = LINE ( 'NONE', #181, #115 ) ;
#205 = DIRECTION ( 'NONE',  ( 0.000000000000000000, 0.000000000000000000, -1.000000000000000000 ) ) ;
#206 = COLOUR_RGB ( '',1.000000000000000000, 0.000000000000000000, 0.000000000000000000 ) ;
#207 = EDGE_LOOP ( 'NONE', ( #203, #47 ) ) ;
#208 =( NAMED_UNIT ( * ) SI_UNIT ( $, .STERADIAN. ) SOLID_ANGLE_UNIT ( ) );
#209 = AXIS2_PLACEMENT_3D ( 'NONE', #166, #214, #85 ) ;
#210 =( GEOMETRIC_REPRESENTATION_CONTEXT ( 3 ) GLOBAL_UNCERTAINTY_ASSIGNED_CONTEXT ( ( #3 ) ) GLOBAL_UNIT_ASSIGNED_CONTEXT ( ( #220, #176, #61 ) ) REPRESENTATION_CONTEXT ( 'NONE', 'WORKASPACE' ) );
#211 =( NAMED_UNIT ( * ) SI_UNIT ( $, .STERADIAN. ) SOLID_ANGLE_UNIT ( ) );
#212 = COLOUR_RGB ( '',0.7921568627450980005, 0.8196078431372548767, 0.9333333333333333481 ) ;
#213 = CARTESIAN_POINT ( 'NONE',  ( 0.000000000000000000, 0.000000000000000000, 0.000000000000000000 ) ) ;
#214 = DIRECTION ( 'NONE',  ( -0.000000000000000000, -1.000000000000000000, -0.000000000000000000 ) ) ;
#215 = CARTESIAN_POINT ( 'NONE',  ( 1.469576158976823750E-15, 63.00000000000000000, 0.000000000000000000 ) ) ;
#216 = CARTESIAN_POINT ( 'NONE',  ( 4.898587196589412829E-16, 0.000000000000000000, 4.000000000000000000 ) ) ;
#217 = EDGE_CURVE ( 'NONE', #279, #4, #225, .T. ) ;
#218 = DIRECTION ( 'NONE',  ( 1.000000000000000000, 0.000000000000000000, 0.000000000000000000 ) ) ;
#219 = FILL_AREA_STYLE_COLOUR ( '', #237 ) ;
#220 =( LENGTH_UNIT ( ) NAMED_UNIT ( * ) SI_UNIT ( .MILLI., .METRE. ) );
#221 = CARTESIAN_POINT ( 'NONE',  ( 0.000000000000000000, 0.000000000000000000, 0.000000000000000000 ) ) ;
#222 = ADVANCED_FACE ( 'NONE', ( #186 ), #184, .T. ) ;
#223 = AXIS2_PLACEMENT_3D ( 'NONE', #271, #183, #114 ) ;
#224 = EDGE_LOOP ( 'NONE', ( #257, #275, #90, #246 ) ) ;
#225 = CIRCLE ( 'NONE', #122, 4.000000000000000000 ) ;
#226 = CYLINDRICAL_SURFACE ( 'NONE', #245, 3.999999999999999112 ) ;
#227 = ORIENTED_EDGE ( 'NONE', *, *, #273, .T. ) ;
#228 = CARTESIAN_POINT ( 'NONE',  ( 4.898587196589412829E-16, 0.000000000000000000, 4.000000000000000000 ) ) ;
#229 = SURFACE_STYLE_USAGE ( .BOTH. , #158 ) ;
#230 = FILL_AREA_STYLE ('',( #162 ) ) ;
#231 =( GEOMETRIC_REPRESENTATION_CONTEXT ( 3 ) GLOBAL_UNCERTAINTY_ASSIGNED_CONTEXT ( ( #266 ) ) GLOBAL_UNIT_ASSIGNED_CONTEXT ( ( #18, #286, #78 ) ) REPRESENTATION_CONTEXT ( 'NONE', 'WORKASPACE' ) );
#232 = SURFACE_STYLE_USAGE ( .BOTH. , #280 ) ;
#233 = CARTESIAN_POINT ( 'NONE',  ( -4.000000000000000000, 11.99999999999999645, 0.000000000000000000 ) ) ;
#234 = EDGE_LOOP ( 'NONE', ( #88, #133, #30, #165 ) ) ;
#235 = ORIENTED_EDGE ( 'NONE', *, *, #41, .F. ) ;
#236 = DIRECTION ( 'NONE',  ( -1.000000000000000000, 2.881521880346712812E-17, 0.000000000000000000 ) ) ;
#237 = COLOUR_RGB ( '',0.7921568627450980005, 0.8196078431372548767, 0.9333333333333333481 ) ;
#238 = CIRCLE ( 'NONE', #193, 3.999999999999998224 ) ;
#239 = FILL_AREA_STYLE_COLOUR ( '', #106 ) ;
#240 =( LENGTH_UNIT ( ) NAMED_UNIT ( * ) SI_UNIT ( .MILLI., .METRE. ) );
#241 =( GEOMETRIC_REPRESENTATION_CONTEXT ( 3 ) GLOBAL_UNCERTAINTY_ASSIGNED_CONTEXT ( ( #58 ) ) GLOBAL_UNIT_ASSIGNED_CONTEXT ( ( #148, #258, #211 ) ) REPRESENTATION_CONTEXT ( 'NONE', 'WORKASPACE' ) );
#242 = DIRECTION ( 'NONE',  ( -1.000000000000000000, 0.000000000000000000, 0.000000000000000000 ) ) ;
#243 = DIRECTION ( 'NONE',  ( 0.000000000000000000, 0.000000000000000000, 1.000000000000000000 ) ) ;
#244 = EDGE_LOOP ( 'NONE', ( #249, #202 ) ) ;
#245 = AXIS2_PLACEMENT_3D ( 'NONE', #26, #147, #242 ) ;
#246 = ORIENTED_EDGE ( 'NONE', *, *, #256, .F. ) ;
#247 = CARTESIAN_POINT ( 'NONE',  ( 4.000000000000000000, 63.00000000000000000, 4.898587196589411843E-16 ) ) ;
#248 = SURFACE_STYLE_FILL_AREA ( #230 ) ;
#249 = ORIENTED_EDGE ( 'NONE', *, *, #14, .T. ) ;
#250 = DIRECTION ( 'NONE',  ( -1.000000000000000000, 0.000000000000000000, 0.000000000000000000 ) ) ;
#251 = STYLED_ITEM ( 'NONE', ( #112 ), #188 ) ;
#252 = ADVANCED_FACE ( 'NONE', ( #6 ), #277, .T. ) ;
#253 = SURFACE_SIDE_STYLE ('',( #248 ) ) ;
#254 = DIRECTION ( 'NONE',  ( -1.000000000000000000, 0.000000000000000000, 0.000000000000000000 ) ) ;
#255 = VERTEX_POINT ( 'NONE', #263 ) ;
#256 = EDGE_CURVE ( 'NONE', #130, #2, #238, .T. ) ;
#257 = ORIENTED_EDGE ( 'NONE', *, *, #124, .F. ) ;
#258 =( NAMED_UNIT ( * ) PLANE_ANGLE_UNIT ( ) SI_UNIT ( $, .RADIAN. ) );
#259 = ORIENTED_EDGE ( 'NONE', *, *, #41, .T. ) ;
#260 = AXIS2_PLACEMENT_3D ( 'NONE', #213, #9, #136 ) ;
#261 = STYLED_ITEM ( 'NONE', ( #182 ), #19 ) ;
#262 = PRESENTATION_LAYER_ASSIGNMENT (  '', '', ( #42 ) ) ;
#263 = CARTESIAN_POINT ( 'NONE',  ( 0.000000000000000000, 0.000000000000000000, -4.000000000000000000 ) ) ;
#264 = SURFACE_STYLE_USAGE ( .BOTH. , #43 ) ;
#265 = PRESENTATION_STYLE_ASSIGNMENT (( #282 ) ) ;
#266 = UNCERTAINTY_MEASURE_WITH_UNIT (LENGTH_MEASURE( 1.000000000000000082E-05 ), #18, 'distance_accuracy_value', 'NONE');
#267 = AXIS2_PLACEMENT_3D ( 'NONE', #135, #272, #250 ) ;
#268 = AXIS2_PLACEMENT_3D ( 'NONE', #113, #118, #142 ) ;
#269 = FACE_OUTER_BOUND ( 'NONE', #137, .T. ) ;
#270 = ORIENTED_EDGE ( 'NONE', *, *, #71, .T. ) ;
#271 = CARTESIAN_POINT ( 'NONE',  ( 0.000000000000000000, 11.99999999999999645, 0.000000000000000000 ) ) ;
#272 = DIRECTION ( 'NONE',  ( 2.881521880346712812E-17, 1.000000000000000000, -0.000000000000000000 ) ) ;
#273 = EDGE_CURVE ( 'NONE', #28, #255, #172, .T. ) ;
#274 = MECHANICAL_DESIGN_GEOMETRIC_PRESENTATION_REPRESENTATION (  '', ( #24 ), #10 ) ;
#275 = ORIENTED_EDGE ( 'NONE', *, *, #217, .T. ) ;
#276 = AXIS2_PLACEMENT_3D ( 'NONE', #221, #243, #218 ) ;
#277 = CYLINDRICAL_SURFACE ( 'NONE', #267, 3.999999999999999112 ) ;
#278 =( GEOMETRIC_REPRESENTATION_CONTEXT ( 3 ) GLOBAL_UNCERTAINTY_ASSIGNED_CONTEXT ( ( #195 ) ) GLOBAL_UNIT_ASSIGNED_CONTEXT ( ( #198, #175, #152 ) ) REPRESENTATION_CONTEXT ( 'NONE', 'WORKASPACE' ) );
#279 = VERTEX_POINT ( 'NONE', #126 ) ;
#280 = SURFACE_SIDE_STYLE ('',( #69 ) ) ;
#281 = APPLICATION_PROTOCOL_DEFINITION ( 'draft international standard', 'automotive_design', 1998, #199 ) ;
#282 = SURFACE_STYLE_USAGE ( .BOTH. , #74 ) ;
#283 = MECHANICAL_DESIGN_GEOMETRIC_PRESENTATION_REPRESENTATION (  '', ( #23 ), #278 ) ;
#284 = DIRECTION ( 'NONE',  ( 0.000000000000000000, 0.000000000000000000, -1.000000000000000000 ) ) ;
#285 = FACE_OUTER_BOUND ( 'NONE', #207, .T. ) ;
#286 =( NAMED_UNIT ( * ) PLANE_ANGLE_UNIT ( ) SI_UNIT ( $, .RADIAN. ) );
#287 = CARTESIAN_POINT ( 'NONE',  ( 4.000000000000000000, 63.00000000000000000, 0.000000000000000000 ) ) ;
#288 = MANIFOLD_SOLID_BREP ( 'Revolve - Tool Body (Straight Shanked)', #155 ) ;
ENDSEC;
END-ISO-10303-21;
