ISO-10303-21;
HEADER;
FILE_DESCRIPTION (( 'STEP AP214' ),
    '1' );
FILE_NAME ('Micro_DM-625-490X.STEP',
    '2021-09-02T16:10:44',
    ( '' ),
    ( '' ),
    'SwSTEP 2.0',
    'SolidWorks 2020',
    '' );
FILE_SCHEMA (( 'AUTOMOTIVE_DESIGN' ));
ENDSEC;

DATA;
#1 = LINE ( 'NONE', #5, #292 ) ;
#2 =( GEOMETRIC_REPRESENTATION_CONTEXT ( 3 ) GLOBAL_UNCERTAINTY_ASSIGNED_CONTEXT ( ( #19 ) ) GLOBAL_UNIT_ASSIGNED_CONTEXT ( ( #188, #184, #260 ) ) REPRESENTATION_CONTEXT ( 'NONE', 'WORKASPACE' ) );
#3 = APPLICATION_PROTOCOL_DEFINITION ( 'draft international standard', 'automotive_design', 1998, #153 ) ;
#4 = VERTEX_POINT ( 'NONE', #291 ) ;
#5 = CARTESIAN_POINT ( 'NONE',  ( 0.2975000000000003197, 3.643324227463378817E-17, 3.500000000000000000 ) ) ;
#6 = EDGE_CURVE ( 'NONE', #177, #118, #216, .T. ) ;
#7 = AXIS2_PLACEMENT_3D ( 'NONE', #322, #324, #87 ) ;
#8 = ORIENTED_EDGE ( 'NONE', *, *, #6, .F. ) ;
#9 = SURFACE_SIDE_STYLE ('',( #84 ) ) ;
#10 = EDGE_CURVE ( 'NONE', #150, #4, #190, .T. ) ;
#11 =( NAMED_UNIT ( * ) PLANE_ANGLE_UNIT ( ) SI_UNIT ( $, .RADIAN. ) );
#12 = LENGTH_MEASURE_WITH_UNIT ( LENGTH_MEASURE( 0.02539999999999999897 ), #40 );
#13 = EDGE_CURVE ( 'NONE', #150, #323, #187, .T. ) ;
#14 = SURFACE_STYLE_FILL_AREA ( #130 ) ;
#15 = PRESENTATION_LAYER_ASSIGNMENT (  '', '', ( #261 ) ) ;
#16 = DIRECTION ( 'NONE',  ( -1.000000000000000000, 0.0000000000000000000, 0.0000000000000000000 ) ) ;
#17 = CARTESIAN_POINT ( 'NONE',  ( 0.0000000000000000000, 0.0000000000000000000, 0.0000000000000000000 ) ) ;
#18 = CARTESIAN_POINT ( 'NONE',  ( 0.0000000000000000000, 0.0000000000000000000, 0.3049499999999988331 ) ) ;
#19 = UNCERTAINTY_MEASURE_WITH_UNIT (LENGTH_MEASURE( 1.000000000000000082E-05 ), #188, 'distance_accuracy_value', 'NONE');
#20 = EDGE_LOOP ( 'NONE', ( #57, #226 ) ) ;
#21 = EDGE_CURVE ( 'NONE', #177, #122, #159, .T. ) ;
#22 = CYLINDRICAL_SURFACE ( 'NONE', #287, 0.3125000000000000000 ) ;
#23 = VECTOR ( 'NONE', #225, 39.37007874015748143 ) ;
#24 = AXIS2_PLACEMENT_3D ( 'NONE', #222, #90, #73 ) ;
#25 = VERTEX_POINT ( 'NONE', #256 ) ;
#26 = DIRECTION ( 'NONE',  ( -1.000000000000000000, 0.0000000000000000000, 0.0000000000000000000 ) ) ;
#27 = DIRECTION ( 'NONE',  ( -0.0000000000000000000, -0.0000000000000000000, -1.000000000000000000 ) ) ;
#28 = EDGE_LOOP ( 'NONE', ( #327, #167, #234, #81 ) ) ;
#29 = CARTESIAN_POINT ( 'NONE',  ( 0.3124500000000002276, 0.0000000000000000000, 1.250000000000000000 ) ) ;
#30 = UNCERTAINTY_MEASURE_WITH_UNIT (LENGTH_MEASURE( 1.000000000000000082E-05 ), #161, 'distance_accuracy_value', 'NONE');
#31 = CIRCLE ( 'NONE', #55, 0.3125000000000000000 ) ;
#32 = ORIENTED_EDGE ( 'NONE', *, *, #285, .T. ) ;
#33 = CARTESIAN_POINT ( 'NONE',  ( 0.0000000000000000000, 0.0000000000000000000, 0.3049499999999988331 ) ) ;
#34 = ORIENTED_EDGE ( 'NONE', *, *, #10, .T. ) ;
#35 = EDGE_CURVE ( 'NONE', #122, #204, #31, .T. ) ;
#36 = PRESENTATION_STYLE_ASSIGNMENT (( #319 ) ) ;
#37 = ADVANCED_FACE ( 'NONE', ( #259 ), #41, .T. ) ;
#38 = EDGE_LOOP ( 'NONE', ( #299, #78, #89, #48 ) ) ;
#39 = AXIS2_PLACEMENT_3D ( 'NONE', #29, #114, #228 ) ;
#40 =( LENGTH_UNIT ( ) NAMED_UNIT ( * ) SI_UNIT ( $, .METRE. ) );
#41 = CYLINDRICAL_SURFACE ( 'NONE', #143, 0.3124500000000001165 ) ;
#42 = EDGE_CURVE ( 'NONE', #118, #204, #286, .T. ) ;
#43 = CARTESIAN_POINT ( 'NONE',  ( 0.3124500000000001165, 3.826408923935906052E-17, 0.0000000000000000000 ) ) ;
#44 = CARTESIAN_POINT ( 'NONE',  ( -0.3125000000000000000, 0.0000000000000000000, 3.500000000000000000 ) ) ;
#45 = CYLINDRICAL_SURFACE ( 'NONE', #195, 0.3124500000000001165 ) ;
#46 = DIRECTION ( 'NONE',  ( -1.000000000000000000, 0.0000000000000000000, 0.0000000000000000000 ) ) ;
#47 = EDGE_LOOP ( 'NONE', ( #92, #32, #270, #138 ) ) ;
#48 = ORIENTED_EDGE ( 'NONE', *, *, #168, .F. ) ;
#49 = DIRECTION ( 'NONE',  ( 0.0000000000000000000, 0.0000000000000000000, -1.000000000000000000 ) ) ;
#50 = AXIS2_PLACEMENT_3D ( 'NONE', #221, #297, #198 ) ;
#51 = DIRECTION ( 'NONE',  ( 0.0000000000000000000, 0.0000000000000000000, 1.000000000000000000 ) ) ;
#52 = DIRECTION ( 'NONE',  ( 1.000000000000000000, 0.0000000000000000000, 0.0000000000000000000 ) ) ;
#53 = CARTESIAN_POINT ( 'NONE',  ( 0.0000000000000000000, 0.0000000000000000000, 3.484999999999999432 ) ) ;
#54 = ORIENTED_EDGE ( 'NONE', *, *, #42, .F. ) ;
#55 = AXIS2_PLACEMENT_3D ( 'NONE', #214, #82, #60 ) ;
#56 = CARTESIAN_POINT ( 'NONE',  ( 0.0000000000000000000, 0.0000000000000000000, 3.500000000000000000 ) ) ;
#57 = ORIENTED_EDGE ( 'NONE', *, *, #263, .T. ) ;
#58 = PRODUCT_CONTEXT ( 'NONE', #153, 'mechanical' ) ;
#59 = EDGE_LOOP ( 'NONE', ( #311, #97, #276, #54 ) ) ;
#60 = DIRECTION ( 'NONE',  ( -1.000000000000000000, 0.0000000000000000000, 0.0000000000000000000 ) ) ;
#61 = FILL_AREA_STYLE_COLOUR ( '', #326 ) ;
#62 = CIRCLE ( 'NONE', #7, 0.007499999999999999722 ) ;
#63 = AXIS2_PLACEMENT_3D ( 'NONE', #17, #108, #112 ) ;
#64 = STYLED_ITEM ( 'NONE', ( #85 ), #68 ) ;
#65 = DIRECTION ( 'NONE',  ( -1.000000000000000000, 0.0000000000000000000, 0.0000000000000000000 ) ) ;
#66 = DIRECTION ( 'NONE',  ( -1.000000000000000000, 0.0000000000000000000, 0.0000000000000000000 ) ) ;
#67 = EDGE_CURVE ( 'NONE', #323, #152, #104, .T. ) ;
#68 = MANIFOLD_SOLID_BREP ( 'Cut-Revolve4', #136 ) ;
#69 = ADVANCED_FACE ( 'NONE', ( #197 ), #199, .T. ) ;
#70 = CARTESIAN_POINT ( 'NONE',  ( -0.2975000000000003197, 0.0000000000000000000, 3.500000000000000000 ) ) ;
#71 = ORIENTED_EDGE ( 'NONE', *, *, #67, .T. ) ;
#72 = EDGE_CURVE ( 'NONE', #223, #25, #62, .T. ) ;
#73 = DIRECTION ( 'NONE',  ( 1.000000000000000000, 0.0000000000000000000, 0.0000000000000000000 ) ) ;
#74 = VERTEX_POINT ( 'NONE', #70 ) ;
#75 = DIRECTION ( 'NONE',  ( -1.000000000000000000, 0.0000000000000000000, 0.0000000000000000000 ) ) ;
#76 = CARTESIAN_POINT ( 'NONE',  ( -0.2975000000000003197, 0.0000000000000000000, 3.500000000000000000 ) ) ;
#77 = AXIS2_PLACEMENT_3D ( 'NONE', #33, #280, #119 ) ;
#78 = ORIENTED_EDGE ( 'NONE', *, *, #189, .T. ) ;
#79 = CONICAL_SURFACE ( 'NONE', #142, 0.007499999999999999722, 0.7853981633974502774 ) ;
#80 = FACE_OUTER_BOUND ( 'NONE', #155, .T. ) ;
#81 = ORIENTED_EDGE ( 'NONE', *, *, #35, .F. ) ;
#82 = DIRECTION ( 'NONE',  ( -0.0000000000000000000, -0.0000000000000000000, -1.000000000000000000 ) ) ;
#83 = ADVANCED_FACE ( 'NONE', ( #294 ), #179, .T. ) ;
#84 = SURFACE_STYLE_FILL_AREA ( #257 ) ;
#85 = PRESENTATION_STYLE_ASSIGNMENT (( #320 ) ) ;
#86 = VECTOR ( 'NONE', #252, 39.37007874015748143 ) ;
#87 = DIRECTION ( 'NONE',  ( -1.000000000000000000, 0.0000000000000000000, 0.0000000000000000000 ) ) ;
#88 = DIRECTION ( 'NONE',  ( -0.0000000000000000000, -0.0000000000000000000, -1.000000000000000000 ) ) ;
#89 = ORIENTED_EDGE ( 'NONE', *, *, #193, .T. ) ;
#90 = DIRECTION ( 'NONE',  ( 0.0000000000000000000, 0.0000000000000000000, 1.000000000000000000 ) ) ;
#91 = ORIENTED_EDGE ( 'NONE', *, *, #140, .T. ) ;
#92 = ORIENTED_EDGE ( 'NONE', *, *, #154, .F. ) ;
#93 = LINE ( 'NONE', #308, #224 ) ;
#94 = DIRECTION ( 'NONE',  ( -1.000000000000000000, 0.0000000000000000000, 0.0000000000000000000 ) ) ;
#95 = CIRCLE ( 'NONE', #165, 0.2975000000000003197 ) ;
#96 = CYLINDRICAL_SURFACE ( 'NONE', #173, 0.3125000000000000000 ) ;
#97 = ORIENTED_EDGE ( 'NONE', *, *, #21, .T. ) ;
#98 = EDGE_CURVE ( 'NONE', #25, #223, #232, .T. ) ;
#99 = DIRECTION ( 'NONE',  ( 1.000000000000000000, 0.0000000000000000000, 0.0000000000000000000 ) ) ;
#100 = AXIS2_PLACEMENT_3D ( 'NONE', #249, #27, #94 ) ;
#101 = ORIENTED_EDGE ( 'NONE', *, *, #182, .T. ) ;
#102 = DIRECTION ( 'NONE',  ( -0.0000000000000000000, -0.0000000000000000000, -1.000000000000000000 ) ) ;
#103 = DIRECTION ( 'NONE',  ( 1.000000000000000000, 0.0000000000000000000, 0.0000000000000000000 ) ) ;
#104 = LINE ( 'NONE', #43, #279 ) ;
#105 = PRESENTATION_LAYER_ASSIGNMENT (  '', '', ( #64 ) ) ;
#106 = SURFACE_SIDE_STYLE ('',( #14 ) ) ;
#107 = CARTESIAN_POINT ( 'NONE',  ( 0.0000000000000000000, 0.0000000000000000000, 3.500000000000000000 ) ) ;
#108 = DIRECTION ( 'NONE',  ( 0.0000000000000000000, 0.0000000000000000000, 1.000000000000000000 ) ) ;
#109 = ORIENTED_EDGE ( 'NONE', *, *, #168, .T. ) ;
#110 = CARTESIAN_POINT ( 'NONE',  ( 0.3124500000000000610, 0.0000000000000000000, 0.3049499999999988331 ) ) ;
#111 = ADVANCED_FACE ( 'NONE', ( #264 ), #45, .T. ) ;
#112 = DIRECTION ( 'NONE',  ( 1.000000000000000000, 0.0000000000000000000, -0.0000000000000000000 ) ) ;
#113 = ORIENTED_EDGE ( 'NONE', *, *, #13, .T. ) ;
#114 = DIRECTION ( 'NONE',  ( -0.0000000000000000000, 0.0000000000000000000, -1.000000000000000000 ) ) ;
#115 = FACE_OUTER_BOUND ( 'NONE', #28, .T. ) ;
#116 =( CONVERSION_BASED_UNIT ( 'INCH', #147 ) LENGTH_UNIT ( ) NAMED_UNIT ( #175 ) );
#117 = ADVANCED_FACE ( 'NONE', ( #328 ), #22, .T. ) ;
#118 = VERTEX_POINT ( 'NONE', #265 ) ;
#119 = DIRECTION ( 'NONE',  ( -1.000000000000000000, 0.0000000000000000000, 0.0000000000000000000 ) ) ;
#120 = ORIENTED_EDGE ( 'NONE', *, *, #35, .T. ) ;
#121 = CIRCLE ( 'NONE', #298, 0.3125000000000000000 ) ;
#122 = VERTEX_POINT ( 'NONE', #135 ) ;
#123 = ADVANCED_FACE ( 'NONE', ( #239 ), #242, .F. ) ;
#124 = FILL_AREA_STYLE_COLOUR ( '', #307 ) ;
#125 = DIRECTION ( 'NONE',  ( -0.0000000000000000000, -0.0000000000000000000, -1.000000000000000000 ) ) ;
#126 = MECHANICAL_DESIGN_GEOMETRIC_PRESENTATION_REPRESENTATION (  '', ( #64 ), #132 ) ;
#127 = APPLICATION_PROTOCOL_DEFINITION ( 'draft international standard', 'automotive_design', 1998, #266 ) ;
#128 = DIRECTION ( 'NONE',  ( -0.0000000000000000000, -0.0000000000000000000, -1.000000000000000000 ) ) ;
#129 = AXIS2_PLACEMENT_3D ( 'NONE', #269, #49, #203 ) ;
#130 = FILL_AREA_STYLE ('',( #61 ) ) ;
#131 = CARTESIAN_POINT ( 'NONE',  ( 0.0000000000000000000, 0.0000000000000000000, 0.0000000000000000000 ) ) ;
#132 =( GEOMETRIC_REPRESENTATION_CONTEXT ( 3 ) GLOBAL_UNCERTAINTY_ASSIGNED_CONTEXT ( ( #30 ) ) GLOBAL_UNIT_ASSIGNED_CONTEXT ( ( #161, #11, #196 ) ) REPRESENTATION_CONTEXT ( 'NONE', 'WORKASPACE' ) );
#133 = MECHANICAL_DESIGN_GEOMETRIC_PRESENTATION_REPRESENTATION (  '', ( #261 ), #2 ) ;
#134 = VECTOR ( 'NONE', #125, 39.37007874015748143 ) ;
#135 = CARTESIAN_POINT ( 'NONE',  ( 0.3125000000000000000, 3.827021247335478926E-17, 1.250000000000000000 ) ) ;
#136 = CLOSED_SHELL ( 'NONE', ( #37, #318, #83, #117, #240, #262, #162, #302, #69, #111, #123 ) ) ;
#137 = CARTESIAN_POINT ( 'NONE',  ( -0.3124500000000002276, 0.0000000000000000000, 1.250000000000000000 ) ) ;
#138 = ORIENTED_EDGE ( 'NONE', *, *, #182, .F. ) ;
#139 = LINE ( 'NONE', #244, #23 ) ;
#140 = EDGE_CURVE ( 'NONE', #204, #122, #245, .T. ) ;
#141 = ORIENTED_EDGE ( 'NONE', *, *, #189, .F. ) ;
#142 = AXIS2_PLACEMENT_3D ( 'NONE', #283, #206, #52 ) ;
#143 = AXIS2_PLACEMENT_3D ( 'NONE', #160, #288, #192 ) ;
#144 = DIRECTION ( 'NONE',  ( 0.0000000000000000000, 0.0000000000000000000, -1.000000000000000000 ) ) ;
#145 = EDGE_CURVE ( 'NONE', #152, #4, #229, .T. ) ;
#146 = CARTESIAN_POINT ( 'NONE',  ( 0.0000000000000000000, 0.0000000000000000000, 3.500000000000000000 ) ) ;
#147 = LENGTH_MEASURE_WITH_UNIT ( LENGTH_MEASURE( 0.02539999999999999897 ), #176 );
#148 = CARTESIAN_POINT ( 'NONE',  ( 0.3124500000000002276, 3.826408923935907901E-17, 1.250000000000000000 ) ) ;
#149 = PRODUCT_DEFINITION_FORMATION_WITH_SPECIFIED_SOURCE ( 'ANY', '', #272, .NOT_KNOWN. ) ;
#150 = VERTEX_POINT ( 'NONE', #137 ) ;
#151 = DIRECTION ( 'NONE',  ( -0.0000000000000000000, -0.0000000000000000000, -1.000000000000000000 ) ) ;
#152 = VERTEX_POINT ( 'NONE', #110 ) ;
#153 = APPLICATION_CONTEXT ( 'automotive_design' ) ;
#154 = EDGE_CURVE ( 'NONE', #180, #74, #212, .T. ) ;
#155 = EDGE_LOOP ( 'NONE', ( #91, #120 ) ) ;
#156 = AXIS2_PLACEMENT_3D ( 'NONE', #258, #164, #218 ) ;
#157 = DIRECTION ( 'NONE',  ( 0.0000000000000000000, 0.0000000000000000000, -1.000000000000000000 ) ) ;
#158 = DIRECTION ( 'NONE',  ( 1.000000000000000000, 0.0000000000000000000, 0.0000000000000000000 ) ) ;
#159 = LINE ( 'NONE', #215, #313 ) ;
#160 = CARTESIAN_POINT ( 'NONE',  ( 0.0000000000000000000, 0.0000000000000000000, 0.0000000000000000000 ) ) ;
#161 =( CONVERSION_BASED_UNIT ( 'INCH', #12 ) LENGTH_UNIT ( ) NAMED_UNIT ( #281 ) );
#162 = ADVANCED_FACE ( 'NONE', ( #169 ), #277, .T. ) ;
#163 = DIRECTION ( 'NONE',  ( -1.000000000000000000, 0.0000000000000000000, 0.0000000000000000000 ) ) ;
#164 = DIRECTION ( 'NONE',  ( 0.0000000000000000000, 0.0000000000000000000, 1.000000000000000000 ) ) ;
#165 = AXIS2_PLACEMENT_3D ( 'NONE', #146, #178, #314 ) ;
#166 = AXIS2_PLACEMENT_3D ( 'NONE', #293, #102, #65 ) ;
#167 = ORIENTED_EDGE ( 'NONE', *, *, #6, .T. ) ;
#168 = EDGE_CURVE ( 'NONE', #223, #152, #139, .T. ) ;
#169 = FACE_OUTER_BOUND ( 'NONE', #268, .T. ) ;
#170 = PRODUCT_DEFINITION_CONTEXT ( 'detailed design', #266, 'design' ) ;
#171 = ORIENTED_EDGE ( 'NONE', *, *, #263, .F. ) ;
#172 = CARTESIAN_POINT ( 'NONE',  ( 0.3125000000000000000, 3.827021247335478926E-17, 3.484999999999999432 ) ) ;
#173 = AXIS2_PLACEMENT_3D ( 'NONE', #273, #151, #26 ) ;
#174 = CARTESIAN_POINT ( 'NONE',  ( 0.007499999999999999722, 0.0000000000000000000, 1.707404996040164512E-17 ) ) ;
#175 = DIMENSIONAL_EXPONENTS ( 1.000000000000000000, 0.0000000000000000000, 0.0000000000000000000, 0.0000000000000000000, 0.0000000000000000000, 0.0000000000000000000, 0.0000000000000000000 ) ;
#176 =( LENGTH_UNIT ( ) NAMED_UNIT ( * ) SI_UNIT ( $, .METRE. ) );
#177 = VERTEX_POINT ( 'NONE', #172 ) ;
#178 = DIRECTION ( 'NONE',  ( 0.0000000000000000000, 0.0000000000000000000, 1.000000000000000000 ) ) ;
#179 = CONICAL_SURFACE ( 'NONE', #238, 0.2975000000000003197, 0.7853981633974300713 ) ;
#180 = VERTEX_POINT ( 'NONE', #271 ) ;
#181 = PLANE ( 'NONE',  #39 ) ;
#182 = EDGE_CURVE ( 'NONE', #74, #118, #305, .T. ) ;
#183 = ORIENTED_EDGE ( 'NONE', *, *, #67, .F. ) ;
#184 =( NAMED_UNIT ( * ) PLANE_ANGLE_UNIT ( ) SI_UNIT ( $, .RADIAN. ) );
#185 = AXIS2_PLACEMENT_3D ( 'NONE', #194, #233, #103 ) ;
#186 = DIRECTION ( 'NONE',  ( -0.0000000000000000000, -0.0000000000000000000, -1.000000000000000000 ) ) ;
#187 = CIRCLE ( 'NONE', #166, 0.3124500000000002276 ) ;
#188 =( CONVERSION_BASED_UNIT ( 'INCH', #290 ) LENGTH_UNIT ( ) NAMED_UNIT ( #312 ) );
#189 = EDGE_CURVE ( 'NONE', #25, #4, #93, .T. ) ;
#190 = LINE ( 'NONE', #289, #134 ) ;
#191 =( LENGTH_UNIT ( ) NAMED_UNIT ( * ) SI_UNIT ( $, .METRE. ) );
#192 = DIRECTION ( 'NONE',  ( -1.000000000000000000, 0.0000000000000000000, 0.0000000000000000000 ) ) ;
#193 = EDGE_CURVE ( 'NONE', #4, #152, #325, .T. ) ;
#194 = CARTESIAN_POINT ( 'NONE',  ( 0.0000000000000000000, 0.0000000000000000000, 0.0000000000000000000 ) ) ;
#195 = AXIS2_PLACEMENT_3D ( 'NONE', #131, #237, #16 ) ;
#196 =( NAMED_UNIT ( * ) SI_UNIT ( $, .STERADIAN. ) SOLID_ANGLE_UNIT ( ) );
#197 = FACE_OUTER_BOUND ( 'NONE', #246, .T. ) ;
#198 = DIRECTION ( 'NONE',  ( -1.000000000000000000, 0.0000000000000000000, 0.0000000000000000000 ) ) ;
#199 = CONICAL_SURFACE ( 'NONE', #156, 0.007499999999999999722, 0.7853981633974502774 ) ;
#200 = ORIENTED_EDGE ( 'NONE', *, *, #13, .F. ) ;
#201 = AXIS2_PLACEMENT_3D ( 'NONE', #18, #267, #46 ) ;
#202 = AXIS2_PLACEMENT_3D ( 'NONE', #236, #157, #158 ) ;
#203 = DIRECTION ( 'NONE',  ( -1.000000000000000000, 0.0000000000000000000, 0.0000000000000000000 ) ) ;
#204 = VERTEX_POINT ( 'NONE', #248 ) ;
#205 = DIRECTION ( 'NONE',  ( -0.7071067811865489050, 8.659560562354950115E-17, 0.7071067811865461294 ) ) ;
#206 = DIRECTION ( 'NONE',  ( 0.0000000000000000000, 0.0000000000000000000, 1.000000000000000000 ) ) ;
#207 =( NAMED_UNIT ( * ) SI_UNIT ( $, .STERADIAN. ) SOLID_ANGLE_UNIT ( ) );
#208 = DIRECTION ( 'NONE',  ( 0.7071067811865346942, 8.659560562354773853E-17, -0.7071067811865603403 ) ) ;
#209 = EDGE_LOOP ( 'NONE', ( #306, #304 ) ) ;
#210 = AXIS2_PLACEMENT_3D ( 'NONE', #56, #51, #274 ) ;
#211 = FACE_OUTER_BOUND ( 'NONE', #20, .T. ) ;
#212 = CIRCLE ( 'NONE', #24, 0.2975000000000003197 ) ;
#213 = ORIENTED_EDGE ( 'NONE', *, *, #10, .F. ) ;
#214 = CARTESIAN_POINT ( 'NONE',  ( 0.0000000000000000000, 0.0000000000000000000, 1.250000000000000000 ) ) ;
#215 = CARTESIAN_POINT ( 'NONE',  ( 0.3125000000000000000, 3.827021247335478926E-17, 3.500000000000000000 ) ) ;
#216 = CIRCLE ( 'NONE', #202, 0.3125000000000000000 ) ;
#217 = DIRECTION ( 'NONE',  ( -0.0000000000000000000, -0.0000000000000000000, -1.000000000000000000 ) ) ;
#218 = DIRECTION ( 'NONE',  ( 1.000000000000000000, 0.0000000000000000000, 0.0000000000000000000 ) ) ;
#219 = AXIS2_PLACEMENT_3D ( 'NONE', #300, #88, #163 ) ;
#220 = DIRECTION ( 'NONE',  ( 0.0000000000000000000, 0.0000000000000000000, -1.000000000000000000 ) ) ;
#221 = CARTESIAN_POINT ( 'NONE',  ( 0.0000000000000000000, 0.0000000000000000000, 1.250000000000000000 ) ) ;
#222 = CARTESIAN_POINT ( 'NONE',  ( 0.0000000000000000000, 0.0000000000000000000, 3.500000000000000000 ) ) ;
#223 = VERTEX_POINT ( 'NONE', #174 ) ;
#224 = VECTOR ( 'NONE', #205, 39.37007874015748143 ) ;
#225 = DIRECTION ( 'NONE',  ( 0.7071067811865489050, 0.0000000000000000000, 0.7071067811865461294 ) ) ;
#226 = ORIENTED_EDGE ( 'NONE', *, *, #154, .T. ) ;
#227 = ORIENTED_EDGE ( 'NONE', *, *, #285, .F. ) ;
#228 = DIRECTION ( 'NONE',  ( -1.000000000000000000, 0.0000000000000000000, 0.0000000000000000000 ) ) ;
#229 = CIRCLE ( 'NONE', #201, 0.3124500000000000610 ) ;
#230 = ADVANCED_BREP_SHAPE_REPRESENTATION ( 'Micro_DM-625-490X', ( #68, #185 ), #255 ) ;
#231 = PLANE ( 'NONE',  #210 ) ;
#232 = CIRCLE ( 'NONE', #219, 0.007499999999999999722 ) ;
#233 = DIRECTION ( 'NONE',  ( 0.0000000000000000000, 0.0000000000000000000, 1.000000000000000000 ) ) ;
#234 = ORIENTED_EDGE ( 'NONE', *, *, #42, .T. ) ;
#235 = VECTOR ( 'NONE', #217, 39.37007874015748143 ) ;
#236 = CARTESIAN_POINT ( 'NONE',  ( 0.0000000000000000000, 0.0000000000000000000, 3.484999999999999432 ) ) ;
#237 = DIRECTION ( 'NONE',  ( -0.0000000000000000000, -0.0000000000000000000, -1.000000000000000000 ) ) ;
#238 = AXIS2_PLACEMENT_3D ( 'NONE', #303, #220, #66 ) ;
#239 = FACE_OUTER_BOUND ( 'NONE', #209, .T. ) ;
#240 = ADVANCED_FACE ( 'NONE', ( #115 ), #96, .T. ) ;
#241 = PRODUCT_DEFINITION_SHAPE ( 'NONE', 'NONE',  #316 ) ;
#242 = PLANE ( 'NONE',  #63 ) ;
#243 = ORIENTED_EDGE ( 'NONE', *, *, #145, .T. ) ;
#244 = CARTESIAN_POINT ( 'NONE',  ( 0.007499999999999999722, 0.0000000000000000000, 1.707404996040164512E-17 ) ) ;
#245 = CIRCLE ( 'NONE', #50, 0.3125000000000000000 ) ;
#246 = EDGE_LOOP ( 'NONE', ( #141, #254, #109, #243 ) ) ;
#247 = PRODUCT_RELATED_PRODUCT_CATEGORY ( 'part', '', ( #272 ) ) ;
#248 = CARTESIAN_POINT ( 'NONE',  ( -0.3125000000000000000, 0.0000000000000000000, 1.250000000000000000 ) ) ;
#249 = CARTESIAN_POINT ( 'NONE',  ( 0.0000000000000000000, 0.0000000000000000000, 1.250000000000000000 ) ) ;
#250 =( NAMED_UNIT ( * ) PLANE_ANGLE_UNIT ( ) SI_UNIT ( $, .RADIAN. ) );
#251 = EDGE_LOOP ( 'NONE', ( #183, #329, #34, #284 ) ) ;
#252 = DIRECTION ( 'NONE',  ( -0.7071067811865346942, 0.0000000000000000000, -0.7071067811865603403 ) ) ;
#253 = ORIENTED_EDGE ( 'NONE', *, *, #295, .F. ) ;
#254 = ORIENTED_EDGE ( 'NONE', *, *, #72, .F. ) ;
#255 =( GEOMETRIC_REPRESENTATION_CONTEXT ( 3 ) GLOBAL_UNCERTAINTY_ASSIGNED_CONTEXT ( ( #310 ) ) GLOBAL_UNIT_ASSIGNED_CONTEXT ( ( #116, #250, #207 ) ) REPRESENTATION_CONTEXT ( 'NONE', 'WORKASPACE' ) );
#256 = CARTESIAN_POINT ( 'NONE',  ( -0.007499999999999999722, 1.959128716935978978E-17, 1.707404996040164512E-17 ) ) ;
#257 = FILL_AREA_STYLE ('',( #124 ) ) ;
#258 = CARTESIAN_POINT ( 'NONE',  ( 0.0000000000000000000, 0.0000000000000000000, 1.707404996040164512E-17 ) ) ;
#259 = FACE_OUTER_BOUND ( 'NONE', #282, .T. ) ;
#260 =( NAMED_UNIT ( * ) SI_UNIT ( $, .STERADIAN. ) SOLID_ANGLE_UNIT ( ) );
#261 = STYLED_ITEM ( 'NONE', ( #36 ), #230 ) ;
#262 = ADVANCED_FACE ( 'NONE', ( #211 ), #231, .T. ) ;
#263 = EDGE_CURVE ( 'NONE', #74, #180, #95, .T. ) ;
#264 = FACE_OUTER_BOUND ( 'NONE', #251, .T. ) ;
#265 = CARTESIAN_POINT ( 'NONE',  ( -0.3125000000000000000, 0.0000000000000000000, 3.484999999999999432 ) ) ;
#266 = APPLICATION_CONTEXT ( 'automotive_design' ) ;
#267 = DIRECTION ( 'NONE',  ( -0.0000000000000000000, -0.0000000000000000000, -1.000000000000000000 ) ) ;
#268 = EDGE_LOOP ( 'NONE', ( #227, #171, #101, #8 ) ) ;
#269 = CARTESIAN_POINT ( 'NONE',  ( 0.0000000000000000000, 0.0000000000000000000, 3.500000000000000000 ) ) ;
#270 = ORIENTED_EDGE ( 'NONE', *, *, #278, .F. ) ;
#271 = CARTESIAN_POINT ( 'NONE',  ( 0.2975000000000003197, 3.735172737399428256E-17, 3.500000000000000000 ) ) ;
#272 = PRODUCT ( 'Micro_DM-625-490X', 'Micro_DM-625-490X', '', ( #58 ) ) ;
#273 = CARTESIAN_POINT ( 'NONE',  ( 0.0000000000000000000, 0.0000000000000000000, 3.500000000000000000 ) ) ;
#274 = DIRECTION ( 'NONE',  ( 1.000000000000000000, 0.0000000000000000000, -0.0000000000000000000 ) ) ;
#275 = FACE_BOUND ( 'NONE', #301, .T. ) ;
#276 = ORIENTED_EDGE ( 'NONE', *, *, #140, .F. ) ;
#277 = CONICAL_SURFACE ( 'NONE', #129, 0.2975000000000003197, 0.7853981633974300713 ) ;
#278 = EDGE_CURVE ( 'NONE', #118, #177, #121, .T. ) ;
#279 = VECTOR ( 'NONE', #128, 39.37007874015748143 ) ;
#280 = DIRECTION ( 'NONE',  ( -0.0000000000000000000, -0.0000000000000000000, -1.000000000000000000 ) ) ;
#281 = DIMENSIONAL_EXPONENTS ( 1.000000000000000000, 0.0000000000000000000, 0.0000000000000000000, 0.0000000000000000000, 0.0000000000000000000, 0.0000000000000000000, 0.0000000000000000000 ) ;
#282 = EDGE_LOOP ( 'NONE', ( #113, #71, #315, #213 ) ) ;
#283 = CARTESIAN_POINT ( 'NONE',  ( 0.0000000000000000000, 0.0000000000000000000, 1.707404996040164512E-17 ) ) ;
#284 = ORIENTED_EDGE ( 'NONE', *, *, #145, .F. ) ;
#285 = EDGE_CURVE ( 'NONE', #180, #177, #1, .T. ) ;
#286 = LINE ( 'NONE', #44, #235 ) ;
#287 = AXIS2_PLACEMENT_3D ( 'NONE', #107, #296, #75 ) ;
#288 = DIRECTION ( 'NONE',  ( -0.0000000000000000000, -0.0000000000000000000, -1.000000000000000000 ) ) ;
#289 = CARTESIAN_POINT ( 'NONE',  ( -0.3124500000000001165, 0.0000000000000000000, 0.0000000000000000000 ) ) ;
#290 = LENGTH_MEASURE_WITH_UNIT ( LENGTH_MEASURE( 0.02539999999999999897 ), #191 );
#291 = CARTESIAN_POINT ( 'NONE',  ( -0.3124500000000000610, 3.826408923935906052E-17, 0.3049499999999988331 ) ) ;
#292 = VECTOR ( 'NONE', #208, 39.37007874015748143 ) ;
#293 = CARTESIAN_POINT ( 'NONE',  ( 0.0000000000000000000, 0.0000000000000000000, 1.250000000000000000 ) ) ;
#294 = FACE_OUTER_BOUND ( 'NONE', #47, .T. ) ;
#295 = EDGE_CURVE ( 'NONE', #323, #150, #321, .T. ) ;
#296 = DIRECTION ( 'NONE',  ( -0.0000000000000000000, -0.0000000000000000000, -1.000000000000000000 ) ) ;
#297 = DIRECTION ( 'NONE',  ( -0.0000000000000000000, -0.0000000000000000000, -1.000000000000000000 ) ) ;
#298 = AXIS2_PLACEMENT_3D ( 'NONE', #53, #144, #99 ) ;
#299 = ORIENTED_EDGE ( 'NONE', *, *, #98, .F. ) ;
#300 = CARTESIAN_POINT ( 'NONE',  ( 0.0000000000000000000, 0.0000000000000000000, 1.707404996040164512E-17 ) ) ;
#301 = EDGE_LOOP ( 'NONE', ( #200, #253 ) ) ;
#302 = ADVANCED_FACE ( 'NONE', ( #275, #80 ), #181, .T. ) ;
#303 = CARTESIAN_POINT ( 'NONE',  ( 0.0000000000000000000, 0.0000000000000000000, 3.500000000000000000 ) ) ;
#304 = ORIENTED_EDGE ( 'NONE', *, *, #98, .T. ) ;
#305 = LINE ( 'NONE', #76, #86 ) ;
#306 = ORIENTED_EDGE ( 'NONE', *, *, #72, .T. ) ;
#307 = COLOUR_RGB ( '',0.7921568627450980005, 0.8196078431372548767, 0.9333333333333333481 ) ;
#308 = CARTESIAN_POINT ( 'NONE',  ( -0.007499999999999999722, 9.184850993605147975E-19, 1.707404996040164512E-17 ) ) ;
#309 = FACE_OUTER_BOUND ( 'NONE', #38, .T. ) ;
#310 = UNCERTAINTY_MEASURE_WITH_UNIT (LENGTH_MEASURE( 1.000000000000000082E-05 ), #116, 'distance_accuracy_value', 'NONE');
#311 = ORIENTED_EDGE ( 'NONE', *, *, #278, .T. ) ;
#312 = DIMENSIONAL_EXPONENTS ( 1.000000000000000000, 0.0000000000000000000, 0.0000000000000000000, 0.0000000000000000000, 0.0000000000000000000, 0.0000000000000000000, 0.0000000000000000000 ) ;
#313 = VECTOR ( 'NONE', #186, 39.37007874015748143 ) ;
#314 = DIRECTION ( 'NONE',  ( 1.000000000000000000, 0.0000000000000000000, 0.0000000000000000000 ) ) ;
#315 = ORIENTED_EDGE ( 'NONE', *, *, #193, .F. ) ;
#316 = PRODUCT_DEFINITION ( 'UNKNOWN', '', #149, #170 ) ;
#317 = SHAPE_DEFINITION_REPRESENTATION ( #241, #230 ) ;
#318 = ADVANCED_FACE ( 'NONE', ( #309 ), #79, .T. ) ;
#319 = SURFACE_STYLE_USAGE ( .BOTH. , #9 ) ;
#320 = SURFACE_STYLE_USAGE ( .BOTH. , #106 ) ;
#321 = CIRCLE ( 'NONE', #100, 0.3124500000000002276 ) ;
#322 = CARTESIAN_POINT ( 'NONE',  ( 0.0000000000000000000, 0.0000000000000000000, 1.707404996040164512E-17 ) ) ;
#323 = VERTEX_POINT ( 'NONE', #148 ) ;
#324 = DIRECTION ( 'NONE',  ( -0.0000000000000000000, -0.0000000000000000000, -1.000000000000000000 ) ) ;
#325 = CIRCLE ( 'NONE', #77, 0.3124500000000000610 ) ;
#326 = COLOUR_RGB ( '',0.7921568627450980005, 0.8196078431372548767, 0.9333333333333333481 ) ;
#327 = ORIENTED_EDGE ( 'NONE', *, *, #21, .F. ) ;
#328 = FACE_OUTER_BOUND ( 'NONE', #59, .T. ) ;
#329 = ORIENTED_EDGE ( 'NONE', *, *, #295, .T. ) ;
ENDSEC;
END-ISO-10303-21;
