ISO-10303-21;
HEADER;
FILE_DESCRIPTION (( 'STEP AP214' ),
    '1' );
FILE_NAME ('07028.STEP',
    '2023-07-12T13:05:16',
    ( '' ),
    ( '' ),
    'SwSTEP 2.0',
    'SolidWorks 2023',
    '' );
FILE_SCHEMA (( 'AUTOMOTIVE_DESIGN' ));
ENDSEC;

DATA;
#1 = DIMENSIONAL_EXPONENTS ( 1.000000000000000000, 0.000000000000000000, 0.000000000000000000, 0.000000000000000000, 0.000000000000000000, 0.000000000000000000, 0.000000000000000000 ) ;
#2 = VECTOR ( 'NONE', #194, 39.37007874015748143 ) ;
#3 = EDGE_CURVE ( 'NONE', #266, #238, #55, .T. ) ;
#4 = SURFACE_SIDE_STYLE ('',( #222 ) ) ;
#5 = AXIS2_PLACEMENT_3D ( 'NONE', #32, #104, #225 ) ;
#6 = CARTESIAN_POINT ( 'NONE',  ( 0.1874999999999999722, 2.500000000000000000, 2.296212748401285877E-17 ) ) ;
#7 =( NAMED_UNIT ( * ) PLANE_ANGLE_UNIT ( ) SI_UNIT ( $, .RADIAN. ) );
#8 = PRESENTATION_LAYER_ASSIGNMENT (  '', '', ( #48 ) ) ;
#9 = AXIS2_PLACEMENT_3D ( 'NONE', #286, #18, #56 ) ;
#10 = SURFACE_STYLE_FILL_AREA ( #81 ) ;
#11 = VERTEX_POINT ( 'NONE', #262 ) ;
#12 = FILL_AREA_STYLE_COLOUR ( '', #178 ) ;
#13 = ADVANCED_FACE ( 'NONE', ( #307 ), #89, .F. ) ;
#14 = CARTESIAN_POINT ( 'NONE',  ( 6.123233995736772199E-17, 2.500000000000000000, 0.000000000000000000 ) ) ;
#15 = ORIENTED_EDGE ( 'NONE', *, *, #49, .F. ) ;
#16 = ORIENTED_EDGE ( 'NONE', *, *, #60, .F. ) ;
#17 = ORIENTED_EDGE ( 'NONE', *, *, #3, .T. ) ;
#18 = DIRECTION ( 'NONE',  ( -1.157451051205385884E-16, 1.000000000000000000, -0.000000000000000000 ) ) ;
#19 = FILL_AREA_STYLE ('',( #42 ) ) ;
#20 = DIRECTION ( 'NONE',  ( -1.157451051205385884E-16, 1.000000000000000000, -0.000000000000000000 ) ) ;
#21 = CARTESIAN_POINT ( 'NONE',  ( 0.000000000000000000, 0.000000000000000000, 0.000000000000000000 ) ) ;
#22 = PRESENTATION_STYLE_ASSIGNMENT (( #99 ) ) ;
#23 = CARTESIAN_POINT ( 'NONE',  ( 1.511781267606909148E-34, -1.626535341857683315E-18, 0.000000000000000000 ) ) ;
#24 = PRESENTATION_LAYER_ASSIGNMENT (  '', '', ( #306 ) ) ;
#25 = CIRCLE ( 'NONE', #54, 0.1874999999999999722 ) ;
#26 = FILL_AREA_STYLE ('',( #221 ) ) ;
#27 = DIRECTION ( 'NONE',  ( -1.000000000000000000, -9.294487667758189800E-17, 0.000000000000000000 ) ) ;
#28 = ORIENTED_EDGE ( 'NONE', *, *, #38, .F. ) ;
#29 = CLOSED_SHELL ( 'NONE', ( #209, #184, #153, #53 ) ) ;
#30 = CYLINDRICAL_SURFACE ( 'NONE', #288, 0.1874999999999997780 ) ;
#31 = EDGE_CURVE ( 'NONE', #230, #77, #67, .T. ) ;
#32 = CARTESIAN_POINT ( 'NONE',  ( -1.417409369333118493E-17, 0.1524999999999994138, 0.000000000000000000 ) ) ;
#33 = AXIS2_PLACEMENT_3D ( 'NONE', #220, #164, #243 ) ;
#34 = CARTESIAN_POINT ( 'NONE',  ( -1.417409369333118801E-17, 0.1524999999999994416, 0.000000000000000000 ) ) ;
#35 = ORIENTED_EDGE ( 'NONE', *, *, #87, .F. ) ;
#36 = STYLED_ITEM ( 'NONE', ( #134 ), #224 ) ;
#37 = ORIENTED_EDGE ( 'NONE', *, *, #31, .F. ) ;
#38 = EDGE_CURVE ( 'NONE', #254, #230, #59, .T. ) ;
#39 = EDGE_CURVE ( 'NONE', #266, #133, #108, .T. ) ;
#40 = ORIENTED_EDGE ( 'NONE', *, *, #174, .F. ) ;
#41 = PRODUCT_CONTEXT ( 'NONE', #226, 'mechanical' ) ;
#42 = FILL_AREA_STYLE_COLOUR ( '', #227 ) ;
#43 = CARTESIAN_POINT ( 'NONE',  ( 0.03500000000000000333, 0.000000000000000000, 1.362419564051430200E-17 ) ) ;
#44 = DIRECTION ( 'NONE',  ( 1.157451051205385884E-16, -1.000000000000000000, 0.000000000000000000 ) ) ;
#45 = UNCERTAINTY_MEASURE_WITH_UNIT (LENGTH_MEASURE( 1.000000000000000082E-05 ), #244, 'distance_accuracy_value', 'NONE');
#46 = PRODUCT ( '07028', '07028', '', ( #41 ) ) ;
#47 = DIRECTION ( 'NONE',  ( -1.157451051205385884E-16, 1.000000000000000000, -0.000000000000000000 ) ) ;
#48 = STYLED_ITEM ( 'NONE', ( #22 ), #109 ) ;
#49 = EDGE_CURVE ( 'NONE', #254, #11, #294, .T. ) ;
#50 = SURFACE_STYLE_USAGE ( .BOTH. , #301 ) ;
#51 = CARTESIAN_POINT ( 'NONE',  ( 6.123233995736772199E-17, 2.500000000000000000, 0.000000000000000000 ) ) ;
#52 = ORIENTED_EDGE ( 'NONE', *, *, #296, .T. ) ;
#53 = ADVANCED_FACE ( 'NONE', ( #57 ), #287, .T. ) ;
#54 = AXIS2_PLACEMENT_3D ( 'NONE', #34, #159, #84 ) ;
#55 = LINE ( 'NONE', #245, #214 ) ;
#56 = DIRECTION ( 'NONE',  ( -1.000000000000000000, -9.106159978880894651E-17, 0.000000000000000000 ) ) ;
#57 = FACE_OUTER_BOUND ( 'NONE', #285, .T. ) ;
#58 = DIRECTION ( 'NONE',  ( -9.294487667758189800E-17, 1.000000000000000000, 0.000000000000000000 ) ) ;
#59 = LINE ( 'NONE', #259, #2 ) ;
#60 = EDGE_CURVE ( 'NONE', #133, #78, #275, .T. ) ;
#61 = UNCERTAINTY_MEASURE_WITH_UNIT (LENGTH_MEASURE( 1.000000000000000082E-05 ), #122, 'distance_accuracy_value', 'NONE');
#62 =( GEOMETRIC_REPRESENTATION_CONTEXT ( 3 ) GLOBAL_UNCERTAINTY_ASSIGNED_CONTEXT ( ( #61 ) ) GLOBAL_UNIT_ASSIGNED_CONTEXT ( ( #122, #73, #69 ) ) REPRESENTATION_CONTEXT ( 'NONE', 'WORKASPACE' ) );
#63 = PRESENTATION_STYLE_ASSIGNMENT (( #162 ) ) ;
#64 = LENGTH_MEASURE_WITH_UNIT ( LENGTH_MEASURE( 0.02539999999999999897 ), #94 );
#65 = FILL_AREA_STYLE_COLOUR ( '', #274 ) ;
#66 = DIMENSIONAL_EXPONENTS ( 1.000000000000000000, 0.000000000000000000, 0.000000000000000000, 0.000000000000000000, 0.000000000000000000, 0.000000000000000000, 0.000000000000000000 ) ;
#67 = CIRCLE ( 'NONE', #131, 0.1874999999999999167 ) ;
#68 = VECTOR ( 'NONE', #117, 39.37007874015748143 ) ;
#69 =( NAMED_UNIT ( * ) SI_UNIT ( $, .STERADIAN. ) SOLID_ANGLE_UNIT ( ) );
#70 = FACE_OUTER_BOUND ( 'NONE', #129, .T. ) ;
#71 = DIRECTION ( 'NONE',  ( 1.000000000000000000, 1.157451051205385884E-16, 0.000000000000000000 ) ) ;
#72 = ADVANCED_FACE ( 'NONE', ( #175 ), #270, .T. ) ;
#73 =( NAMED_UNIT ( * ) PLANE_ANGLE_UNIT ( ) SI_UNIT ( $, .RADIAN. ) );
#74 = STYLED_ITEM ( 'NONE', ( #75 ), #209 ) ;
#75 = PRESENTATION_STYLE_ASSIGNMENT (( #50 ) ) ;
#76 =( LENGTH_UNIT ( ) NAMED_UNIT ( * ) SI_UNIT ( $, .METRE. ) );
#77 = VERTEX_POINT ( 'NONE', #6 ) ;
#78 = VERTEX_POINT ( 'NONE', #151 ) ;
#79 = PRESENTATION_LAYER_ASSIGNMENT (  '', '', ( #121 ) ) ;
#80 = CARTESIAN_POINT ( 'NONE',  ( 3.023562535213818295E-34, -3.253070683715366630E-18, 0.000000000000000000 ) ) ;
#81 = FILL_AREA_STYLE ('',( #12 ) ) ;
#82 = APPLICATION_PROTOCOL_DEFINITION ( 'draft international standard', 'automotive_design', 1998, #226 ) ;
#83 = MECHANICAL_DESIGN_GEOMETRIC_PRESENTATION_REPRESENTATION (  '', ( #138 ), #144 ) ;
#84 = DIRECTION ( 'NONE',  ( 1.000000000000000000, 9.106159978880878627E-17, 0.000000000000000000 ) ) ;
#85 = ORIENTED_EDGE ( 'NONE', *, *, #296, .F. ) ;
#86 = CARTESIAN_POINT ( 'NONE',  ( -0.1874999999999999722, 0.1524999999999994416, 0.000000000000000000 ) ) ;
#87 = EDGE_CURVE ( 'NONE', #11, #77, #152, .T. ) ;
#88 = LENGTH_MEASURE_WITH_UNIT ( LENGTH_MEASURE( 0.02539999999999999897 ), #216 );
#89 = PLANE ( 'NONE',  #261 ) ;
#90 = AXIS2_PLACEMENT_3D ( 'NONE', #80, #58, #198 ) ;
#91 =( GEOMETRIC_REPRESENTATION_CONTEXT ( 3 ) GLOBAL_UNCERTAINTY_ASSIGNED_CONTEXT ( ( #211 ) ) GLOBAL_UNIT_ASSIGNED_CONTEXT ( ( #181, #154, #191 ) ) REPRESENTATION_CONTEXT ( 'NONE', 'WORKASPACE' ) );
#92 = DIRECTION ( 'NONE',  ( 9.294487667758189800E-17, -1.000000000000000000, -0.000000000000000000 ) ) ;
#93 = AXIS2_PLACEMENT_3D ( 'NONE', #21, #116, #246 ) ;
#94 =( LENGTH_UNIT ( ) NAMED_UNIT ( * ) SI_UNIT ( $, .METRE. ) );
#95 = DIMENSIONAL_EXPONENTS ( 1.000000000000000000, 0.000000000000000000, 0.000000000000000000, 0.000000000000000000, 0.000000000000000000, 0.000000000000000000, 0.000000000000000000 ) ;
#96 = CIRCLE ( 'NONE', #277, 0.1874999999999999167 ) ;
#97 =( CONVERSION_BASED_UNIT ( 'INCH', #171 ) LENGTH_UNIT ( ) NAMED_UNIT ( #95 ) );
#98 = PLANE ( 'NONE',  #268 ) ;
#99 = SURFACE_STYLE_USAGE ( .BOTH. , #4 ) ;
#100 = ORIENTED_EDGE ( 'NONE', *, *, #3, .F. ) ;
#101 = SURFACE_STYLE_USAGE ( .BOTH. , #276 ) ;
#102 = ORIENTED_EDGE ( 'NONE', *, *, #31, .T. ) ;
#103 = AXIS2_PLACEMENT_3D ( 'NONE', #23, #118, #204 ) ;
#104 = DIRECTION ( 'NONE',  ( -9.294487667758189800E-17, 1.000000000000000000, 0.000000000000000000 ) ) ;
#105 = ORIENTED_EDGE ( 'NONE', *, *, #241, .F. ) ;
#106 = SURFACE_STYLE_FILL_AREA ( #139 ) ;
#107 = CARTESIAN_POINT ( 'NONE',  ( 6.123233995736772199E-17, 2.500000000000000000, 0.000000000000000000 ) ) ;
#108 = CIRCLE ( 'NONE', #177, 0.03500000000000000333 ) ;
#109 = MANIFOLD_SOLID_BREP ( 'Revolve - Tool Body (Tipped Off)', #273 ) ;
#110 = ORIENTED_EDGE ( 'NONE', *, *, #39, .F. ) ;
#111 = UNCERTAINTY_MEASURE_WITH_UNIT (LENGTH_MEASURE( 1.000000000000000082E-05 ), #97, 'distance_accuracy_value', 'NONE');
#112 =( NAMED_UNIT ( * ) PLANE_ANGLE_UNIT ( ) SI_UNIT ( $, .RADIAN. ) );
#113 = ORIENTED_EDGE ( 'NONE', *, *, #272, .F. ) ;
#114 =( NAMED_UNIT ( * ) PLANE_ANGLE_UNIT ( ) SI_UNIT ( $, .RADIAN. ) );
#115 = SURFACE_SIDE_STYLE ('',( #142 ) ) ;
#116 = DIRECTION ( 'NONE',  ( 0.000000000000000000, 0.000000000000000000, 1.000000000000000000 ) ) ;
#117 = DIRECTION ( 'NONE',  ( 0.7071067811865486830, 0.7071067811865464625, 8.659560562354948882E-17 ) ) ;
#118 = DIRECTION ( 'NONE',  ( 9.294487667758189800E-17, -1.000000000000000000, -0.000000000000000000 ) ) ;
#119 = UNCERTAINTY_MEASURE_WITH_UNIT (LENGTH_MEASURE( 1.000000000000000082E-05 ), #258, 'distance_accuracy_value', 'NONE');
#120 = ADVANCED_FACE ( 'NONE', ( #70 ), #98, .F. ) ;
#121 = STYLED_ITEM ( 'NONE', ( #291 ), #153 ) ;
#122 =( CONVERSION_BASED_UNIT ( 'INCH', #203 ) LENGTH_UNIT ( ) NAMED_UNIT ( #66 ) );
#123 = PRODUCT_DEFINITION_SHAPE ( 'NONE', 'NONE',  #271 ) ;
#124 =( NAMED_UNIT ( * ) PLANE_ANGLE_UNIT ( ) SI_UNIT ( $, .RADIAN. ) );
#125 = LENGTH_MEASURE_WITH_UNIT ( LENGTH_MEASURE( 0.02539999999999999897 ), #279 );
#126 = MECHANICAL_DESIGN_GEOMETRIC_PRESENTATION_REPRESENTATION (  '', ( #121 ), #251 ) ;
#127 = ORIENTED_EDGE ( 'NONE', *, *, #304, .T. ) ;
#128 = SURFACE_STYLE_FILL_AREA ( #299 ) ;
#129 = EDGE_LOOP ( 'NONE', ( #102, #140 ) ) ;
#130 = DIRECTION ( 'NONE',  ( -1.000000000000000000, 0.000000000000000000, 0.000000000000000000 ) ) ;
#131 = AXIS2_PLACEMENT_3D ( 'NONE', #107, #20, #215 ) ;
#132 = COLOUR_RGB ( '',0.7921568627450980005, 0.8196078431372548767, 0.9333333333333333481 ) ;
#133 = VERTEX_POINT ( 'NONE', #43 ) ;
#134 = PRESENTATION_STYLE_ASSIGNMENT (( #193 ) ) ;
#135 = EDGE_LOOP ( 'NONE', ( #113, #309, #127, #100 ) ) ;
#136 = CARTESIAN_POINT ( 'NONE',  ( -1.417409369333118801E-17, 0.1524999999999994416, 0.000000000000000000 ) ) ;
#137 = EDGE_LOOP ( 'NONE', ( #229, #167, #37, #28 ) ) ;
#138 = STYLED_ITEM ( 'NONE', ( #63 ), #53 ) ;
#139 = FILL_AREA_STYLE ('',( #235 ) ) ;
#140 = ORIENTED_EDGE ( 'NONE', *, *, #174, .T. ) ;
#141 =( LENGTH_UNIT ( ) NAMED_UNIT ( * ) SI_UNIT ( $, .METRE. ) );
#142 = SURFACE_STYLE_FILL_AREA ( #19 ) ;
#143 =( CONVERSION_BASED_UNIT ( 'INCH', #64 ) LENGTH_UNIT ( ) NAMED_UNIT ( #1 ) );
#144 =( GEOMETRIC_REPRESENTATION_CONTEXT ( 3 ) GLOBAL_UNCERTAINTY_ASSIGNED_CONTEXT ( ( #168 ) ) GLOBAL_UNIT_ASSIGNED_CONTEXT ( ( #143, #213, #186 ) ) REPRESENTATION_CONTEXT ( 'NONE', 'WORKASPACE' ) );
#145 = CARTESIAN_POINT ( 'NONE',  ( 3.023562535213818295E-34, -3.253070683715366630E-18, 0.000000000000000000 ) ) ;
#146 = DIMENSIONAL_EXPONENTS ( 1.000000000000000000, 0.000000000000000000, 0.000000000000000000, 0.000000000000000000, 0.000000000000000000, 0.000000000000000000, 0.000000000000000000 ) ;
#147 = APPLICATION_CONTEXT ( 'automotive_design' ) ;
#148 =( LENGTH_UNIT ( ) NAMED_UNIT ( * ) SI_UNIT ( $, .METRE. ) );
#149 =( LENGTH_UNIT ( ) NAMED_UNIT ( * ) SI_UNIT ( $, .METRE. ) );
#150 = COLOUR_RGB ( '',1.000000000000000000, 0.000000000000000000, 0.000000000000000000 ) ;
#151 = CARTESIAN_POINT ( 'NONE',  ( 0.1874999999999999445, 0.1524999999999994693, 2.296212748401287109E-17 ) ) ;
#152 = LINE ( 'NONE', #252, #297 ) ;
#153 = ADVANCED_FACE ( 'NONE', ( #250 ), #255, .T. ) ;
#154 =( NAMED_UNIT ( * ) PLANE_ANGLE_UNIT ( ) SI_UNIT ( $, .RADIAN. ) );
#155 = DIRECTION ( 'NONE',  ( -1.157451051205385884E-16, 1.000000000000000000, -0.000000000000000000 ) ) ;
#156 = ORIENTED_EDGE ( 'NONE', *, *, #39, .T. ) ;
#157 = PRESENTATION_LAYER_ASSIGNMENT (  '', '', ( #36 ) ) ;
#158 = AXIS2_PLACEMENT_3D ( 'NONE', #290, #92, #163 ) ;
#159 = DIRECTION ( 'NONE',  ( 9.294487667758189800E-17, -1.000000000000000000, -0.000000000000000000 ) ) ;
#160 = DIRECTION ( 'NONE',  ( -1.000000000000000000, -1.157451051205385884E-16, 0.000000000000000000 ) ) ;
#161 =( NAMED_UNIT ( * ) SI_UNIT ( $, .STERADIAN. ) SOLID_ANGLE_UNIT ( ) );
#162 = SURFACE_STYLE_USAGE ( .BOTH. , #115 ) ;
#163 = DIRECTION ( 'NONE',  ( 1.000000000000000000, 9.294487667758189800E-17, 0.000000000000000000 ) ) ;
#164 = DIRECTION ( 'NONE',  ( -1.157451051205385884E-16, 1.000000000000000000, -0.000000000000000000 ) ) ;
#165 = CARTESIAN_POINT ( 'NONE',  ( -0.1874999999999993061, 0.1524999999999995248, 0.000000000000000000 ) ) ;
#166 = ADVANCED_BREP_SHAPE_REPRESENTATION ( '07028', ( #224, #109, #93 ), #179 ) ;
#167 = ORIENTED_EDGE ( 'NONE', *, *, #87, .T. ) ;
#168 = UNCERTAINTY_MEASURE_WITH_UNIT (LENGTH_MEASURE( 1.000000000000000082E-05 ), #143, 'distance_accuracy_value', 'NONE');
#169 = SHAPE_DEFINITION_REPRESENTATION ( #123, #166 ) ;
#170 = EDGE_LOOP ( 'NONE', ( #105, #219 ) ) ;
#171 = LENGTH_MEASURE_WITH_UNIT ( LENGTH_MEASURE( 0.02539999999999999897 ), #148 );
#172 = PRODUCT_DEFINITION_CONTEXT ( 'detailed design', #147, 'design' ) ;
#173 = SURFACE_STYLE_FILL_AREA ( #205 ) ;
#174 = EDGE_CURVE ( 'NONE', #77, #230, #96, .T. ) ;
#175 = FACE_OUTER_BOUND ( 'NONE', #282, .T. ) ;
#176 = SURFACE_SIDE_STYLE ('',( #173 ) ) ;
#177 = AXIS2_PLACEMENT_3D ( 'NONE', #260, #190, #284 ) ;
#178 = COLOUR_RGB ( '',1.000000000000000000, 0.000000000000000000, 0.000000000000000000 ) ;
#179 =( GEOMETRIC_REPRESENTATION_CONTEXT ( 3 ) GLOBAL_UNCERTAINTY_ASSIGNED_CONTEXT ( ( #45 ) ) GLOBAL_UNIT_ASSIGNED_CONTEXT ( ( #244, #114, #161 ) ) REPRESENTATION_CONTEXT ( 'NONE', 'WORKASPACE' ) );
#180 = CARTESIAN_POINT ( 'NONE',  ( 0.03500000000000000333, 0.000000000000000000, 4.286263797015735979E-18 ) ) ;
#181 =( CONVERSION_BASED_UNIT ( 'INCH', #303 ) LENGTH_UNIT ( ) NAMED_UNIT ( #289 ) );
#182 =( CONVERSION_BASED_UNIT ( 'INCH', #125 ) LENGTH_UNIT ( ) NAMED_UNIT ( #146 ) );
#183 = CIRCLE ( 'NONE', #9, 0.1874999999999996392 ) ;
#184 = ADVANCED_FACE ( 'NONE', ( #253 ), #231, .T. ) ;
#185 = PRESENTATION_STYLE_ASSIGNMENT (( #101 ) ) ;
#186 =( NAMED_UNIT ( * ) SI_UNIT ( $, .STERADIAN. ) SOLID_ANGLE_UNIT ( ) );
#187 = MECHANICAL_DESIGN_GEOMETRIC_PRESENTATION_REPRESENTATION (  '', ( #48 ), #62 ) ;
#188 = CIRCLE ( 'NONE', #158, 0.03500000000000000333 ) ;
#189 = DIRECTION ( 'NONE',  ( 9.294487667758189800E-17, -1.000000000000000000, -0.000000000000000000 ) ) ;
#190 = DIRECTION ( 'NONE',  ( 9.294487667758189800E-17, -1.000000000000000000, -0.000000000000000000 ) ) ;
#191 =( NAMED_UNIT ( * ) SI_UNIT ( $, .STERADIAN. ) SOLID_ANGLE_UNIT ( ) );
#192 = DIRECTION ( 'NONE',  ( -0.7071067811865487940, 0.7071067811865461294, 0.000000000000000000 ) ) ;
#193 = SURFACE_STYLE_USAGE ( .BOTH. , #212 ) ;
#194 = DIRECTION ( 'NONE',  ( -1.157451051205385884E-16, 1.000000000000000000, -0.000000000000000000 ) ) ;
#195 = PRESENTATION_LAYER_ASSIGNMENT (  '', '', ( #74 ) ) ;
#196 = ADVANCED_FACE ( 'NONE', ( #207 ), #30, .T. ) ;
#197 =( GEOMETRIC_REPRESENTATION_CONTEXT ( 3 ) GLOBAL_UNCERTAINTY_ASSIGNED_CONTEXT ( ( #119 ) ) GLOBAL_UNIT_ASSIGNED_CONTEXT ( ( #258, #112, #242 ) ) REPRESENTATION_CONTEXT ( 'NONE', 'WORKASPACE' ) );
#198 = DIRECTION ( 'NONE',  ( -1.000000000000000000, -9.294487667758189800E-17, 0.000000000000000000 ) ) ;
#199 = APPLICATION_PROTOCOL_DEFINITION ( 'draft international standard', 'automotive_design', 1998, #147 ) ;
#200 = DIRECTION ( 'NONE',  ( -1.157451051205385884E-16, 1.000000000000000000, -0.000000000000000000 ) ) ;
#201 = DIMENSIONAL_EXPONENTS ( 1.000000000000000000, 0.000000000000000000, 0.000000000000000000, 0.000000000000000000, 0.000000000000000000, 0.000000000000000000, 0.000000000000000000 ) ;
#202 = AXIS2_PLACEMENT_3D ( 'NONE', #249, #47, #248 ) ;
#203 = LENGTH_MEASURE_WITH_UNIT ( LENGTH_MEASURE( 0.02539999999999999897 ), #149 );
#204 = DIRECTION ( 'NONE',  ( 1.000000000000000000, 9.294487667758189800E-17, 0.000000000000000000 ) ) ;
#205 = FILL_AREA_STYLE ('',( #65 ) ) ;
#206 = DIRECTION ( 'NONE',  ( -1.000000000000000000, 0.000000000000000000, 0.000000000000000000 ) ) ;
#207 = FACE_OUTER_BOUND ( 'NONE', #137, .T. ) ;
#208 = EDGE_LOOP ( 'NONE', ( #15, #85 ) ) ;
#209 = ADVANCED_FACE ( 'NONE', ( #278 ), #232, .T. ) ;
#210 = FILL_AREA_STYLE_COLOUR ( '', #150 ) ;
#211 = UNCERTAINTY_MEASURE_WITH_UNIT (LENGTH_MEASURE( 1.000000000000000082E-05 ), #181, 'distance_accuracy_value', 'NONE');
#212 = SURFACE_SIDE_STYLE ('',( #106 ) ) ;
#213 =( NAMED_UNIT ( * ) PLANE_ANGLE_UNIT ( ) SI_UNIT ( $, .RADIAN. ) );
#214 = VECTOR ( 'NONE', #192, 39.37007874015748854 ) ;
#215 = DIRECTION ( 'NONE',  ( -1.000000000000000000, 0.000000000000000000, 0.000000000000000000 ) ) ;
#216 =( LENGTH_UNIT ( ) NAMED_UNIT ( * ) SI_UNIT ( $, .METRE. ) );
#217 = EDGE_LOOP ( 'NONE', ( #16, #110, #17, #300 ) ) ;
#218 = PRODUCT_RELATED_PRODUCT_CATEGORY ( 'part', '', ( #46 ) ) ;
#219 = ORIENTED_EDGE ( 'NONE', *, *, #304, .F. ) ;
#220 = CARTESIAN_POINT ( 'NONE',  ( 3.329439742278320982E-16, 0.1524999999999995248, 0.000000000000000000 ) ) ;
#221 = FILL_AREA_STYLE_COLOUR ( '', #302 ) ;
#222 = SURFACE_STYLE_FILL_AREA ( #26 ) ;
#223 = CARTESIAN_POINT ( 'NONE',  ( 0.1874999999999999722, 2.500000000000000000, 0.000000000000000000 ) ) ;
#224 = MANIFOLD_SOLID_BREP ( 'Revolve - Cutting Edge', #29 ) ;
#225 = DIRECTION ( 'NONE',  ( -1.000000000000000000, -9.294487667758189800E-17, 0.000000000000000000 ) ) ;
#226 = APPLICATION_CONTEXT ( 'automotive_design' ) ;
#227 = COLOUR_RGB ( '',1.000000000000000000, 0.000000000000000000, 0.000000000000000000 ) ;
#228 =( NAMED_UNIT ( * ) SI_UNIT ( $, .STERADIAN. ) SOLID_ANGLE_UNIT ( ) );
#229 = ORIENTED_EDGE ( 'NONE', *, *, #49, .T. ) ;
#230 = VERTEX_POINT ( 'NONE', #265 ) ;
#231 = PLANE ( 'NONE',  #5 ) ;
#232 = CONICAL_SURFACE ( 'NONE', #90, 0.03500000000000000333, 0.7853981633974500554 ) ;
#233 =( NAMED_UNIT ( * ) SI_UNIT ( $, .STERADIAN. ) SOLID_ANGLE_UNIT ( ) );
#234 = MECHANICAL_DESIGN_GEOMETRIC_PRESENTATION_REPRESENTATION (  '', ( #74 ), #91 ) ;
#235 = FILL_AREA_STYLE_COLOUR ( '', #132 ) ;
#236 = ORIENTED_EDGE ( 'NONE', *, *, #38, .T. ) ;
#237 = CARTESIAN_POINT ( 'NONE',  ( -0.03500000000000000333, -6.506141367430733261E-18, 0.000000000000000000 ) ) ;
#238 = VERTEX_POINT ( 'NONE', #86 ) ;
#239 = ORIENTED_EDGE ( 'NONE', *, *, #272, .T. ) ;
#240 = PRODUCT_DEFINITION_FORMATION_WITH_SPECIFIED_SOURCE ( 'ANY', '', #46, .NOT_KNOWN. ) ;
#241 = EDGE_CURVE ( 'NONE', #238, #78, #25, .T. ) ;
#242 =( NAMED_UNIT ( * ) SI_UNIT ( $, .STERADIAN. ) SOLID_ANGLE_UNIT ( ) );
#243 = DIRECTION ( 'NONE',  ( -1.000000000000000000, -9.106159978880894651E-17, 0.000000000000000000 ) ) ;
#244 =( CONVERSION_BASED_UNIT ( 'INCH', #281 ) LENGTH_UNIT ( ) NAMED_UNIT ( #201 ) );
#245 = CARTESIAN_POINT ( 'NONE',  ( -0.03500000000000000333, -6.506141367430733261E-18, 0.000000000000000000 ) ) ;
#246 = DIRECTION ( 'NONE',  ( 1.000000000000000000, 0.000000000000000000, 0.000000000000000000 ) ) ;
#247 =( GEOMETRIC_REPRESENTATION_CONTEXT ( 3 ) GLOBAL_UNCERTAINTY_ASSIGNED_CONTEXT ( ( #292 ) ) GLOBAL_UNIT_ASSIGNED_CONTEXT ( ( #182, #7, #228 ) ) REPRESENTATION_CONTEXT ( 'NONE', 'WORKASPACE' ) );
#248 = DIRECTION ( 'NONE',  ( -1.000000000000000000, 0.000000000000000000, 0.000000000000000000 ) ) ;
#249 = CARTESIAN_POINT ( 'NONE',  ( 6.123233995736772199E-17, 2.500000000000000000, 0.000000000000000000 ) ) ;
#250 = FACE_OUTER_BOUND ( 'NONE', #217, .T. ) ;
#251 =( GEOMETRIC_REPRESENTATION_CONTEXT ( 3 ) GLOBAL_UNCERTAINTY_ASSIGNED_CONTEXT ( ( #111 ) ) GLOBAL_UNIT_ASSIGNED_CONTEXT ( ( #97, #124, #233 ) ) REPRESENTATION_CONTEXT ( 'NONE', 'WORKASPACE' ) );
#252 = CARTESIAN_POINT ( 'NONE',  ( 0.1874999999999998335, 2.500000000000000000, 2.296212748401284644E-17 ) ) ;
#253 = FACE_OUTER_BOUND ( 'NONE', #170, .T. ) ;
#254 = VERTEX_POINT ( 'NONE', #165 ) ;
#255 = CONICAL_SURFACE ( 'NONE', #295, 0.03500000000000000333, 0.7853981633974500554 ) ;
#256 = DIRECTION ( 'NONE',  ( -9.294487667758189800E-17, 1.000000000000000000, 0.000000000000000000 ) ) ;
#257 = MECHANICAL_DESIGN_GEOMETRIC_PRESENTATION_REPRESENTATION (  '', ( #36 ), #197 ) ;
#258 =( CONVERSION_BASED_UNIT ( 'INCH', #88 ) LENGTH_UNIT ( ) NAMED_UNIT ( #293 ) );
#259 = CARTESIAN_POINT ( 'NONE',  ( -0.1874999999999996947, 2.500000000000000000, 0.000000000000000000 ) ) ;
#260 = CARTESIAN_POINT ( 'NONE',  ( 3.023562535213818295E-34, -3.253070683715366630E-18, 0.000000000000000000 ) ) ;
#261 = AXIS2_PLACEMENT_3D ( 'NONE', #308, #267, #160 ) ;
#262 = CARTESIAN_POINT ( 'NONE',  ( 0.1874999999999999722, 0.1524999999999995526, 2.296212748401285877E-17 ) ) ;
#263 = MECHANICAL_DESIGN_GEOMETRIC_PRESENTATION_REPRESENTATION (  '', ( #306 ), #247 ) ;
#264 = CIRCLE ( 'NONE', #298, 0.1874999999999999722 ) ;
#265 = CARTESIAN_POINT ( 'NONE',  ( -0.1874999999999998335, 2.500000000000000000, 0.000000000000000000 ) ) ;
#266 = VERTEX_POINT ( 'NONE', #237 ) ;
#267 = DIRECTION ( 'NONE',  ( -1.157451051205385884E-16, 1.000000000000000000, 0.000000000000000000 ) ) ;
#268 = AXIS2_PLACEMENT_3D ( 'NONE', #223, #44, #71 ) ;
#269 = SURFACE_STYLE_USAGE ( .BOTH. , #176 ) ;
#270 = CYLINDRICAL_SURFACE ( 'NONE', #202, 0.1874999999999997780 ) ;
#271 = PRODUCT_DEFINITION ( 'UNKNOWN', '', #240, #172 ) ;
#272 = EDGE_CURVE ( 'NONE', #133, #266, #188, .T. ) ;
#273 = CLOSED_SHELL ( 'NONE', ( #196, #13, #72, #120 ) ) ;
#274 = COLOUR_RGB ( '',1.000000000000000000, 0.000000000000000000, 0.000000000000000000 ) ;
#275 = LINE ( 'NONE', #180, #68 ) ;
#276 = SURFACE_SIDE_STYLE ('',( #10 ) ) ;
#277 = AXIS2_PLACEMENT_3D ( 'NONE', #51, #305, #206 ) ;
#278 = FACE_OUTER_BOUND ( 'NONE', #135, .T. ) ;
#279 =( LENGTH_UNIT ( ) NAMED_UNIT ( * ) SI_UNIT ( $, .METRE. ) );
#280 = PRESENTATION_LAYER_ASSIGNMENT (  '', '', ( #138 ) ) ;
#281 = LENGTH_MEASURE_WITH_UNIT ( LENGTH_MEASURE( 0.02539999999999999897 ), #141 );
#282 = EDGE_LOOP ( 'NONE', ( #35, #52, #236, #40 ) ) ;
#283 = DIRECTION ( 'NONE',  ( 1.000000000000000000, 9.106159978880878627E-17, 0.000000000000000000 ) ) ;
#284 = DIRECTION ( 'NONE',  ( 1.000000000000000000, 9.294487667758189800E-17, 0.000000000000000000 ) ) ;
#285 = EDGE_LOOP ( 'NONE', ( #156, #239 ) ) ;
#286 = CARTESIAN_POINT ( 'NONE',  ( 3.329439742278320982E-16, 0.1524999999999995248, 0.000000000000000000 ) ) ;
#287 = PLANE ( 'NONE',  #103 ) ;
#288 = AXIS2_PLACEMENT_3D ( 'NONE', #14, #155, #130 ) ;
#289 = DIMENSIONAL_EXPONENTS ( 1.000000000000000000, 0.000000000000000000, 0.000000000000000000, 0.000000000000000000, 0.000000000000000000, 0.000000000000000000, 0.000000000000000000 ) ;
#290 = CARTESIAN_POINT ( 'NONE',  ( 3.023562535213818295E-34, -3.253070683715366630E-18, 0.000000000000000000 ) ) ;
#291 = PRESENTATION_STYLE_ASSIGNMENT (( #269 ) ) ;
#292 = UNCERTAINTY_MEASURE_WITH_UNIT (LENGTH_MEASURE( 1.000000000000000082E-05 ), #182, 'distance_accuracy_value', 'NONE');
#293 = DIMENSIONAL_EXPONENTS ( 1.000000000000000000, 0.000000000000000000, 0.000000000000000000, 0.000000000000000000, 0.000000000000000000, 0.000000000000000000, 0.000000000000000000 ) ;
#294 = CIRCLE ( 'NONE', #33, 0.1874999999999996392 ) ;
#295 = AXIS2_PLACEMENT_3D ( 'NONE', #145, #256, #27 ) ;
#296 = EDGE_CURVE ( 'NONE', #11, #254, #183, .T. ) ;
#297 = VECTOR ( 'NONE', #200, 39.37007874015748143 ) ;
#298 = AXIS2_PLACEMENT_3D ( 'NONE', #136, #189, #283 ) ;
#299 = FILL_AREA_STYLE ('',( #210 ) ) ;
#300 = ORIENTED_EDGE ( 'NONE', *, *, #241, .T. ) ;
#301 = SURFACE_SIDE_STYLE ('',( #128 ) ) ;
#302 = COLOUR_RGB ( '',0.7921568627450980005, 0.8196078431372548767, 0.9333333333333333481 ) ;
#303 = LENGTH_MEASURE_WITH_UNIT ( LENGTH_MEASURE( 0.02539999999999999897 ), #76 );
#304 = EDGE_CURVE ( 'NONE', #78, #238, #264, .T. ) ;
#305 = DIRECTION ( 'NONE',  ( -1.157451051205385884E-16, 1.000000000000000000, -0.000000000000000000 ) ) ;
#306 = STYLED_ITEM ( 'NONE', ( #185 ), #184 ) ;
#307 = FACE_OUTER_BOUND ( 'NONE', #208, .T. ) ;
#308 = CARTESIAN_POINT ( 'NONE',  ( 3.329439742278320982E-16, 0.1524999999999994416, 0.000000000000000000 ) ) ;
#309 = ORIENTED_EDGE ( 'NONE', *, *, #60, .T. ) ;
ENDSEC;
END-ISO-10303-21;
