ISO-10303-21;
HEADER;
FILE_DESCRIPTION (( 'STEP AP214' ),
    '1' );
FILE_NAME ('00155.STEP',
    '2023-06-22T14:03:27',
    ( '' ),
    ( '' ),
    'SwSTEP 2.0',
    'SolidWorks 2023',
    '' );
FILE_SCHEMA (( 'AUTOMOTIVE_DESIGN' ));
ENDSEC;

DATA;
#1 = DIRECTION ( 'NONE',  ( 1.000000000000000000, 0.000000000000000000, 0.000000000000000000 ) ) ;
#2 = ORIENTED_EDGE ( 'NONE', *, *, #243, .F. ) ;
#3 =( NAMED_UNIT ( * ) PLANE_ANGLE_UNIT ( ) SI_UNIT ( $, .RADIAN. ) );
#4 = CARTESIAN_POINT ( 'NONE',  ( 0.000000000000000000, 0.5000000000000000000, 0.000000000000000000 ) ) ;
#5 = MECHANICAL_DESIGN_GEOMETRIC_PRESENTATION_REPRESENTATION (  '', ( #284 ), #112 ) ;
#6 =( LENGTH_UNIT ( ) NAMED_UNIT ( * ) SI_UNIT ( $, .METRE. ) );
#7 = PRESENTATION_LAYER_ASSIGNMENT (  '', '', ( #207 ) ) ;
#8 = DIRECTION ( 'NONE',  ( 0.000000000000000000, 0.000000000000000000, -1.000000000000000000 ) ) ;
#9 =( CONVERSION_BASED_UNIT ( 'INCH', #188 ) LENGTH_UNIT ( ) NAMED_UNIT ( #274 ) );
#10 = DIMENSIONAL_EXPONENTS ( 1.000000000000000000, 0.000000000000000000, 0.000000000000000000, 0.000000000000000000, 0.000000000000000000, 0.000000000000000000, 0.000000000000000000 ) ;
#11 = ORIENTED_EDGE ( 'NONE', *, *, #55, .F. ) ;
#12 = ADVANCED_FACE ( 'NONE', ( #87 ), #63, .T. ) ;
#13 =( LENGTH_UNIT ( ) NAMED_UNIT ( * ) SI_UNIT ( $, .METRE. ) );
#14 = SURFACE_SIDE_STYLE ('',( #148 ) ) ;
#15 = CARTESIAN_POINT ( 'NONE',  ( -6.123233995736766036E-17, 2.500000000000000000, 0.000000000000000000 ) ) ;
#16 = LENGTH_MEASURE_WITH_UNIT ( LENGTH_MEASURE( 0.02539999999999999897 ), #231 );
#17 = UNCERTAINTY_MEASURE_WITH_UNIT (LENGTH_MEASURE( 1.000000000000000082E-05 ), #300, 'distance_accuracy_value', 'NONE');
#18 = APPLICATION_PROTOCOL_DEFINITION ( 'draft international standard', 'automotive_design', 1998, #265 ) ;
#19 = VERTEX_POINT ( 'NONE', #40 ) ;
#20 = CARTESIAN_POINT ( 'NONE',  ( 0.000000000000000000, 0.000000000000000000, 0.000000000000000000 ) ) ;
#21 = FACE_OUTER_BOUND ( 'NONE', #269, .T. ) ;
#22 = ORIENTED_EDGE ( 'NONE', *, *, #114, .F. ) ;
#23 = FACE_OUTER_BOUND ( 'NONE', #36, .T. ) ;
#24 = PRESENTATION_LAYER_ASSIGNMENT (  '', '', ( #284 ) ) ;
#25 = PRODUCT ( '00155', '00155', '', ( #86 ) ) ;
#26 = PRODUCT_DEFINITION_CONTEXT ( 'detailed design', #287, 'design' ) ;
#27 = SURFACE_STYLE_USAGE ( .BOTH. , #48 ) ;
#28 = CARTESIAN_POINT ( 'NONE',  ( -6.123233995736766036E-17, 2.500000000000000000, 0.000000000000000000 ) ) ;
#29 = AXIS2_PLACEMENT_3D ( 'NONE', #20, #108, #65 ) ;
#30 = FILL_AREA_STYLE ('',( #57 ) ) ;
#31 = ORIENTED_EDGE ( 'NONE', *, *, #243, .T. ) ;
#32 = FILL_AREA_STYLE ('',( #78 ) ) ;
#33 = ORIENTED_EDGE ( 'NONE', *, *, #183, .F. ) ;
#34 = COLOUR_RGB ( '',1.000000000000000000, 0.000000000000000000, 0.000000000000000000 ) ;
#35 =( GEOMETRIC_REPRESENTATION_CONTEXT ( 3 ) GLOBAL_UNCERTAINTY_ASSIGNED_CONTEXT ( ( #205 ) ) GLOBAL_UNIT_ASSIGNED_CONTEXT ( ( #152, #3, #307 ) ) REPRESENTATION_CONTEXT ( 'NONE', 'WORKASPACE' ) );
#36 = EDGE_LOOP ( 'NONE', ( #222, #2 ) ) ;
#37 = PRESENTATION_LAYER_ASSIGNMENT (  '', '', ( #64 ) ) ;
#38 =( LENGTH_UNIT ( ) NAMED_UNIT ( * ) SI_UNIT ( $, .METRE. ) );
#39 = PLANE ( 'NONE',  #118 ) ;
#40 = CARTESIAN_POINT ( 'NONE',  ( -0.1250000000000001388, 2.500000000000000000, 0.000000000000000000 ) ) ;
#41 =( CONVERSION_BASED_UNIT ( 'INCH', #170 ) LENGTH_UNIT ( ) NAMED_UNIT ( #10 ) );
#42 = CARTESIAN_POINT ( 'NONE',  ( -6.123233995736766036E-17, 2.500000000000000000, 0.000000000000000000 ) ) ;
#43 = MECHANICAL_DESIGN_GEOMETRIC_PRESENTATION_REPRESENTATION (  '', ( #207 ), #35 ) ;
#44 = AXIS2_PLACEMENT_3D ( 'NONE', #15, #308, #83 ) ;
#45 = DIRECTION ( 'NONE',  ( 0.000000000000000000, 0.000000000000000000, -1.000000000000000000 ) ) ;
#46 = PRODUCT_DEFINITION_SHAPE ( 'NONE', 'NONE',  #169 ) ;
#47 = FACE_OUTER_BOUND ( 'NONE', #166, .T. ) ;
#48 = SURFACE_SIDE_STYLE ('',( #185 ) ) ;
#49 = COLOUR_RGB ( '',0.7921568627450980005, 0.8196078431372548767, 0.9333333333333333481 ) ;
#50 = FILL_AREA_STYLE ('',( #291 ) ) ;
#51 = LENGTH_MEASURE_WITH_UNIT ( LENGTH_MEASURE( 0.02539999999999999897 ), #6 );
#52 = COLOUR_RGB ( '',1.000000000000000000, 0.000000000000000000, 0.000000000000000000 ) ;
#53 = ORIENTED_EDGE ( 'NONE', *, *, #183, .T. ) ;
#54 = VERTEX_POINT ( 'NONE', #309 ) ;
#55 = EDGE_CURVE ( 'NONE', #168, #19, #250, .T. ) ;
#56 = EDGE_LOOP ( 'NONE', ( #195, #81 ) ) ;
#57 = FILL_AREA_STYLE_COLOUR ( '', #279 ) ;
#58 = ADVANCED_FACE ( 'NONE', ( #21 ), #39, .T. ) ;
#59 =( NAMED_UNIT ( * ) PLANE_ANGLE_UNIT ( ) SI_UNIT ( $, .RADIAN. ) );
#60 = ORIENTED_EDGE ( 'NONE', *, *, #306, .T. ) ;
#61 = DIRECTION ( 'NONE',  ( -1.000000000000000000, 0.000000000000000000, 0.000000000000000000 ) ) ;
#62 = DIRECTION ( 'NONE',  ( -3.061616997868383018E-17, 1.000000000000000000, -0.000000000000000000 ) ) ;
#63 = CYLINDRICAL_SURFACE ( 'NONE', #270, 0.1250000000000000278 ) ;
#64 = STYLED_ITEM ( 'NONE', ( #133 ), #58 ) ;
#65 = DIRECTION ( 'NONE',  ( 0.000000000000000000, 0.000000000000000000, -1.000000000000000000 ) ) ;
#66 =( CONVERSION_BASED_UNIT ( 'INCH', #16 ) LENGTH_UNIT ( ) NAMED_UNIT ( #144 ) );
#67 = EDGE_CURVE ( 'NONE', #301, #109, #235, .T. ) ;
#68 = SHAPE_DEFINITION_REPRESENTATION ( #46, #201 ) ;
#69 = CARTESIAN_POINT ( 'NONE',  ( -6.123233995736766036E-17, 2.500000000000000000, 0.000000000000000000 ) ) ;
#70 = STYLED_ITEM ( 'NONE', ( #95 ), #175 ) ;
#71 = CIRCLE ( 'NONE', #209, 0.1250000000000000000 ) ;
#72 =( CONVERSION_BASED_UNIT ( 'INCH', #180 ) LENGTH_UNIT ( ) NAMED_UNIT ( #101 ) );
#73 = CARTESIAN_POINT ( 'NONE',  ( 0.000000000000000000, 0.5000000000000000000, 0.000000000000000000 ) ) ;
#74 = CIRCLE ( 'NONE', #303, 0.1250000000000000000 ) ;
#75 = FACE_OUTER_BOUND ( 'NONE', #264, .T. ) ;
#76 = DIRECTION ( 'NONE',  ( -3.061616997868383018E-17, 1.000000000000000000, -0.000000000000000000 ) ) ;
#77 = FACE_OUTER_BOUND ( 'NONE', #232, .T. ) ;
#78 = FILL_AREA_STYLE_COLOUR ( '', #34 ) ;
#79 =( NAMED_UNIT ( * ) SI_UNIT ( $, .STERADIAN. ) SOLID_ANGLE_UNIT ( ) );
#80 = CIRCLE ( 'NONE', #135, 0.1250000000000000555 ) ;
#81 = ORIENTED_EDGE ( 'NONE', *, *, #278, .F. ) ;
#82 = LENGTH_MEASURE_WITH_UNIT ( LENGTH_MEASURE( 0.02539999999999999897 ), #38 );
#83 = DIRECTION ( 'NONE',  ( -1.000000000000000000, 0.000000000000000000, 0.000000000000000000 ) ) ;
#84 = ORIENTED_EDGE ( 'NONE', *, *, #114, .T. ) ;
#85 =( NAMED_UNIT ( * ) SI_UNIT ( $, .STERADIAN. ) SOLID_ANGLE_UNIT ( ) );
#86 = PRODUCT_CONTEXT ( 'NONE', #265, 'mechanical' ) ;
#87 = FACE_OUTER_BOUND ( 'NONE', #200, .T. ) ;
#88 = DIRECTION ( 'NONE',  ( -3.061616997868383018E-17, 1.000000000000000000, -0.000000000000000000 ) ) ;
#89 = EDGE_LOOP ( 'NONE', ( #84, #226 ) ) ;
#90 = MECHANICAL_DESIGN_GEOMETRIC_PRESENTATION_REPRESENTATION (  '', ( #70 ), #125 ) ;
#91 = VECTOR ( 'NONE', #150, 39.37007874015748143 ) ;
#92 = CARTESIAN_POINT ( 'NONE',  ( 5.858436651022881281E-35, 0.5000000000000000000, 0.000000000000000000 ) ) ;
#93 = EDGE_CURVE ( 'NONE', #109, #245, #102, .T. ) ;
#94 = MECHANICAL_DESIGN_GEOMETRIC_PRESENTATION_REPRESENTATION (  '', ( #167 ), #96 ) ;
#95 = PRESENTATION_STYLE_ASSIGNMENT (( #223 ) ) ;
#96 =( GEOMETRIC_REPRESENTATION_CONTEXT ( 3 ) GLOBAL_UNCERTAINTY_ASSIGNED_CONTEXT ( ( #127 ) ) GLOBAL_UNIT_ASSIGNED_CONTEXT ( ( #72, #285, #213 ) ) REPRESENTATION_CONTEXT ( 'NONE', 'WORKASPACE' ) );
#97 = DIRECTION ( 'NONE',  ( -0.000000000000000000, -1.000000000000000000, -0.000000000000000000 ) ) ;
#98 = ORIENTED_EDGE ( 'NONE', *, *, #278, .T. ) ;
#99 = COLOUR_RGB ( '',1.000000000000000000, 0.000000000000000000, 0.000000000000000000 ) ;
#100 = VERTEX_POINT ( 'NONE', #176 ) ;
#101 = DIMENSIONAL_EXPONENTS ( 1.000000000000000000, 0.000000000000000000, 0.000000000000000000, 0.000000000000000000, 0.000000000000000000, 0.000000000000000000, 0.000000000000000000 ) ;
#102 = LINE ( 'NONE', #211, #131 ) ;
#103 = ORIENTED_EDGE ( 'NONE', *, *, #93, .T. ) ;
#104 = DIRECTION ( 'NONE',  ( 0.000000000000000000, 0.000000000000000000, 1.000000000000000000 ) ) ;
#105 = CARTESIAN_POINT ( 'NONE',  ( -0.1250000000000001110, 2.500000000000000000, 0.000000000000000000 ) ) ;
#106 = CIRCLE ( 'NONE', #294, 0.1250000000000000000 ) ;
#107 = PRODUCT_DEFINITION_FORMATION_WITH_SPECIFIED_SOURCE ( 'ANY', '', #25, .NOT_KNOWN. ) ;
#108 = DIRECTION ( 'NONE',  ( -0.000000000000000000, -1.000000000000000000, -0.000000000000000000 ) ) ;
#109 = VERTEX_POINT ( 'NONE', #283 ) ;
#110 = ADVANCED_FACE ( 'NONE', ( #172 ), #174, .F. ) ;
#111 = SURFACE_STYLE_FILL_AREA ( #50 ) ;
#112 =( GEOMETRIC_REPRESENTATION_CONTEXT ( 3 ) GLOBAL_UNCERTAINTY_ASSIGNED_CONTEXT ( ( #158 ) ) GLOBAL_UNIT_ASSIGNED_CONTEXT ( ( #9, #242, #189 ) ) REPRESENTATION_CONTEXT ( 'NONE', 'WORKASPACE' ) );
#113 =( NAMED_UNIT ( * ) SI_UNIT ( $, .STERADIAN. ) SOLID_ANGLE_UNIT ( ) );
#114 = EDGE_CURVE ( 'NONE', #19, #54, #80, .T. ) ;
#115 = CARTESIAN_POINT ( 'NONE',  ( 0.000000000000000000, 0.000000000000000000, -0.1250000000000000000 ) ) ;
#116 = CARTESIAN_POINT ( 'NONE',  ( 0.000000000000000000, 0.000000000000000000, 0.000000000000000000 ) ) ;
#117 = ORIENTED_EDGE ( 'NONE', *, *, #164, .F. ) ;
#118 = AXIS2_PLACEMENT_3D ( 'NONE', #256, #128, #45 ) ;
#119 = SURFACE_SIDE_STYLE ('',( #266 ) ) ;
#120 = ORIENTED_EDGE ( 'NONE', *, *, #193, .F. ) ;
#121 = FILL_AREA_STYLE ('',( #244 ) ) ;
#122 = ADVANCED_FACE ( 'NONE', ( #47 ), #156, .T. ) ;
#123 = SURFACE_STYLE_USAGE ( .BOTH. , #119 ) ;
#124 = CARTESIAN_POINT ( 'NONE',  ( 0.000000000000000000, 0.5000000000000000000, -0.1250000000000000000 ) ) ;
#125 =( GEOMETRIC_REPRESENTATION_CONTEXT ( 3 ) GLOBAL_UNCERTAINTY_ASSIGNED_CONTEXT ( ( #17 ) ) GLOBAL_UNIT_ASSIGNED_CONTEXT ( ( #300, #59, #79 ) ) REPRESENTATION_CONTEXT ( 'NONE', 'WORKASPACE' ) );
#126 = DIRECTION ( 'NONE',  ( -3.061616997868383018E-17, 1.000000000000000000, -0.000000000000000000 ) ) ;
#127 = UNCERTAINTY_MEASURE_WITH_UNIT (LENGTH_MEASURE( 1.000000000000000082E-05 ), #72, 'distance_accuracy_value', 'NONE');
#128 = DIRECTION ( 'NONE',  ( 0.000000000000000000, -1.000000000000000000, -0.000000000000000000 ) ) ;
#129 = LINE ( 'NONE', #305, #91 ) ;
#130 = ORIENTED_EDGE ( 'NONE', *, *, #193, .T. ) ;
#131 = VECTOR ( 'NONE', #178, 39.37007874015748143 ) ;
#132 = DIRECTION ( 'NONE',  ( -0.000000000000000000, -1.000000000000000000, -0.000000000000000000 ) ) ;
#133 = PRESENTATION_STYLE_ASSIGNMENT (( #281 ) ) ;
#134 = DIRECTION ( 'NONE',  ( -0.000000000000000000, -1.000000000000000000, -0.000000000000000000 ) ) ;
#135 = AXIS2_PLACEMENT_3D ( 'NONE', #42, #62, #146 ) ;
#136 = ADVANCED_FACE ( 'NONE', ( #162 ), #215, .F. ) ;
#137 = FILL_AREA_STYLE_COLOUR ( '', #186 ) ;
#138 = CYLINDRICAL_SURFACE ( 'NONE', #142, 0.1250000000000000278 ) ;
#139 = PRESENTATION_LAYER_ASSIGNMENT (  '', '', ( #70 ) ) ;
#140 = ORIENTED_EDGE ( 'NONE', *, *, #210, .F. ) ;
#141 = ORIENTED_EDGE ( 'NONE', *, *, #93, .F. ) ;
#142 = AXIS2_PLACEMENT_3D ( 'NONE', #28, #76, #161 ) ;
#143 = PRESENTATION_STYLE_ASSIGNMENT (( #268 ) ) ;
#144 = DIMENSIONAL_EXPONENTS ( 1.000000000000000000, 0.000000000000000000, 0.000000000000000000, 0.000000000000000000, 0.000000000000000000, 0.000000000000000000, 0.000000000000000000 ) ;
#145 = DIRECTION ( 'NONE',  ( -3.061616997868383018E-17, 1.000000000000000000, -0.000000000000000000 ) ) ;
#146 = DIRECTION ( 'NONE',  ( -1.000000000000000000, 0.000000000000000000, 0.000000000000000000 ) ) ;
#147 = ADVANCED_FACE ( 'NONE', ( #75 ), #138, .T. ) ;
#148 = SURFACE_STYLE_FILL_AREA ( #237 ) ;
#149 = CIRCLE ( 'NONE', #44, 0.1250000000000000555 ) ;
#150 = DIRECTION ( 'NONE',  ( -3.061616997868383018E-17, 1.000000000000000000, -0.000000000000000000 ) ) ;
#151 = DIRECTION ( 'NONE',  ( 1.000000000000000000, 3.061616997868383018E-17, 0.000000000000000000 ) ) ;
#152 =( CONVERSION_BASED_UNIT ( 'INCH', #82 ) LENGTH_UNIT ( ) NAMED_UNIT ( #304 ) );
#153 = ORIENTED_EDGE ( 'NONE', *, *, #55, .T. ) ;
#154 = AXIS2_PLACEMENT_3D ( 'NONE', #241, #134, #289 ) ;
#155 =( CONVERSION_BASED_UNIT ( 'INCH', #51 ) LENGTH_UNIT ( ) NAMED_UNIT ( #224 ) );
#156 = CYLINDRICAL_SURFACE ( 'NONE', #154, 0.1250000000000000000 ) ;
#157 = ADVANCED_FACE ( 'NONE', ( #23 ), #184, .T. ) ;
#158 = UNCERTAINTY_MEASURE_WITH_UNIT (LENGTH_MEASURE( 1.000000000000000082E-05 ), #9, 'distance_accuracy_value', 'NONE');
#159 = DIRECTION ( 'NONE',  ( 0.000000000000000000, 1.000000000000000000, 0.000000000000000000 ) ) ;
#160 = AXIS2_PLACEMENT_3D ( 'NONE', #73, #159, #259 ) ;
#161 = DIRECTION ( 'NONE',  ( -1.000000000000000000, 0.000000000000000000, 0.000000000000000000 ) ) ;
#162 = FACE_OUTER_BOUND ( 'NONE', #56, .T. ) ;
#163 = SURFACE_SIDE_STYLE ('',( #248 ) ) ;
#164 = EDGE_CURVE ( 'NONE', #301, #100, #196, .T. ) ;
#165 = SURFACE_SIDE_STYLE ('',( #298 ) ) ;
#166 = EDGE_LOOP ( 'NONE', ( #293, #103, #33, #117 ) ) ;
#167 = STYLED_ITEM ( 'NONE', ( #286 ), #157 ) ;
#168 = VERTEX_POINT ( 'NONE', #221 ) ;
#169 = PRODUCT_DEFINITION ( 'UNKNOWN', '', #107, #26 ) ;
#170 = LENGTH_MEASURE_WITH_UNIT ( LENGTH_MEASURE( 0.02539999999999999897 ), #13 );
#171 = CARTESIAN_POINT ( 'NONE',  ( 0.000000000000000000, 0.5000000000000000000, 0.000000000000000000 ) ) ;
#172 = FACE_OUTER_BOUND ( 'NONE', #89, .T. ) ;
#173 = AXIS2_PLACEMENT_3D ( 'NONE', #92, #187, #238 ) ;
#174 = PLANE ( 'NONE',  #181 ) ;
#175 = MANIFOLD_SOLID_BREP ( 'Revolve - Tool Body (Straight Shanked)', #179 ) ;
#176 = CARTESIAN_POINT ( 'NONE',  ( 0.000000000000000000, 0.000000000000000000, -0.1250000000000000000 ) ) ;
#177 = APPLICATION_PROTOCOL_DEFINITION ( 'draft international standard', 'automotive_design', 1998, #287 ) ;
#178 = DIRECTION ( 'NONE',  ( -0.000000000000000000, -1.000000000000000000, -0.000000000000000000 ) ) ;
#179 = CLOSED_SHELL ( 'NONE', ( #147, #136, #12, #110 ) ) ;
#180 = LENGTH_MEASURE_WITH_UNIT ( LENGTH_MEASURE( 0.02539999999999999897 ), #212 );
#181 = AXIS2_PLACEMENT_3D ( 'NONE', #277, #275, #151 ) ;
#182 = MANIFOLD_SOLID_BREP ( 'Revolve - Cutting Edge', #263 ) ;
#183 = EDGE_CURVE ( 'NONE', #100, #245, #106, .T. ) ;
#184 = PLANE ( 'NONE',  #160 ) ;
#185 = SURFACE_STYLE_FILL_AREA ( #214 ) ;
#186 = COLOUR_RGB ( '',1.000000000000000000, 0.000000000000000000, 0.000000000000000000 ) ;
#187 = DIRECTION ( 'NONE',  ( -3.061616997868383018E-17, 1.000000000000000000, 0.000000000000000000 ) ) ;
#188 = LENGTH_MEASURE_WITH_UNIT ( LENGTH_MEASURE( 0.02539999999999999897 ), #194 );
#189 =( NAMED_UNIT ( * ) SI_UNIT ( $, .STERADIAN. ) SOLID_ANGLE_UNIT ( ) );
#190 =( GEOMETRIC_REPRESENTATION_CONTEXT ( 3 ) GLOBAL_UNCERTAINTY_ASSIGNED_CONTEXT ( ( #229 ) ) GLOBAL_UNIT_ASSIGNED_CONTEXT ( ( #66, #204, #85 ) ) REPRESENTATION_CONTEXT ( 'NONE', 'WORKASPACE' ) );
#191 =( GEOMETRIC_REPRESENTATION_CONTEXT ( 3 ) GLOBAL_UNCERTAINTY_ASSIGNED_CONTEXT ( ( #257 ) ) GLOBAL_UNIT_ASSIGNED_CONTEXT ( ( #41, #234, #276 ) ) REPRESENTATION_CONTEXT ( 'NONE', 'WORKASPACE' ) );
#192 = DIRECTION ( 'NONE',  ( -0.000000000000000000, -1.000000000000000000, -0.000000000000000000 ) ) ;
#193 = EDGE_CURVE ( 'NONE', #245, #100, #260, .T. ) ;
#194 =( LENGTH_UNIT ( ) NAMED_UNIT ( * ) SI_UNIT ( $, .METRE. ) );
#195 = ORIENTED_EDGE ( 'NONE', *, *, #240, .F. ) ;
#196 = LINE ( 'NONE', #115, #199 ) ;
#197 = ORIENTED_EDGE ( 'NONE', *, *, #306, .F. ) ;
#198 = ADVANCED_FACE ( 'NONE', ( #77 ), #246, .T. ) ;
#199 = VECTOR ( 'NONE', #192, 39.37007874015748143 ) ;
#200 = EDGE_LOOP ( 'NONE', ( #197, #98, #153, #140 ) ) ;
#201 = ADVANCED_BREP_SHAPE_REPRESENTATION ( '00155', ( #182, #175, #271 ), #191 ) ;
#202 = DIRECTION ( 'NONE',  ( -3.061616997868383018E-17, 1.000000000000000000, -0.000000000000000000 ) ) ;
#203 = CARTESIAN_POINT ( 'NONE',  ( 0.000000000000000000, 0.000000000000000000, 0.000000000000000000 ) ) ;
#204 =( NAMED_UNIT ( * ) PLANE_ANGLE_UNIT ( ) SI_UNIT ( $, .RADIAN. ) );
#205 = UNCERTAINTY_MEASURE_WITH_UNIT (LENGTH_MEASURE( 1.000000000000000082E-05 ), #152, 'distance_accuracy_value', 'NONE');
#206 = DIRECTION ( 'NONE',  ( 0.000000000000000000, 0.000000000000000000, -1.000000000000000000 ) ) ;
#207 = STYLED_ITEM ( 'NONE', ( #143 ), #198 ) ;
#208 = DIRECTION ( 'NONE',  ( 0.000000000000000000, 0.000000000000000000, -1.000000000000000000 ) ) ;
#209 = AXIS2_PLACEMENT_3D ( 'NONE', #171, #132, #206 ) ;
#210 = EDGE_CURVE ( 'NONE', #54, #19, #149, .T. ) ;
#211 = CARTESIAN_POINT ( 'NONE',  ( 1.530808498934191509E-17, 0.000000000000000000, 0.1250000000000000000 ) ) ;
#212 =( LENGTH_UNIT ( ) NAMED_UNIT ( * ) SI_UNIT ( $, .METRE. ) );
#213 =( NAMED_UNIT ( * ) SI_UNIT ( $, .STERADIAN. ) SOLID_ANGLE_UNIT ( ) );
#214 = FILL_AREA_STYLE ('',( #137 ) ) ;
#215 = PLANE ( 'NONE',  #173 ) ;
#216 = AXIS2_PLACEMENT_3D ( 'NONE', #4, #236, #208 ) ;
#217 = PRESENTATION_STYLE_ASSIGNMENT (( #27 ) ) ;
#218 = LENGTH_MEASURE_WITH_UNIT ( LENGTH_MEASURE( 0.02539999999999999897 ), #292 );
#219 = DIRECTION ( 'NONE',  ( -0.000000000000000000, -1.000000000000000000, -0.000000000000000000 ) ) ;
#220 = STYLED_ITEM ( 'NONE', ( #217 ), #122 ) ;
#221 = CARTESIAN_POINT ( 'NONE',  ( -0.1250000000000000000, 0.5000000000000001110, 0.000000000000000000 ) ) ;
#222 = ORIENTED_EDGE ( 'NONE', *, *, #67, .F. ) ;
#223 = SURFACE_STYLE_USAGE ( .BOTH. , #163 ) ;
#224 = DIMENSIONAL_EXPONENTS ( 1.000000000000000000, 0.000000000000000000, 0.000000000000000000, 0.000000000000000000, 0.000000000000000000, 0.000000000000000000, 0.000000000000000000 ) ;
#225 = PRESENTATION_STYLE_ASSIGNMENT (( #123 ) ) ;
#226 = ORIENTED_EDGE ( 'NONE', *, *, #210, .T. ) ;
#227 = MECHANICAL_DESIGN_GEOMETRIC_PRESENTATION_REPRESENTATION (  '', ( #64 ), #190 ) ;
#228 = DIRECTION ( 'NONE',  ( -1.000000000000000000, 0.000000000000000000, 0.000000000000000000 ) ) ;
#229 = UNCERTAINTY_MEASURE_WITH_UNIT (LENGTH_MEASURE( 1.000000000000000082E-05 ), #66, 'distance_accuracy_value', 'NONE');
#230 = CARTESIAN_POINT ( 'NONE',  ( 0.000000000000000000, 0.5000000000000001110, 0.000000000000000000 ) ) ;
#231 =( LENGTH_UNIT ( ) NAMED_UNIT ( * ) SI_UNIT ( $, .METRE. ) );
#232 = EDGE_LOOP ( 'NONE', ( #141, #31, #267, #120 ) ) ;
#233 = AXIS2_PLACEMENT_3D ( 'NONE', #272, #97, #296 ) ;
#234 =( NAMED_UNIT ( * ) PLANE_ANGLE_UNIT ( ) SI_UNIT ( $, .RADIAN. ) );
#235 = CIRCLE ( 'NONE', #216, 0.1250000000000000000 ) ;
#236 = DIRECTION ( 'NONE',  ( -0.000000000000000000, -1.000000000000000000, -0.000000000000000000 ) ) ;
#237 = FILL_AREA_STYLE ('',( #253 ) ) ;
#238 = DIRECTION ( 'NONE',  ( -1.000000000000000000, -3.061616997868383018E-17, 0.000000000000000000 ) ) ;
#239 =( GEOMETRIC_REPRESENTATION_CONTEXT ( 3 ) GLOBAL_UNCERTAINTY_ASSIGNED_CONTEXT ( ( #252 ) ) GLOBAL_UNIT_ASSIGNED_CONTEXT ( ( #155, #288, #113 ) ) REPRESENTATION_CONTEXT ( 'NONE', 'WORKASPACE' ) );
#240 = EDGE_CURVE ( 'NONE', #168, #273, #74, .T. ) ;
#241 = CARTESIAN_POINT ( 'NONE',  ( 0.000000000000000000, 0.000000000000000000, 0.000000000000000000 ) ) ;
#242 =( NAMED_UNIT ( * ) PLANE_ANGLE_UNIT ( ) SI_UNIT ( $, .RADIAN. ) );
#243 = EDGE_CURVE ( 'NONE', #109, #301, #71, .T. ) ;
#244 = FILL_AREA_STYLE_COLOUR ( '', #49 ) ;
#245 = VERTEX_POINT ( 'NONE', #254 ) ;
#246 = CYLINDRICAL_SURFACE ( 'NONE', #29, 0.1250000000000000000 ) ;
#247 = VECTOR ( 'NONE', #202, 39.37007874015748143 ) ;
#248 = SURFACE_STYLE_FILL_AREA ( #121 ) ;
#249 = DIMENSIONAL_EXPONENTS ( 1.000000000000000000, 0.000000000000000000, 0.000000000000000000, 0.000000000000000000, 0.000000000000000000, 0.000000000000000000, 0.000000000000000000 ) ;
#250 = LINE ( 'NONE', #105, #247 ) ;
#251 = PRESENTATION_LAYER_ASSIGNMENT (  '', '', ( #220 ) ) ;
#252 = UNCERTAINTY_MEASURE_WITH_UNIT (LENGTH_MEASURE( 1.000000000000000082E-05 ), #155, 'distance_accuracy_value', 'NONE');
#253 = FILL_AREA_STYLE_COLOUR ( '', #99 ) ;
#254 = CARTESIAN_POINT ( 'NONE',  ( 1.530808498934191509E-17, 0.000000000000000000, 0.1250000000000000000 ) ) ;
#255 = DIRECTION ( 'NONE',  ( -1.000000000000000000, 0.000000000000000000, 0.000000000000000000 ) ) ;
#256 = CARTESIAN_POINT ( 'NONE',  ( 0.000000000000000000, 0.000000000000000000, 0.000000000000000000 ) ) ;
#257 = UNCERTAINTY_MEASURE_WITH_UNIT (LENGTH_MEASURE( 1.000000000000000082E-05 ), #41, 'distance_accuracy_value', 'NONE');
#258 = SURFACE_STYLE_USAGE ( .BOTH. , #262 ) ;
#259 = DIRECTION ( 'NONE',  ( 0.000000000000000000, -0.000000000000000000, 1.000000000000000000 ) ) ;
#260 = CIRCLE ( 'NONE', #233, 0.1250000000000000000 ) ;
#261 = CIRCLE ( 'NONE', #295, 0.1250000000000000000 ) ;
#262 = SURFACE_SIDE_STYLE ('',( #111 ) ) ;
#263 = CLOSED_SHELL ( 'NONE', ( #122, #157, #198, #58 ) ) ;
#264 = EDGE_LOOP ( 'NONE', ( #297, #60, #22, #11 ) ) ;
#265 = APPLICATION_CONTEXT ( 'automotive_design' ) ;
#266 = SURFACE_STYLE_FILL_AREA ( #30 ) ;
#267 = ORIENTED_EDGE ( 'NONE', *, *, #164, .T. ) ;
#268 = SURFACE_STYLE_USAGE ( .BOTH. , #165 ) ;
#269 = EDGE_LOOP ( 'NONE', ( #53, #130 ) ) ;
#270 = AXIS2_PLACEMENT_3D ( 'NONE', #69, #126, #255 ) ;
#271 = AXIS2_PLACEMENT_3D ( 'NONE', #203, #104, #1 ) ;
#272 = CARTESIAN_POINT ( 'NONE',  ( 0.000000000000000000, 0.000000000000000000, 0.000000000000000000 ) ) ;
#273 = VERTEX_POINT ( 'NONE', #282 ) ;
#274 = DIMENSIONAL_EXPONENTS ( 1.000000000000000000, 0.000000000000000000, 0.000000000000000000, 0.000000000000000000, 0.000000000000000000, 0.000000000000000000, 0.000000000000000000 ) ;
#275 = DIRECTION ( 'NONE',  ( 3.061616997868383018E-17, -1.000000000000000000, 0.000000000000000000 ) ) ;
#276 =( NAMED_UNIT ( * ) SI_UNIT ( $, .STERADIAN. ) SOLID_ANGLE_UNIT ( ) );
#277 = CARTESIAN_POINT ( 'NONE',  ( 0.1250000000000000000, 2.500000000000000000, 0.000000000000000000 ) ) ;
#278 = EDGE_CURVE ( 'NONE', #273, #168, #261, .T. ) ;
#279 = COLOUR_RGB ( '',0.7921568627450980005, 0.8196078431372548767, 0.9333333333333333481 ) ;
#280 = CARTESIAN_POINT ( 'NONE',  ( 0.000000000000000000, 0.5000000000000001110, 0.000000000000000000 ) ) ;
#281 = SURFACE_STYLE_USAGE ( .BOTH. , #14 ) ;
#282 = CARTESIAN_POINT ( 'NONE',  ( 0.1250000000000000278, 0.5000000000000001110, 1.530808498934192125E-17 ) ) ;
#283 = CARTESIAN_POINT ( 'NONE',  ( 1.530808498934191509E-17, 0.5000000000000000000, 0.1250000000000000000 ) ) ;
#284 = STYLED_ITEM ( 'NONE', ( #225 ), #182 ) ;
#285 =( NAMED_UNIT ( * ) PLANE_ANGLE_UNIT ( ) SI_UNIT ( $, .RADIAN. ) );
#286 = PRESENTATION_STYLE_ASSIGNMENT (( #258 ) ) ;
#287 = APPLICATION_CONTEXT ( 'automotive_design' ) ;
#288 =( NAMED_UNIT ( * ) PLANE_ANGLE_UNIT ( ) SI_UNIT ( $, .RADIAN. ) );
#289 = DIRECTION ( 'NONE',  ( 0.000000000000000000, 0.000000000000000000, -1.000000000000000000 ) ) ;
#290 = PRESENTATION_LAYER_ASSIGNMENT (  '', '', ( #167 ) ) ;
#291 = FILL_AREA_STYLE_COLOUR ( '', #52 ) ;
#292 =( LENGTH_UNIT ( ) NAMED_UNIT ( * ) SI_UNIT ( $, .METRE. ) );
#293 = ORIENTED_EDGE ( 'NONE', *, *, #67, .T. ) ;
#294 = AXIS2_PLACEMENT_3D ( 'NONE', #116, #219, #8 ) ;
#295 = AXIS2_PLACEMENT_3D ( 'NONE', #280, #145, #228 ) ;
#296 = DIRECTION ( 'NONE',  ( 0.000000000000000000, 0.000000000000000000, -1.000000000000000000 ) ) ;
#297 = ORIENTED_EDGE ( 'NONE', *, *, #240, .T. ) ;
#298 = SURFACE_STYLE_FILL_AREA ( #32 ) ;
#299 = PRODUCT_RELATED_PRODUCT_CATEGORY ( 'part', '', ( #25 ) ) ;
#300 =( CONVERSION_BASED_UNIT ( 'INCH', #218 ) LENGTH_UNIT ( ) NAMED_UNIT ( #249 ) );
#301 = VERTEX_POINT ( 'NONE', #124 ) ;
#302 = MECHANICAL_DESIGN_GEOMETRIC_PRESENTATION_REPRESENTATION (  '', ( #220 ), #239 ) ;
#303 = AXIS2_PLACEMENT_3D ( 'NONE', #230, #88, #61 ) ;
#304 = DIMENSIONAL_EXPONENTS ( 1.000000000000000000, 0.000000000000000000, 0.000000000000000000, 0.000000000000000000, 0.000000000000000000, 0.000000000000000000, 0.000000000000000000 ) ;
#305 = CARTESIAN_POINT ( 'NONE',  ( 0.1249999999999999584, 2.500000000000000000, 1.530808498934191817E-17 ) ) ;
#306 = EDGE_CURVE ( 'NONE', #273, #54, #129, .T. ) ;
#307 =( NAMED_UNIT ( * ) SI_UNIT ( $, .STERADIAN. ) SOLID_ANGLE_UNIT ( ) );
#308 = DIRECTION ( 'NONE',  ( -3.061616997868383018E-17, 1.000000000000000000, -0.000000000000000000 ) ) ;
#309 = CARTESIAN_POINT ( 'NONE',  ( 0.1250000000000000278, 2.500000000000000000, 1.530808498934192125E-17 ) ) ;
ENDSEC;
END-ISO-10303-21;
