ISO-10303-21;
HEADER;
FILE_DESCRIPTION (( 'STEP AP214' ),
    '1' );
FILE_NAME ('82463.STEP',
    '2023-06-30T22:42:36',
    ( '' ),
    ( '' ),
    'SwSTEP 2.0',
    'SolidWorks 2023',
    '' );
FILE_SCHEMA (( 'AUTOMOTIVE_DESIGN' ));
ENDSEC;

DATA;
#1 = ADVANCED_FACE ( 'NONE', ( #166 ), #330, .T. ) ;
#2 = PRODUCT_DEFINITION_CONTEXT ( 'detailed design', #3, 'design' ) ;
#3 = APPLICATION_CONTEXT ( 'automotive_design' ) ;
#4 = COLOUR_RGB ( '',1.000000000000000000, 0.000000000000000000, 0.000000000000000000 ) ;
#5 = EDGE_CURVE ( 'NONE', #119, #43, #359, .T. ) ;
#6 = DIRECTION ( 'NONE',  ( -1.000000000000000000, 0.000000000000000000, 0.000000000000000000 ) ) ;
#7 = FACE_OUTER_BOUND ( 'NONE', #337, .T. ) ;
#8 = DIRECTION ( 'NONE',  ( -0.000000000000000000, -1.000000000000000000, -0.000000000000000000 ) ) ;
#9 =( CONVERSION_BASED_UNIT ( 'INCH', #274 ) LENGTH_UNIT ( ) NAMED_UNIT ( #336 ) );
#10 = SURFACE_STYLE_FILL_AREA ( #121 ) ;
#11 = PRESENTATION_STYLE_ASSIGNMENT (( #358 ) ) ;
#12 = DIRECTION ( 'NONE',  ( 1.000000000000000000, 0.000000000000000000, 0.000000000000000000 ) ) ;
#13 = MECHANICAL_DESIGN_GEOMETRIC_PRESENTATION_REPRESENTATION (  '', ( #341 ), #230 ) ;
#14 = EDGE_LOOP ( 'NONE', ( #143, #262, #267, #110, #15 ) ) ;
#15 = ORIENTED_EDGE ( 'NONE', *, *, #280, .F. ) ;
#16 =( NAMED_UNIT ( * ) PLANE_ANGLE_UNIT ( ) SI_UNIT ( $, .RADIAN. ) );
#17 = DIRECTION ( 'NONE',  ( -1.224646799147353207E-16, 1.000000000000000000, -0.000000000000000000 ) ) ;
#18 = PRESENTATION_LAYER_ASSIGNMENT (  '', '', ( #199 ) ) ;
#19 = AXIS2_PLACEMENT_3D ( 'NONE', #28, #373, #346 ) ;
#20 = VERTEX_POINT ( 'NONE', #140 ) ;
#21 = DIRECTION ( 'NONE',  ( -0.000000000000000000, -1.000000000000000000, -0.000000000000000000 ) ) ;
#22 = SURFACE_STYLE_USAGE ( .BOTH. , #190 ) ;
#23 = EDGE_CURVE ( 'NONE', #51, #357, #353, .T. ) ;
#24 = UNCERTAINTY_MEASURE_WITH_UNIT (LENGTH_MEASURE( 1.000000000000000082E-05 ), #371, 'distance_accuracy_value', 'NONE');
#25 = AXIS2_PLACEMENT_3D ( 'NONE', #152, #68, #259 ) ;
#26 = LENGTH_MEASURE_WITH_UNIT ( LENGTH_MEASURE( 0.02539999999999999897 ), #343 );
#27 = AXIS2_PLACEMENT_3D ( 'NONE', #235, #159, #6 ) ;
#28 = CARTESIAN_POINT ( 'NONE',  ( 0.000000000000000000, 0.000000000000000000, 0.000000000000000000 ) ) ;
#29 = DIRECTION ( 'NONE',  ( 0.000000000000000000, 0.000000000000000000, -1.000000000000000000 ) ) ;
#30 = LENGTH_MEASURE_WITH_UNIT ( LENGTH_MEASURE( 0.02539999999999999897 ), #253 );
#31 =( NAMED_UNIT ( * ) SI_UNIT ( $, .STERADIAN. ) SOLID_ANGLE_UNIT ( ) );
#32 = PRESENTATION_LAYER_ASSIGNMENT (  '', '', ( #362 ) ) ;
#33 = COLOUR_RGB ( '',1.000000000000000000, 0.000000000000000000, 0.000000000000000000 ) ;
#34 = UNCERTAINTY_MEASURE_WITH_UNIT (LENGTH_MEASURE( 1.000000000000000082E-05 ), #171, 'distance_accuracy_value', 'NONE');
#35 = DIRECTION ( 'NONE',  ( -0.000000000000000000, -1.000000000000000000, -0.000000000000000000 ) ) ;
#36 = EDGE_CURVE ( 'NONE', #51, #43, #292, .T. ) ;
#37 = MECHANICAL_DESIGN_GEOMETRIC_PRESENTATION_REPRESENTATION (  '', ( #362 ), #210 ) ;
#38 = FILL_AREA_STYLE_COLOUR ( '', #33 ) ;
#39 = AXIS2_PLACEMENT_3D ( 'NONE', #266, #332, #335 ) ;
#40 = DIRECTION ( 'NONE',  ( -0.000000000000000000, -1.000000000000000000, -0.000000000000000000 ) ) ;
#41 =( NAMED_UNIT ( * ) PLANE_ANGLE_UNIT ( ) SI_UNIT ( $, .RADIAN. ) );
#42 = EDGE_CURVE ( 'NONE', #236, #65, #203, .T. ) ;
#43 = VERTEX_POINT ( 'NONE', #115 ) ;
#44 = SURFACE_STYLE_FILL_AREA ( #70 ) ;
#45 = AXIS2_PLACEMENT_3D ( 'NONE', #372, #167, #250 ) ;
#46 = SPHERICAL_SURFACE ( 'NONE', #111, 0.1875000000000000278 ) ;
#47 = CARTESIAN_POINT ( 'NONE',  ( 0.000000000000000000, 0.000000000000000000, -0.1874999999999998890 ) ) ;
#48 = ORIENTED_EDGE ( 'NONE', *, *, #90, .T. ) ;
#49 = AXIS2_PLACEMENT_3D ( 'NONE', #84, #188, #29 ) ;
#50 = FACE_OUTER_BOUND ( 'NONE', #182, .T. ) ;
#51 = VERTEX_POINT ( 'NONE', #282 ) ;
#52 = PRODUCT_CONTEXT ( 'NONE', #59, 'mechanical' ) ;
#53 = DIRECTION ( 'NONE',  ( 0.000000000000000000, 0.000000000000000000, -1.000000000000000000 ) ) ;
#54 = CARTESIAN_POINT ( 'NONE',  ( 0.1874999999999996669, 4.000000000000000000, 2.296212748401285260E-17 ) ) ;
#55 =( GEOMETRIC_REPRESENTATION_CONTEXT ( 3 ) GLOBAL_UNCERTAINTY_ASSIGNED_CONTEXT ( ( #323 ) ) GLOBAL_UNIT_ASSIGNED_CONTEXT ( ( #9, #41, #77 ) ) REPRESENTATION_CONTEXT ( 'NONE', 'WORKASPACE' ) );
#56 =( CONVERSION_BASED_UNIT ( 'INCH', #227 ) LENGTH_UNIT ( ) NAMED_UNIT ( #248 ) );
#57 = AXIS2_PLACEMENT_3D ( 'NONE', #89, #201, #316 ) ;
#58 = CARTESIAN_POINT ( 'NONE',  ( -0.1875000000000000278, 0.1875000000000000555, 2.296212748401287109E-17 ) ) ;
#59 = APPLICATION_CONTEXT ( 'automotive_design' ) ;
#60 = ADVANCED_FACE ( 'NONE', ( #315 ), #200, .T. ) ;
#61 =( LENGTH_UNIT ( ) NAMED_UNIT ( * ) SI_UNIT ( $, .METRE. ) );
#62 = CARTESIAN_POINT ( 'NONE',  ( 0.000000000000000000, 0.000000000000000000, 0.000000000000000000 ) ) ;
#63 = CARTESIAN_POINT ( 'NONE',  ( 0.000000000000000000, 0.1875000000000000555, -0.1874999999999999722 ) ) ;
#64 =( GEOMETRIC_REPRESENTATION_CONTEXT ( 3 ) GLOBAL_UNCERTAINTY_ASSIGNED_CONTEXT ( ( #149 ) ) GLOBAL_UNIT_ASSIGNED_CONTEXT ( ( #56, #284, #146 ) ) REPRESENTATION_CONTEXT ( 'NONE', 'WORKASPACE' ) );
#65 = VERTEX_POINT ( 'NONE', #247 ) ;
#66 =( LENGTH_UNIT ( ) NAMED_UNIT ( * ) SI_UNIT ( $, .METRE. ) );
#67 = ADVANCED_FACE ( 'NONE', ( #7 ), #99, .F. ) ;
#68 = DIRECTION ( 'NONE',  ( -0.000000000000000000, -1.000000000000000000, -0.000000000000000000 ) ) ;
#69 =( NAMED_UNIT ( * ) PLANE_ANGLE_UNIT ( ) SI_UNIT ( $, .RADIAN. ) );
#70 = FILL_AREA_STYLE ('',( #319 ) ) ;
#71 = ORIENTED_EDGE ( 'NONE', *, *, #280, .T. ) ;
#72 = CARTESIAN_POINT ( 'NONE',  ( -1.836970198721029688E-16, 4.000000000000000000, 0.000000000000000000 ) ) ;
#73 = SURFACE_STYLE_FILL_AREA ( #331 ) ;
#74 = AXIS2_PLACEMENT_3D ( 'NONE', #62, #252, #172 ) ;
#75 = CARTESIAN_POINT ( 'NONE',  ( -1.836970198721029688E-16, 4.000000000000000000, 0.000000000000000000 ) ) ;
#76 = ADVANCED_FACE ( 'NONE', ( #296 ), #46, .T. ) ;
#77 =( NAMED_UNIT ( * ) SI_UNIT ( $, .STERADIAN. ) SOLID_ANGLE_UNIT ( ) );
#78 = SURFACE_SIDE_STYLE ('',( #44 ) ) ;
#79 = FILL_AREA_STYLE ('',( #168 ) ) ;
#80 = COLOUR_RGB ( '',1.000000000000000000, 0.000000000000000000, 0.000000000000000000 ) ;
#81 = DIMENSIONAL_EXPONENTS ( 1.000000000000000000, 0.000000000000000000, 0.000000000000000000, 0.000000000000000000, 0.000000000000000000, 0.000000000000000000, 0.000000000000000000 ) ;
#82 = PRESENTATION_STYLE_ASSIGNMENT (( #311 ) ) ;
#83 = ORIENTED_EDGE ( 'NONE', *, *, #261, .T. ) ;
#84 = CARTESIAN_POINT ( 'NONE',  ( 0.000000000000000000, 2.000000000000000000, 0.000000000000000000 ) ) ;
#85 = DIRECTION ( 'NONE',  ( -1.000000000000000000, 0.000000000000000000, 0.000000000000000000 ) ) ;
#86 = CARTESIAN_POINT ( 'NONE',  ( -0.1874999999999996392, 2.000000000000000000, 0.000000000000000000 ) ) ;
#87 = AXIS2_PLACEMENT_3D ( 'NONE', #72, #299, #85 ) ;
#88 = AXIS2_PLACEMENT_3D ( 'NONE', #148, #147, #286 ) ;
#89 = CARTESIAN_POINT ( 'NONE',  ( 0.000000000000000000, 0.1875000000000000555, 0.000000000000000000 ) ) ;
#90 = EDGE_CURVE ( 'NONE', #241, #107, #162, .T. ) ;
#91 = CARTESIAN_POINT ( 'NONE',  ( 2.296212748401285877E-17, 0.000000000000000000, 0.1874999999999998890 ) ) ;
#92 = CLOSED_SHELL ( 'NONE', ( #1, #67, #163, #349 ) ) ;
#93 = MECHANICAL_DESIGN_GEOMETRIC_PRESENTATION_REPRESENTATION (  '', ( #124 ), #342 ) ;
#94 = PRODUCT_RELATED_PRODUCT_CATEGORY ( 'part', '', ( #221 ) ) ;
#95 = DIRECTION ( 'NONE',  ( 0.000000000000000000, -0.000000000000000000, 1.000000000000000000 ) ) ;
#96 = SURFACE_STYLE_USAGE ( .BOTH. , #145 ) ;
#97 = EDGE_LOOP ( 'NONE', ( #106, #215 ) ) ;
#98 = ORIENTED_EDGE ( 'NONE', *, *, #36, .F. ) ;
#99 = PLANE ( 'NONE',  #179 ) ;
#100 = CYLINDRICAL_SURFACE ( 'NONE', #133, 0.1874999999999998335 ) ;
#101 = EDGE_CURVE ( 'NONE', #241, #131, #312, .T. ) ;
#102 = FACE_OUTER_BOUND ( 'NONE', #325, .T. ) ;
#103 = ORIENTED_EDGE ( 'NONE', *, *, #369, .T. ) ;
#104 = DIRECTION ( 'NONE',  ( 0.000000000000000000, 1.000000000000000000, 0.000000000000000000 ) ) ;
#105 = SURFACE_SIDE_STYLE ('',( #73 ) ) ;
#106 = ORIENTED_EDGE ( 'NONE', *, *, #213, .F. ) ;
#107 = VERTEX_POINT ( 'NONE', #245 ) ;
#108 = FILL_AREA_STYLE ('',( #212 ) ) ;
#109 = ORIENTED_EDGE ( 'NONE', *, *, #36, .T. ) ;
#110 = ORIENTED_EDGE ( 'NONE', *, *, #364, .F. ) ;
#111 = AXIS2_PLACEMENT_3D ( 'NONE', #189, #303, #12 ) ;
#112 = CIRCLE ( 'NONE', #25, 0.1874999999999999722 ) ;
#113 = PRESENTATION_STYLE_ASSIGNMENT (( #22 ) ) ;
#114 = FACE_OUTER_BOUND ( 'NONE', #334, .T. ) ;
#115 = CARTESIAN_POINT ( 'NONE',  ( -1.148106374200643863E-17, 0.000000000000000000, 0.000000000000000000 ) ) ;
#116 = COLOUR_RGB ( '',0.7921568627450980005, 0.8196078431372548767, 0.9333333333333333481 ) ;
#117 = DIMENSIONAL_EXPONENTS ( 1.000000000000000000, 0.000000000000000000, 0.000000000000000000, 0.000000000000000000, 0.000000000000000000, 0.000000000000000000, 0.000000000000000000 ) ;
#118 =( LENGTH_UNIT ( ) NAMED_UNIT ( * ) SI_UNIT ( $, .METRE. ) );
#119 = VERTEX_POINT ( 'NONE', #58 ) ;
#120 =( CONVERSION_BASED_UNIT ( 'INCH', #251 ) LENGTH_UNIT ( ) NAMED_UNIT ( #165 ) );
#121 = FILL_AREA_STYLE ('',( #198 ) ) ;
#122 =( NAMED_UNIT ( * ) PLANE_ANGLE_UNIT ( ) SI_UNIT ( $, .RADIAN. ) );
#123 = VECTOR ( 'NONE', #17, 39.37007874015748143 ) ;
#124 = STYLED_ITEM ( 'NONE', ( #11 ), #238 ) ;
#125 = SURFACE_STYLE_FILL_AREA ( #327 ) ;
#126 = PRESENTATION_LAYER_ASSIGNMENT (  '', '', ( #283 ) ) ;
#127 =( GEOMETRIC_REPRESENTATION_CONTEXT ( 3 ) GLOBAL_UNCERTAINTY_ASSIGNED_CONTEXT ( ( #24 ) ) GLOBAL_UNIT_ASSIGNED_CONTEXT ( ( #371, #16, #31 ) ) REPRESENTATION_CONTEXT ( 'NONE', 'WORKASPACE' ) );
#128 =( NAMED_UNIT ( * ) PLANE_ANGLE_UNIT ( ) SI_UNIT ( $, .RADIAN. ) );
#129 = CARTESIAN_POINT ( 'NONE',  ( 6.123233995736766036E-17, 2.000000000000000000, 0.000000000000000000 ) ) ;
#130 = ORIENTED_EDGE ( 'NONE', *, *, #306, .T. ) ;
#131 = VERTEX_POINT ( 'NONE', #366 ) ;
#132 = DIRECTION ( 'NONE',  ( -1.224646799147353207E-16, 1.000000000000000000, 0.000000000000000000 ) ) ;
#133 = AXIS2_PLACEMENT_3D ( 'NONE', #75, #333, #184 ) ;
#134 = EDGE_CURVE ( 'NONE', #131, #20, #193, .T. ) ;
#135 = APPLICATION_PROTOCOL_DEFINITION ( 'draft international standard', 'automotive_design', 1998, #59 ) ;
#136 = CARTESIAN_POINT ( 'NONE',  ( 6.123233995736766036E-17, 2.000000000000000000, 0.000000000000000000 ) ) ;
#137 = AXIS2_PLACEMENT_3D ( 'NONE', #136, #365, #240 ) ;
#138 = MANIFOLD_SOLID_BREP ( 'Revolve - Tool Body (Straight Shanked)', #92 ) ;
#139 = ORIENTED_EDGE ( 'NONE', *, *, #173, .F. ) ;
#140 = CARTESIAN_POINT ( 'NONE',  ( 0.1874999999999997780, 4.000000000000000000, 2.296212748401286493E-17 ) ) ;
#141 = DIRECTION ( 'NONE',  ( 0.000000000000000000, 0.000000000000000000, -1.000000000000000000 ) ) ;
#142 = LENGTH_MEASURE_WITH_UNIT ( LENGTH_MEASURE( 0.02539999999999999897 ), #118 );
#143 = ORIENTED_EDGE ( 'NONE', *, *, #285, .F. ) ;
#144 = AXIS2_PLACEMENT_3D ( 'NONE', #176, #202, #209 ) ;
#145 = SURFACE_SIDE_STYLE ('',( #10 ) ) ;
#146 =( NAMED_UNIT ( * ) SI_UNIT ( $, .STERADIAN. ) SOLID_ANGLE_UNIT ( ) );
#147 = DIRECTION ( 'NONE',  ( -1.224646799147353207E-16, 1.000000000000000000, -0.000000000000000000 ) ) ;
#148 = CARTESIAN_POINT ( 'NONE',  ( -1.836970198721029688E-16, 4.000000000000000000, 0.000000000000000000 ) ) ;
#149 = UNCERTAINTY_MEASURE_WITH_UNIT (LENGTH_MEASURE( 1.000000000000000082E-05 ), #56, 'distance_accuracy_value', 'NONE');
#150 = AXIS2_PLACEMENT_3D ( 'NONE', #367, #53, #344 ) ;
#151 = PRESENTATION_STYLE_ASSIGNMENT (( #317 ) ) ;
#152 = CARTESIAN_POINT ( 'NONE',  ( 0.000000000000000000, 0.1875000000000000555, 0.000000000000000000 ) ) ;
#153 =( NAMED_UNIT ( * ) SI_UNIT ( $, .STERADIAN. ) SOLID_ANGLE_UNIT ( ) );
#154 =( CONVERSION_BASED_UNIT ( 'INCH', #178 ) LENGTH_UNIT ( ) NAMED_UNIT ( #81 ) );
#155 = VECTOR ( 'NONE', #310, 39.37007874015748143 ) ;
#156 = ORIENTED_EDGE ( 'NONE', *, *, #369, .F. ) ;
#157 = SURFACE_SIDE_STYLE ('',( #180 ) ) ;
#158 = SPHERICAL_SURFACE ( 'NONE', #39, 0.1875000000000000278 ) ;
#159 = DIRECTION ( 'NONE',  ( -1.224646799147353207E-16, 1.000000000000000000, -0.000000000000000000 ) ) ;
#160 = ORIENTED_EDGE ( 'NONE', *, *, #101, .F. ) ;
#161 = EDGE_LOOP ( 'NONE', ( #294, #329, #233, #237 ) ) ;
#162 = LINE ( 'NONE', #275, #123 ) ;
#163 = ADVANCED_FACE ( 'NONE', ( #50 ), #100, .T. ) ;
#164 = PRESENTATION_LAYER_ASSIGNMENT (  '', '', ( #187 ) ) ;
#165 = DIMENSIONAL_EXPONENTS ( 1.000000000000000000, 0.000000000000000000, 0.000000000000000000, 0.000000000000000000, 0.000000000000000000, 0.000000000000000000, 0.000000000000000000 ) ;
#166 = FACE_OUTER_BOUND ( 'NONE', #161, .T. ) ;
#167 = DIRECTION ( 'NONE',  ( 1.224646799147353207E-16, -0.000000000000000000, 1.000000000000000000 ) ) ;
#168 = FILL_AREA_STYLE_COLOUR ( '', #116 ) ;
#169 =( GEOMETRIC_REPRESENTATION_CONTEXT ( 3 ) GLOBAL_UNCERTAINTY_ASSIGNED_CONTEXT ( ( #348 ) ) GLOBAL_UNIT_ASSIGNED_CONTEXT ( ( #120, #185, #153 ) ) REPRESENTATION_CONTEXT ( 'NONE', 'WORKASPACE' ) );
#170 = FILL_AREA_STYLE ('',( #194 ) ) ;
#171 =( CONVERSION_BASED_UNIT ( 'INCH', #30 ) LENGTH_UNIT ( ) NAMED_UNIT ( #219 ) );
#172 = DIRECTION ( 'NONE',  ( 0.000000000000000000, 0.000000000000000000, -1.000000000000000000 ) ) ;
#173 = EDGE_CURVE ( 'NONE', #65, #360, #207, .T. ) ;
#174 = PRESENTATION_LAYER_ASSIGNMENT (  '', '', ( #341 ) ) ;
#175 = CIRCLE ( 'NONE', #49, 0.1874999999999997780 ) ;
#176 = CARTESIAN_POINT ( 'NONE',  ( 0.1874999999999997780, 4.000000000000000000, 0.000000000000000000 ) ) ;
#177 = ORIENTED_EDGE ( 'NONE', *, *, #134, .F. ) ;
#178 = LENGTH_MEASURE_WITH_UNIT ( LENGTH_MEASURE( 0.02539999999999999897 ), #322 );
#179 = AXIS2_PLACEMENT_3D ( 'NONE', #269, #132, #350 ) ;
#180 = SURFACE_STYLE_FILL_AREA ( #108 ) ;
#181 = SURFACE_SIDE_STYLE ('',( #125 ) ) ;
#182 = EDGE_LOOP ( 'NONE', ( #177, #130, #48, #268 ) ) ;
#183 = ORIENTED_EDGE ( 'NONE', *, *, #23, .T. ) ;
#184 = DIRECTION ( 'NONE',  ( -1.000000000000000000, 0.000000000000000000, 0.000000000000000000 ) ) ;
#185 =( NAMED_UNIT ( * ) PLANE_ANGLE_UNIT ( ) SI_UNIT ( $, .RADIAN. ) );
#186 = AXIS2_PLACEMENT_3D ( 'NONE', #368, #21, #254 ) ;
#187 = STYLED_ITEM ( 'NONE', ( #278 ), #260 ) ;
#188 = DIRECTION ( 'NONE',  ( -0.000000000000000000, -1.000000000000000000, -0.000000000000000000 ) ) ;
#189 = CARTESIAN_POINT ( 'NONE',  ( -2.296212748401287726E-17, 0.1875000000000000278, 0.000000000000000000 ) ) ;
#190 = SURFACE_SIDE_STYLE ('',( #345 ) ) ;
#191 = SURFACE_STYLE_USAGE ( .BOTH. , #78 ) ;
#192 = DIMENSIONAL_EXPONENTS ( 1.000000000000000000, 0.000000000000000000, 0.000000000000000000, 0.000000000000000000, 0.000000000000000000, 0.000000000000000000, 0.000000000000000000 ) ;
#193 = LINE ( 'NONE', #54, #155 ) ;
#194 = FILL_AREA_STYLE_COLOUR ( '', #352 ) ;
#195 = ADVANCED_FACE ( 'NONE', ( #114 ), #158, .T. ) ;
#196 = LENGTH_MEASURE_WITH_UNIT ( LENGTH_MEASURE( 0.02539999999999999897 ), #66 );
#197 =( NAMED_UNIT ( * ) SI_UNIT ( $, .STERADIAN. ) SOLID_ANGLE_UNIT ( ) );
#198 = FILL_AREA_STYLE_COLOUR ( '', #80 ) ;
#199 = STYLED_ITEM ( 'NONE', ( #82 ), #60 ) ;
#200 = CYLINDRICAL_SURFACE ( 'NONE', #74, 0.1874999999999998890 ) ;
#201 = DIRECTION ( 'NONE',  ( -0.000000000000000000, -1.000000000000000000, -0.000000000000000000 ) ) ;
#202 = DIRECTION ( 'NONE',  ( 1.224646799147353207E-16, -1.000000000000000000, 0.000000000000000000 ) ) ;
#203 = CIRCLE ( 'NONE', #217, 0.1874999999999997780 ) ;
#204 = DIRECTION ( 'NONE',  ( 0.000000000000000000, 0.000000000000000000, -1.000000000000000000 ) ) ;
#205 = UNCERTAINTY_MEASURE_WITH_UNIT (LENGTH_MEASURE( 1.000000000000000082E-05 ), #340, 'distance_accuracy_value', 'NONE');
#206 = ORIENTED_EDGE ( 'NONE', *, *, #23, .F. ) ;
#207 = LINE ( 'NONE', #47, #320 ) ;
#208 = CARTESIAN_POINT ( 'NONE',  ( 0.000000000000000000, 2.000000000000000000, 0.000000000000000000 ) ) ;
#209 = DIRECTION ( 'NONE',  ( 1.000000000000000000, 1.224646799147353207E-16, 0.000000000000000000 ) ) ;
#210 =( GEOMETRIC_REPRESENTATION_CONTEXT ( 3 ) GLOBAL_UNCERTAINTY_ASSIGNED_CONTEXT ( ( #313 ) ) GLOBAL_UNIT_ASSIGNED_CONTEXT ( ( #258, #69, #339 ) ) REPRESENTATION_CONTEXT ( 'NONE', 'WORKASPACE' ) );
#211 = PRESENTATION_LAYER_ASSIGNMENT (  '', '', ( #124 ) ) ;
#212 = FILL_AREA_STYLE_COLOUR ( '', #4 ) ;
#213 = EDGE_CURVE ( 'NONE', #65, #236, #175, .T. ) ;
#214 = ORIENTED_EDGE ( 'NONE', *, *, #5, .T. ) ;
#215 = ORIENTED_EDGE ( 'NONE', *, *, #42, .F. ) ;
#216 = ORIENTED_EDGE ( 'NONE', *, *, #213, .T. ) ;
#217 = AXIS2_PLACEMENT_3D ( 'NONE', #220, #226, #141 ) ;
#218 = COLOUR_RGB ( '',0.7921568627450980005, 0.8196078431372548767, 0.9333333333333333481 ) ;
#219 = DIMENSIONAL_EXPONENTS ( 1.000000000000000000, 0.000000000000000000, 0.000000000000000000, 0.000000000000000000, 0.000000000000000000, 0.000000000000000000, 0.000000000000000000 ) ;
#220 = CARTESIAN_POINT ( 'NONE',  ( 0.000000000000000000, 2.000000000000000000, 0.000000000000000000 ) ) ;
#221 = PRODUCT ( '82463', '82463', '', ( #52 ) ) ;
#222 = CARTESIAN_POINT ( 'NONE',  ( 0.000000000000000000, 0.000000000000000000, 0.000000000000000000 ) ) ;
#223 = SURFACE_SIDE_STYLE ('',( #370 ) ) ;
#224 = DIRECTION ( 'NONE',  ( 0.000000000000000000, 0.000000000000000000, 1.000000000000000000 ) ) ;
#225 = CIRCLE ( 'NONE', #231, 0.1874999999999999722 ) ;
#226 = DIRECTION ( 'NONE',  ( -0.000000000000000000, -1.000000000000000000, -0.000000000000000000 ) ) ;
#227 = LENGTH_MEASURE_WITH_UNIT ( LENGTH_MEASURE( 0.02539999999999999897 ), #228 );
#228 =( LENGTH_UNIT ( ) NAMED_UNIT ( * ) SI_UNIT ( $, .METRE. ) );
#229 = ADVANCED_FACE ( 'NONE', ( #291 ), #290, .T. ) ;
#230 =( GEOMETRIC_REPRESENTATION_CONTEXT ( 3 ) GLOBAL_UNCERTAINTY_ASSIGNED_CONTEXT ( ( #255 ) ) GLOBAL_UNIT_ASSIGNED_CONTEXT ( ( #154, #128, #324 ) ) REPRESENTATION_CONTEXT ( 'NONE', 'WORKASPACE' ) );
#231 = AXIS2_PLACEMENT_3D ( 'NONE', #288, #35, #204 ) ;
#232 = PLANE ( 'NONE',  #144 ) ;
#233 = ORIENTED_EDGE ( 'NONE', *, *, #300, .F. ) ;
#234 = CYLINDRICAL_SURFACE ( 'NONE', #19, 0.1874999999999998890 ) ;
#235 = CARTESIAN_POINT ( 'NONE',  ( -1.836970198721029688E-16, 4.000000000000000000, 0.000000000000000000 ) ) ;
#236 = VERTEX_POINT ( 'NONE', #326 ) ;
#237 = ORIENTED_EDGE ( 'NONE', *, *, #90, .F. ) ;
#238 = ADVANCED_FACE ( 'NONE', ( #297 ), #234, .T. ) ;
#239 = MECHANICAL_DESIGN_GEOMETRIC_PRESENTATION_REPRESENTATION (  '', ( #257 ), #169 ) ;
#240 = DIRECTION ( 'NONE',  ( -1.000000000000000000, 0.000000000000000000, 0.000000000000000000 ) ) ;
#241 = VERTEX_POINT ( 'NONE', #86 ) ;
#242 = SURFACE_STYLE_USAGE ( .BOTH. , #105 ) ;
#243 = SHAPE_DEFINITION_REPRESENTATION ( #351, #289 ) ;
#244 = ORIENTED_EDGE ( 'NONE', *, *, #285, .T. ) ;
#245 = CARTESIAN_POINT ( 'NONE',  ( -0.1875000000000001110, 4.000000000000000000, 0.000000000000000000 ) ) ;
#246 = CIRCLE ( 'NONE', #57, 0.1874999999999999722 ) ;
#247 = CARTESIAN_POINT ( 'NONE',  ( 0.000000000000000000, 2.000000000000000000, -0.1874999999999997780 ) ) ;
#248 = DIMENSIONAL_EXPONENTS ( 1.000000000000000000, 0.000000000000000000, 0.000000000000000000, 0.000000000000000000, 0.000000000000000000, 0.000000000000000000, 0.000000000000000000 ) ;
#249 = LINE ( 'NONE', #91, #298 ) ;
#250 = DIRECTION ( 'NONE',  ( 1.000000000000000000, 0.000000000000000000, -1.224646799147353207E-16 ) ) ;
#251 = LENGTH_MEASURE_WITH_UNIT ( LENGTH_MEASURE( 0.02539999999999999897 ), #61 );
#252 = DIRECTION ( 'NONE',  ( -0.000000000000000000, -1.000000000000000000, -0.000000000000000000 ) ) ;
#253 =( LENGTH_UNIT ( ) NAMED_UNIT ( * ) SI_UNIT ( $, .METRE. ) );
#254 = DIRECTION ( 'NONE',  ( 0.000000000000000000, 0.000000000000000000, -1.000000000000000000 ) ) ;
#255 = UNCERTAINTY_MEASURE_WITH_UNIT (LENGTH_MEASURE( 1.000000000000000082E-05 ), #154, 'distance_accuracy_value', 'NONE');
#256 = COLOUR_RGB ( '',1.000000000000000000, 0.000000000000000000, 0.000000000000000000 ) ;
#257 = STYLED_ITEM ( 'NONE', ( #151 ), #229 ) ;
#258 =( CONVERSION_BASED_UNIT ( 'INCH', #26 ) LENGTH_UNIT ( ) NAMED_UNIT ( #304 ) );
#259 = DIRECTION ( 'NONE',  ( 0.000000000000000000, 0.000000000000000000, -1.000000000000000000 ) ) ;
#260 = MANIFOLD_SOLID_BREP ( 'Revolve - Cutting Edge', #263 ) ;
#261 = EDGE_CURVE ( 'NONE', #20, #107, #277, .T. ) ;
#262 = ORIENTED_EDGE ( 'NONE', *, *, #42, .T. ) ;
#263 = CLOSED_SHELL ( 'NONE', ( #195, #60, #229, #238, #76 ) ) ;
#264 = AXIS2_PLACEMENT_3D ( 'NONE', #129, #354, #356 ) ;
#265 =( LENGTH_UNIT ( ) NAMED_UNIT ( * ) SI_UNIT ( $, .METRE. ) );
#266 = CARTESIAN_POINT ( 'NONE',  ( -2.296212748401287726E-17, 0.1875000000000000278, 0.000000000000000000 ) ) ;
#267 = ORIENTED_EDGE ( 'NONE', *, *, #173, .T. ) ;
#268 = ORIENTED_EDGE ( 'NONE', *, *, #261, .F. ) ;
#269 = CARTESIAN_POINT ( 'NONE',  ( 6.123233995736766036E-17, 2.000000000000000000, 0.000000000000000000 ) ) ;
#270 = MECHANICAL_DESIGN_GEOMETRIC_PRESENTATION_REPRESENTATION (  '', ( #283 ), #55 ) ;
#271 = PRODUCT_DEFINITION_FORMATION_WITH_SPECIFIED_SOURCE ( 'ANY', '', #221, .NOT_KNOWN. ) ;
#272 = FILL_AREA_STYLE_COLOUR ( '', #256 ) ;
#273 = ORIENTED_EDGE ( 'NONE', *, *, #5, .F. ) ;
#274 = LENGTH_MEASURE_WITH_UNIT ( LENGTH_MEASURE( 0.02539999999999999897 ), #265 );
#275 = CARTESIAN_POINT ( 'NONE',  ( -0.1875000000000000278, 4.000000000000000000, 0.000000000000000000 ) ) ;
#276 = EDGE_LOOP ( 'NONE', ( #273, #301, #103, #109 ) ) ;
#277 = CIRCLE ( 'NONE', #88, 0.1874999999999999445 ) ;
#278 = PRESENTATION_STYLE_ASSIGNMENT (( #191 ) ) ;
#279 =( NAMED_UNIT ( * ) PLANE_ANGLE_UNIT ( ) SI_UNIT ( $, .RADIAN. ) );
#280 = EDGE_CURVE ( 'NONE', #357, #119, #246, .T. ) ;
#281 = APPLICATION_PROTOCOL_DEFINITION ( 'draft international standard', 'automotive_design', 1998, #3 ) ;
#282 = CARTESIAN_POINT ( 'NONE',  ( 0.1874999999999999722, 0.1875000000000000555, 0.000000000000000000 ) ) ;
#283 = STYLED_ITEM ( 'NONE', ( #361 ), #76 ) ;
#284 =( NAMED_UNIT ( * ) PLANE_ANGLE_UNIT ( ) SI_UNIT ( $, .RADIAN. ) );
#285 = EDGE_CURVE ( 'NONE', #236, #357, #249, .T. ) ;
#286 = DIRECTION ( 'NONE',  ( -1.000000000000000000, 0.000000000000000000, 0.000000000000000000 ) ) ;
#287 = AXIS2_PLACEMENT_3D ( 'NONE', #208, #104, #95 ) ;
#288 = CARTESIAN_POINT ( 'NONE',  ( 0.000000000000000000, 0.1875000000000000555, 0.000000000000000000 ) ) ;
#289 = ADVANCED_BREP_SHAPE_REPRESENTATION ( '82463', ( #260, #138, #363 ), #328 ) ;
#290 = PLANE ( 'NONE',  #287 ) ;
#291 = FACE_OUTER_BOUND ( 'NONE', #97, .T. ) ;
#292 = CIRCLE ( 'NONE', #150, 0.1875000000000000278 ) ;
#293 = CIRCLE ( 'NONE', #27, 0.1874999999999999445 ) ;
#294 = ORIENTED_EDGE ( 'NONE', *, *, #101, .T. ) ;
#295 = ORIENTED_EDGE ( 'NONE', *, *, #306, .F. ) ;
#296 = FACE_OUTER_BOUND ( 'NONE', #276, .T. ) ;
#297 = FACE_OUTER_BOUND ( 'NONE', #14, .T. ) ;
#298 = VECTOR ( 'NONE', #40, 39.37007874015748143 ) ;
#299 = DIRECTION ( 'NONE',  ( -1.224646799147353207E-16, 1.000000000000000000, -0.000000000000000000 ) ) ;
#300 = EDGE_CURVE ( 'NONE', #107, #20, #293, .T. ) ;
#301 = ORIENTED_EDGE ( 'NONE', *, *, #364, .T. ) ;
#302 = ORIENTED_EDGE ( 'NONE', *, *, #300, .T. ) ;
#303 = DIRECTION ( 'NONE',  ( 0.000000000000000000, 0.000000000000000000, 1.000000000000000000 ) ) ;
#304 = DIMENSIONAL_EXPONENTS ( 1.000000000000000000, 0.000000000000000000, 0.000000000000000000, 0.000000000000000000, 0.000000000000000000, 0.000000000000000000, 0.000000000000000000 ) ;
#305 = DIRECTION ( 'NONE',  ( 1.000000000000000000, 0.000000000000000000, 0.000000000000000000 ) ) ;
#306 = EDGE_CURVE ( 'NONE', #131, #241, #347, .T. ) ;
#307 = MECHANICAL_DESIGN_GEOMETRIC_PRESENTATION_REPRESENTATION (  '', ( #199 ), #64 ) ;
#308 = MECHANICAL_DESIGN_GEOMETRIC_PRESENTATION_REPRESENTATION (  '', ( #187 ), #127 ) ;
#309 =( NAMED_UNIT ( * ) SI_UNIT ( $, .STERADIAN. ) SOLID_ANGLE_UNIT ( ) );
#310 = DIRECTION ( 'NONE',  ( -1.224646799147353207E-16, 1.000000000000000000, -0.000000000000000000 ) ) ;
#311 = SURFACE_STYLE_USAGE ( .BOTH. , #223 ) ;
#312 = CIRCLE ( 'NONE', #137, 0.1874999999999996947 ) ;
#313 = UNCERTAINTY_MEASURE_WITH_UNIT (LENGTH_MEASURE( 1.000000000000000082E-05 ), #258, 'distance_accuracy_value', 'NONE');
#314 = PRESENTATION_STYLE_ASSIGNMENT (( #96 ) ) ;
#315 = FACE_OUTER_BOUND ( 'NONE', #355, .T. ) ;
#316 = DIRECTION ( 'NONE',  ( 0.000000000000000000, 0.000000000000000000, -1.000000000000000000 ) ) ;
#317 = SURFACE_STYLE_USAGE ( .BOTH. , #181 ) ;
#318 = CARTESIAN_POINT ( 'NONE',  ( 2.296212748401286801E-17, 0.1875000000000000555, 0.1874999999999999445 ) ) ;
#319 = FILL_AREA_STYLE_COLOUR ( '', #218 ) ;
#320 = VECTOR ( 'NONE', #8, 39.37007874015748143 ) ;
#321 = PRODUCT_DEFINITION ( 'UNKNOWN', '', #271, #2 ) ;
#322 =( LENGTH_UNIT ( ) NAMED_UNIT ( * ) SI_UNIT ( $, .METRE. ) );
#323 = UNCERTAINTY_MEASURE_WITH_UNIT (LENGTH_MEASURE( 1.000000000000000082E-05 ), #9, 'distance_accuracy_value', 'NONE');
#324 =( NAMED_UNIT ( * ) SI_UNIT ( $, .STERADIAN. ) SOLID_ANGLE_UNIT ( ) );
#325 = EDGE_LOOP ( 'NONE', ( #302, #83 ) ) ;
#326 = CARTESIAN_POINT ( 'NONE',  ( 2.296212748401284952E-17, 2.000000000000000000, 0.1874999999999997780 ) ) ;
#327 = FILL_AREA_STYLE ('',( #38 ) ) ;
#328 =( GEOMETRIC_REPRESENTATION_CONTEXT ( 3 ) GLOBAL_UNCERTAINTY_ASSIGNED_CONTEXT ( ( #205 ) ) GLOBAL_UNIT_ASSIGNED_CONTEXT ( ( #340, #279, #309 ) ) REPRESENTATION_CONTEXT ( 'NONE', 'WORKASPACE' ) );
#329 = ORIENTED_EDGE ( 'NONE', *, *, #134, .T. ) ;
#330 = CYLINDRICAL_SURFACE ( 'NONE', #87, 0.1874999999999998335 ) ;
#331 = FILL_AREA_STYLE ('',( #272 ) ) ;
#332 = DIRECTION ( 'NONE',  ( 0.000000000000000000, 0.000000000000000000, 1.000000000000000000 ) ) ;
#333 = DIRECTION ( 'NONE',  ( -1.224646799147353207E-16, 1.000000000000000000, -0.000000000000000000 ) ) ;
#334 = EDGE_LOOP ( 'NONE', ( #71, #214, #98, #183 ) ) ;
#335 = DIRECTION ( 'NONE',  ( 1.000000000000000000, 0.000000000000000000, 0.000000000000000000 ) ) ;
#336 = DIMENSIONAL_EXPONENTS ( 1.000000000000000000, 0.000000000000000000, 0.000000000000000000, 0.000000000000000000, 0.000000000000000000, 0.000000000000000000, 0.000000000000000000 ) ;
#337 = EDGE_LOOP ( 'NONE', ( #160, #295 ) ) ;
#338 = PRESENTATION_LAYER_ASSIGNMENT (  '', '', ( #257 ) ) ;
#339 =( NAMED_UNIT ( * ) SI_UNIT ( $, .STERADIAN. ) SOLID_ANGLE_UNIT ( ) );
#340 =( CONVERSION_BASED_UNIT ( 'INCH', #196 ) LENGTH_UNIT ( ) NAMED_UNIT ( #192 ) );
#341 = STYLED_ITEM ( 'NONE', ( #314 ), #195 ) ;
#342 =( GEOMETRIC_REPRESENTATION_CONTEXT ( 3 ) GLOBAL_UNCERTAINTY_ASSIGNED_CONTEXT ( ( #34 ) ) GLOBAL_UNIT_ASSIGNED_CONTEXT ( ( #171, #122, #197 ) ) REPRESENTATION_CONTEXT ( 'NONE', 'WORKASPACE' ) );
#343 =( LENGTH_UNIT ( ) NAMED_UNIT ( * ) SI_UNIT ( $, .METRE. ) );
#344 = DIRECTION ( 'NONE',  ( -1.000000000000000000, 0.000000000000000000, 0.000000000000000000 ) ) ;
#345 = SURFACE_STYLE_FILL_AREA ( #79 ) ;
#346 = DIRECTION ( 'NONE',  ( 0.000000000000000000, 0.000000000000000000, -1.000000000000000000 ) ) ;
#347 = CIRCLE ( 'NONE', #264, 0.1874999999999996947 ) ;
#348 = UNCERTAINTY_MEASURE_WITH_UNIT (LENGTH_MEASURE( 1.000000000000000082E-05 ), #120, 'distance_accuracy_value', 'NONE');
#349 = ADVANCED_FACE ( 'NONE', ( #102 ), #232, .F. ) ;
#350 = DIRECTION ( 'NONE',  ( -1.000000000000000000, -1.224646799147353207E-16, 0.000000000000000000 ) ) ;
#351 = PRODUCT_DEFINITION_SHAPE ( 'NONE', 'NONE',  #321 ) ;
#352 = COLOUR_RGB ( '',1.000000000000000000, 0.000000000000000000, 0.000000000000000000 ) ;
#353 = CIRCLE ( 'NONE', #186, 0.1874999999999999722 ) ;
#354 = DIRECTION ( 'NONE',  ( -1.224646799147353207E-16, 1.000000000000000000, -0.000000000000000000 ) ) ;
#355 = EDGE_LOOP ( 'NONE', ( #216, #244, #206, #156, #139 ) ) ;
#356 = DIRECTION ( 'NONE',  ( -1.000000000000000000, 0.000000000000000000, 0.000000000000000000 ) ) ;
#357 = VERTEX_POINT ( 'NONE', #318 ) ;
#358 = SURFACE_STYLE_USAGE ( .BOTH. , #157 ) ;
#359 = CIRCLE ( 'NONE', #45, 0.1875000000000000278 ) ;
#360 = VERTEX_POINT ( 'NONE', #63 ) ;
#361 = PRESENTATION_STYLE_ASSIGNMENT (( #242 ) ) ;
#362 = STYLED_ITEM ( 'NONE', ( #113 ), #138 ) ;
#363 = AXIS2_PLACEMENT_3D ( 'NONE', #222, #224, #305 ) ;
#364 = EDGE_CURVE ( 'NONE', #119, #360, #225, .T. ) ;
#365 = DIRECTION ( 'NONE',  ( -1.224646799147353207E-16, 1.000000000000000000, -0.000000000000000000 ) ) ;
#366 = CARTESIAN_POINT ( 'NONE',  ( 0.1874999999999997780, 2.000000000000000000, 2.296212748401286493E-17 ) ) ;
#367 = CARTESIAN_POINT ( 'NONE',  ( -2.296212748401287726E-17, 0.1875000000000000278, 0.000000000000000000 ) ) ;
#368 = CARTESIAN_POINT ( 'NONE',  ( 0.000000000000000000, 0.1875000000000000555, 0.000000000000000000 ) ) ;
#369 = EDGE_CURVE ( 'NONE', #360, #51, #112, .T. ) ;
#370 = SURFACE_STYLE_FILL_AREA ( #170 ) ;
#371 =( CONVERSION_BASED_UNIT ( 'INCH', #142 ) LENGTH_UNIT ( ) NAMED_UNIT ( #117 ) );
#372 = CARTESIAN_POINT ( 'NONE',  ( -2.296212748401287726E-17, 0.1875000000000000278, 0.000000000000000000 ) ) ;
#373 = DIRECTION ( 'NONE',  ( -0.000000000000000000, -1.000000000000000000, -0.000000000000000000 ) ) ;
ENDSEC;
END-ISO-10303-21;
