ISO-10303-21;
HEADER;
FILE_DESCRIPTION (( 'STEP AP214' ),
    '1' );
FILE_NAME ('81557.STEP',
    '2023-06-23T01:51:16',
    ( '' ),
    ( '' ),
    'SwSTEP 2.0',
    'SolidWorks 2023',
    '' );
FILE_SCHEMA (( 'AUTOMOTIVE_DESIGN' ));
ENDSEC;

DATA;
#1 = DIRECTION ( 'NONE',  ( -1.000000000000000000, 0.000000000000000000, 0.000000000000000000 ) ) ;
#2 = MECHANICAL_DESIGN_GEOMETRIC_PRESENTATION_REPRESENTATION (  '', ( #308 ), #204 ) ;
#3 = EDGE_LOOP ( 'NONE', ( #138, #257 ) ) ;
#4 = SURFACE_STYLE_FILL_AREA ( #281 ) ;
#5 = CARTESIAN_POINT ( 'NONE',  ( 0.000000000000000000, 0.000000000000000000, -0.1562500000000000000 ) ) ;
#6 =( GEOMETRIC_REPRESENTATION_CONTEXT ( 3 ) GLOBAL_UNCERTAINTY_ASSIGNED_CONTEXT ( ( #285 ) ) GLOBAL_UNIT_ASSIGNED_CONTEXT ( ( #155, #136, #253 ) ) REPRESENTATION_CONTEXT ( 'NONE', 'WORKASPACE' ) );
#7 = PRESENTATION_LAYER_ASSIGNMENT (  '', '', ( #145 ) ) ;
#8 = ORIENTED_EDGE ( 'NONE', *, *, #183, .F. ) ;
#9 =( NAMED_UNIT ( * ) PLANE_ANGLE_UNIT ( ) SI_UNIT ( $, .RADIAN. ) );
#10 = CARTESIAN_POINT ( 'NONE',  ( -6.123233995736772199E-17, 3.000000000000000444, 0.000000000000000000 ) ) ;
#11 = PRESENTATION_LAYER_ASSIGNMENT (  '', '', ( #37 ) ) ;
#12 = VERTEX_POINT ( 'NONE', #254 ) ;
#13 = CARTESIAN_POINT ( 'NONE',  ( 0.000000000000000000, 1.562500000000000000, -0.1562500000000000000 ) ) ;
#14 = ORIENTED_EDGE ( 'NONE', *, *, #183, .T. ) ;
#15 = AXIS2_PLACEMENT_3D ( 'NONE', #61, #47, #210 ) ;
#16 = AXIS2_PLACEMENT_3D ( 'NONE', #194, #154, #251 ) ;
#17 = CARTESIAN_POINT ( 'NONE',  ( 1.913510623667739463E-17, 1.562500000000000000, 0.1562500000000000000 ) ) ;
#18 = CARTESIAN_POINT ( 'NONE',  ( -0.1562500000000000000, 1.562500000000000000, 0.000000000000000000 ) ) ;
#19 = DIRECTION ( 'NONE',  ( 1.000000000000000000, 0.000000000000000000, 0.000000000000000000 ) ) ;
#20 = PRODUCT_DEFINITION_FORMATION_WITH_SPECIFIED_SOURCE ( 'ANY', '', #179, .NOT_KNOWN. ) ;
#21 = SHAPE_DEFINITION_REPRESENTATION ( #272, #215 ) ;
#22 = DIRECTION ( 'NONE',  ( 0.000000000000000000, 0.000000000000000000, -1.000000000000000000 ) ) ;
#23 =( CONVERSION_BASED_UNIT ( 'INCH', #182 ) LENGTH_UNIT ( ) NAMED_UNIT ( #299 ) );
#24 = PRESENTATION_LAYER_ASSIGNMENT (  '', '', ( #274 ) ) ;
#25 = SURFACE_SIDE_STYLE ('',( #292 ) ) ;
#26 = DIRECTION ( 'NONE',  ( 0.000000000000000000, 0.000000000000000000, -1.000000000000000000 ) ) ;
#27 = DIRECTION ( 'NONE',  ( 1.000000000000000000, 4.259641040512536405E-17, 0.000000000000000000 ) ) ;
#28 = CARTESIAN_POINT ( 'NONE',  ( 0.000000000000000000, 1.562500000000000000, 0.000000000000000000 ) ) ;
#29 = AXIS2_PLACEMENT_3D ( 'NONE', #79, #205, #267 ) ;
#30 = VERTEX_POINT ( 'NONE', #18 ) ;
#31 = DIMENSIONAL_EXPONENTS ( 1.000000000000000000, 0.000000000000000000, 0.000000000000000000, 0.000000000000000000, 0.000000000000000000, 0.000000000000000000, 0.000000000000000000 ) ;
#32 = CYLINDRICAL_SURFACE ( 'NONE', #181, 0.1562500000000000000 ) ;
#33 = SURFACE_STYLE_FILL_AREA ( #255 ) ;
#34 = ORIENTED_EDGE ( 'NONE', *, *, #303, .F. ) ;
#35 = APPLICATION_CONTEXT ( 'automotive_design' ) ;
#36 = ORIENTED_EDGE ( 'NONE', *, *, #198, .F. ) ;
#37 = STYLED_ITEM ( 'NONE', ( #107 ), #112 ) ;
#38 = ADVANCED_FACE ( 'NONE', ( #43 ), #127, .T. ) ;
#39 = ORIENTED_EDGE ( 'NONE', *, *, #240, .T. ) ;
#40 = PLANE ( 'NONE',  #223 ) ;
#41 =( GEOMETRIC_REPRESENTATION_CONTEXT ( 3 ) GLOBAL_UNCERTAINTY_ASSIGNED_CONTEXT ( ( #309 ) ) GLOBAL_UNIT_ASSIGNED_CONTEXT ( ( #70, #239, #238 ) ) REPRESENTATION_CONTEXT ( 'NONE', 'WORKASPACE' ) );
#42 = FILL_AREA_STYLE_COLOUR ( '', #74 ) ;
#43 = FACE_OUTER_BOUND ( 'NONE', #84, .T. ) ;
#44 = ORIENTED_EDGE ( 'NONE', *, *, #209, .T. ) ;
#45 = CIRCLE ( 'NONE', #230, 0.1562500000000000833 ) ;
#46 = AXIS2_PLACEMENT_3D ( 'NONE', #116, #289, #172 ) ;
#47 = DIRECTION ( 'NONE',  ( -0.000000000000000000, -1.000000000000000000, -0.000000000000000000 ) ) ;
#48 = PRODUCT_RELATED_PRODUCT_CATEGORY ( 'part', '', ( #179 ) ) ;
#49 = DIMENSIONAL_EXPONENTS ( 1.000000000000000000, 0.000000000000000000, 0.000000000000000000, 0.000000000000000000, 0.000000000000000000, 0.000000000000000000, 0.000000000000000000 ) ;
#50 = CYLINDRICAL_SURFACE ( 'NONE', #93, 0.1562500000000000278 ) ;
#51 = SURFACE_SIDE_STYLE ('',( #296 ) ) ;
#52 = DIRECTION ( 'NONE',  ( 0.000000000000000000, 0.000000000000000000, -1.000000000000000000 ) ) ;
#53 = LENGTH_MEASURE_WITH_UNIT ( LENGTH_MEASURE( 0.02539999999999999897 ), #80 );
#54 = STYLED_ITEM ( 'NONE', ( #227 ), #174 ) ;
#55 =( GEOMETRIC_REPRESENTATION_CONTEXT ( 3 ) GLOBAL_UNCERTAINTY_ASSIGNED_CONTEXT ( ( #89 ) ) GLOBAL_UNIT_ASSIGNED_CONTEXT ( ( #122, #260, #96 ) ) REPRESENTATION_CONTEXT ( 'NONE', 'WORKASPACE' ) );
#56 = ORIENTED_EDGE ( 'NONE', *, *, #303, .T. ) ;
#57 = ORIENTED_EDGE ( 'NONE', *, *, #240, .F. ) ;
#58 = CARTESIAN_POINT ( 'NONE',  ( 0.000000000000000000, 0.000000000000000000, -0.1562500000000000000 ) ) ;
#59 = CARTESIAN_POINT ( 'NONE',  ( 1.913510623667739463E-17, 0.000000000000000000, 0.1562500000000000000 ) ) ;
#60 = VERTEX_POINT ( 'NONE', #279 ) ;
#61 = CARTESIAN_POINT ( 'NONE',  ( 0.000000000000000000, 1.562500000000000000, 0.000000000000000000 ) ) ;
#62 = MANIFOLD_SOLID_BREP ( 'Revolve - Cutting Edge', #143 ) ;
#63 = LINE ( 'NONE', #59, #126 ) ;
#64 = FILL_AREA_STYLE_COLOUR ( '', #156 ) ;
#65 = SURFACE_STYLE_USAGE ( .BOTH. , #146 ) ;
#66 =( LENGTH_UNIT ( ) NAMED_UNIT ( * ) SI_UNIT ( $, .METRE. ) );
#67 =( GEOMETRIC_REPRESENTATION_CONTEXT ( 3 ) GLOBAL_UNCERTAINTY_ASSIGNED_CONTEXT ( ( #192 ) ) GLOBAL_UNIT_ASSIGNED_CONTEXT ( ( #167, #9, #75 ) ) REPRESENTATION_CONTEXT ( 'NONE', 'WORKASPACE' ) );
#68 = AXIS2_PLACEMENT_3D ( 'NONE', #244, #169, #22 ) ;
#69 = LENGTH_MEASURE_WITH_UNIT ( LENGTH_MEASURE( 0.02539999999999999897 ), #159 );
#70 =( CONVERSION_BASED_UNIT ( 'INCH', #168 ) LENGTH_UNIT ( ) NAMED_UNIT ( #49 ) );
#71 = DIRECTION ( 'NONE',  ( -1.000000000000000000, -4.259641040512536405E-17, 0.000000000000000000 ) ) ;
#72 = AXIS2_PLACEMENT_3D ( 'NONE', #141, #235, #19 ) ;
#73 = FILL_AREA_STYLE ('',( #120 ) ) ;
#74 = COLOUR_RGB ( '',1.000000000000000000, 0.000000000000000000, 0.000000000000000000 ) ;
#75 =( NAMED_UNIT ( * ) SI_UNIT ( $, .STERADIAN. ) SOLID_ANGLE_UNIT ( ) );
#76 = EDGE_CURVE ( 'NONE', #229, #276, #247, .T. ) ;
#77 = FILL_AREA_STYLE_COLOUR ( '', #200 ) ;
#78 = ORIENTED_EDGE ( 'NONE', *, *, #106, .T. ) ;
#79 = CARTESIAN_POINT ( 'NONE',  ( -6.123233995736772199E-17, 3.000000000000000444, 0.000000000000000000 ) ) ;
#80 =( LENGTH_UNIT ( ) NAMED_UNIT ( * ) SI_UNIT ( $, .METRE. ) );
#81 = AXIS2_PLACEMENT_3D ( 'NONE', #300, #249, #90 ) ;
#82 = DIRECTION ( 'NONE',  ( -0.000000000000000000, -1.000000000000000000, -0.000000000000000000 ) ) ;
#83 = LENGTH_MEASURE_WITH_UNIT ( LENGTH_MEASURE( 0.02539999999999999897 ), #111 );
#84 = EDGE_LOOP ( 'NONE', ( #301, #57 ) ) ;
#85 = DIRECTION ( 'NONE',  ( -4.259641040512536405E-17, 1.000000000000000000, -0.000000000000000000 ) ) ;
#86 = COLOUR_RGB ( '',1.000000000000000000, 0.000000000000000000, 0.000000000000000000 ) ;
#87 = FACE_OUTER_BOUND ( 'NONE', #3, .T. ) ;
#88 =( NAMED_UNIT ( * ) SI_UNIT ( $, .STERADIAN. ) SOLID_ANGLE_UNIT ( ) );
#89 = UNCERTAINTY_MEASURE_WITH_UNIT (LENGTH_MEASURE( 1.000000000000000082E-05 ), #122, 'distance_accuracy_value', 'NONE');
#90 = DIRECTION ( 'NONE',  ( -1.000000000000000000, 0.000000000000000000, 0.000000000000000000 ) ) ;
#91 = DIRECTION ( 'NONE',  ( 0.000000000000000000, -0.000000000000000000, 1.000000000000000000 ) ) ;
#92 = APPLICATION_PROTOCOL_DEFINITION ( 'draft international standard', 'automotive_design', 1998, #35 ) ;
#93 = AXIS2_PLACEMENT_3D ( 'NONE', #10, #160, #108 ) ;
#94 =( LENGTH_UNIT ( ) NAMED_UNIT ( * ) SI_UNIT ( $, .METRE. ) );
#95 = ADVANCED_FACE ( 'NONE', ( #132 ), #246, .F. ) ;
#96 =( NAMED_UNIT ( * ) SI_UNIT ( $, .STERADIAN. ) SOLID_ANGLE_UNIT ( ) );
#97 = PRESENTATION_LAYER_ASSIGNMENT (  '', '', ( #54 ) ) ;
#98 =( LENGTH_UNIT ( ) NAMED_UNIT ( * ) SI_UNIT ( $, .METRE. ) );
#99 = ORIENTED_EDGE ( 'NONE', *, *, #157, .F. ) ;
#100 =( NAMED_UNIT ( * ) PLANE_ANGLE_UNIT ( ) SI_UNIT ( $, .RADIAN. ) );
#101 = APPLICATION_CONTEXT ( 'automotive_design' ) ;
#102 = SURFACE_STYLE_USAGE ( .BOTH. , #51 ) ;
#103 = DIRECTION ( 'NONE',  ( 4.259641040512536405E-17, -1.000000000000000000, 0.000000000000000000 ) ) ;
#104 =( GEOMETRIC_REPRESENTATION_CONTEXT ( 3 ) GLOBAL_UNCERTAINTY_ASSIGNED_CONTEXT ( ( #124 ) ) GLOBAL_UNIT_ASSIGNED_CONTEXT ( ( #185, #153, #115 ) ) REPRESENTATION_CONTEXT ( 'NONE', 'WORKASPACE' ) );
#105 = FACE_OUTER_BOUND ( 'NONE', #305, .T. ) ;
#106 = EDGE_CURVE ( 'NONE', #30, #60, #203, .T. ) ;
#107 = PRESENTATION_STYLE_ASSIGNMENT (( #102 ) ) ;
#108 = DIRECTION ( 'NONE',  ( -1.000000000000000000, 0.000000000000000000, 0.000000000000000000 ) ) ;
#109 = CIRCLE ( 'NONE', #283, 0.1562500000000000000 ) ;
#110 = AXIS2_PLACEMENT_3D ( 'NONE', #199, #286, #1 ) ;
#111 =( LENGTH_UNIT ( ) NAMED_UNIT ( * ) SI_UNIT ( $, .METRE. ) );
#112 = ADVANCED_FACE ( 'NONE', ( #105 ), #32, .T. ) ;
#113 = ORIENTED_EDGE ( 'NONE', *, *, #198, .T. ) ;
#114 = FACE_OUTER_BOUND ( 'NONE', #232, .T. ) ;
#115 =( NAMED_UNIT ( * ) SI_UNIT ( $, .STERADIAN. ) SOLID_ANGLE_UNIT ( ) );
#116 = CARTESIAN_POINT ( 'NONE',  ( 0.000000000000000000, 0.000000000000000000, 0.000000000000000000 ) ) ;
#117 = MECHANICAL_DESIGN_GEOMETRIC_PRESENTATION_REPRESENTATION (  '', ( #37 ), #104 ) ;
#118 = ORIENTED_EDGE ( 'NONE', *, *, #209, .F. ) ;
#119 = FILL_AREA_STYLE_COLOUR ( '', #86 ) ;
#120 = FILL_AREA_STYLE_COLOUR ( '', #216 ) ;
#121 = DIRECTION ( 'NONE',  ( 0.000000000000000000, 1.000000000000000000, 0.000000000000000000 ) ) ;
#122 =( CONVERSION_BASED_UNIT ( 'INCH', #282 ) LENGTH_UNIT ( ) NAMED_UNIT ( #207 ) );
#123 = CARTESIAN_POINT ( 'NONE',  ( 1.417542327657712825E-34, 1.562500000000000000, 0.000000000000000000 ) ) ;
#124 = UNCERTAINTY_MEASURE_WITH_UNIT (LENGTH_MEASURE( 1.000000000000000082E-05 ), #185, 'distance_accuracy_value', 'NONE');
#125 = PRODUCT_DEFINITION ( 'UNKNOWN', '', #20, #135 ) ;
#126 = VECTOR ( 'NONE', #212, 39.37007874015748143 ) ;
#127 = PLANE ( 'NONE',  #241 ) ;
#128 = DIRECTION ( 'NONE',  ( -4.259641040512536405E-17, 1.000000000000000000, -0.000000000000000000 ) ) ;
#129 = CARTESIAN_POINT ( 'NONE',  ( -0.1562500000000001110, 3.000000000000000444, 0.000000000000000000 ) ) ;
#130 = AXIS2_PLACEMENT_3D ( 'NONE', #28, #128, #150 ) ;
#131 = FILL_AREA_STYLE_COLOUR ( '', #162 ) ;
#132 = FACE_OUTER_BOUND ( 'NONE', #291, .T. ) ;
#133 = EDGE_LOOP ( 'NONE', ( #36, #99 ) ) ;
#134 = SURFACE_SIDE_STYLE ('',( #33 ) ) ;
#135 = PRODUCT_DEFINITION_CONTEXT ( 'detailed design', #35, 'design' ) ;
#136 =( NAMED_UNIT ( * ) PLANE_ANGLE_UNIT ( ) SI_UNIT ( $, .RADIAN. ) );
#137 = EDGE_CURVE ( 'NONE', #221, #234, #258, .T. ) ;
#138 = ORIENTED_EDGE ( 'NONE', *, *, #256, .T. ) ;
#139 = MECHANICAL_DESIGN_GEOMETRIC_PRESENTATION_REPRESENTATION (  '', ( #54 ), #222 ) ;
#140 =( NAMED_UNIT ( * ) PLANE_ANGLE_UNIT ( ) SI_UNIT ( $, .RADIAN. ) );
#141 = CARTESIAN_POINT ( 'NONE',  ( 0.000000000000000000, 0.000000000000000000, 0.000000000000000000 ) ) ;
#142 = SURFACE_STYLE_FILL_AREA ( #73 ) ;
#143 = CLOSED_SHELL ( 'NONE', ( #294, #38, #112, #277 ) ) ;
#144 = AXIS2_PLACEMENT_3D ( 'NONE', #266, #202, #52 ) ;
#145 = STYLED_ITEM ( 'NONE', ( #220 ), #294 ) ;
#146 = SURFACE_SIDE_STYLE ('',( #218 ) ) ;
#147 = EDGE_CURVE ( 'NONE', #229, #234, #177, .T. ) ;
#148 = SURFACE_STYLE_USAGE ( .BOTH. , #261 ) ;
#149 = DIRECTION ( 'NONE',  ( -0.000000000000000000, -1.000000000000000000, -0.000000000000000000 ) ) ;
#150 = DIRECTION ( 'NONE',  ( -1.000000000000000000, 0.000000000000000000, 0.000000000000000000 ) ) ;
#151 = DIMENSIONAL_EXPONENTS ( 1.000000000000000000, 0.000000000000000000, 0.000000000000000000, 0.000000000000000000, 0.000000000000000000, 0.000000000000000000, 0.000000000000000000 ) ;
#152 = DIRECTION ( 'NONE',  ( -0.000000000000000000, -1.000000000000000000, -0.000000000000000000 ) ) ;
#153 =( NAMED_UNIT ( * ) PLANE_ANGLE_UNIT ( ) SI_UNIT ( $, .RADIAN. ) );
#154 = DIRECTION ( 'NONE',  ( -0.000000000000000000, -1.000000000000000000, -0.000000000000000000 ) ) ;
#155 =( CONVERSION_BASED_UNIT ( 'INCH', #83 ) LENGTH_UNIT ( ) NAMED_UNIT ( #297 ) );
#156 = COLOUR_RGB ( '',0.7921568627450980005, 0.8196078431372548767, 0.9333333333333333481 ) ;
#157 = EDGE_CURVE ( 'NONE', #188, #30, #170, .T. ) ;
#158 = LINE ( 'NONE', #214, #175 ) ;
#159 =( LENGTH_UNIT ( ) NAMED_UNIT ( * ) SI_UNIT ( $, .METRE. ) );
#160 = DIRECTION ( 'NONE',  ( -4.259641040512536405E-17, 1.000000000000000000, -0.000000000000000000 ) ) ;
#161 = LENGTH_MEASURE_WITH_UNIT ( LENGTH_MEASURE( 0.02539999999999999897 ), #66 );
#162 = COLOUR_RGB ( '',0.7921568627450980005, 0.8196078431372548767, 0.9333333333333333481 ) ;
#163 = PRESENTATION_LAYER_ASSIGNMENT (  '', '', ( #184 ) ) ;
#164 =( CONVERSION_BASED_UNIT ( 'INCH', #161 ) LENGTH_UNIT ( ) NAMED_UNIT ( #151 ) );
#165 = FILL_AREA_STYLE ('',( #42 ) ) ;
#166 = ADVANCED_FACE ( 'NONE', ( #270 ), #293, .T. ) ;
#167 =( CONVERSION_BASED_UNIT ( 'INCH', #69 ) LENGTH_UNIT ( ) NAMED_UNIT ( #180 ) );
#168 = LENGTH_MEASURE_WITH_UNIT ( LENGTH_MEASURE( 0.02539999999999999897 ), #98 );
#169 = DIRECTION ( 'NONE',  ( -0.000000000000000000, -1.000000000000000000, -0.000000000000000000 ) ) ;
#170 = CIRCLE ( 'NONE', #130, 0.1562500000000000000 ) ;
#171 = MECHANICAL_DESIGN_GEOMETRIC_PRESENTATION_REPRESENTATION (  '', ( #184 ), #6 ) ;
#172 = DIRECTION ( 'NONE',  ( 0.000000000000000000, 0.000000000000000000, -1.000000000000000000 ) ) ;
#173 = ORIENTED_EDGE ( 'NONE', *, *, #76, .T. ) ;
#174 = MANIFOLD_SOLID_BREP ( 'Revolve - Tool Body (Straight Shanked)', #295 ) ;
#175 = VECTOR ( 'NONE', #85, 39.37007874015748143 ) ;
#176 = ADVANCED_FACE ( 'NONE', ( #114 ), #50, .T. ) ;
#177 = LINE ( 'NONE', #5, #262 ) ;
#178 = CARTESIAN_POINT ( 'NONE',  ( 0.1562500000000000000, 3.000000000000000444, 0.000000000000000000 ) ) ;
#179 = PRODUCT ( '81557', '81557', '', ( #242 ) ) ;
#180 = DIMENSIONAL_EXPONENTS ( 1.000000000000000000, 0.000000000000000000, 0.000000000000000000, 0.000000000000000000, 0.000000000000000000, 0.000000000000000000, 0.000000000000000000 ) ;
#181 = AXIS2_PLACEMENT_3D ( 'NONE', #236, #149, #26 ) ;
#182 = LENGTH_MEASURE_WITH_UNIT ( LENGTH_MEASURE( 0.02539999999999999897 ), #208 );
#183 = EDGE_CURVE ( 'NONE', #188, #12, #158, .T. ) ;
#184 = STYLED_ITEM ( 'NONE', ( #217 ), #277 ) ;
#185 =( CONVERSION_BASED_UNIT ( 'INCH', #53 ) LENGTH_UNIT ( ) NAMED_UNIT ( #31 ) );
#186 = ORIENTED_EDGE ( 'NONE', *, *, #245, .T. ) ;
#187 = DIRECTION ( 'NONE',  ( -4.259641040512536405E-17, 1.000000000000000000, -0.000000000000000000 ) ) ;
#188 = VERTEX_POINT ( 'NONE', #304 ) ;
#189 = DIRECTION ( 'NONE',  ( 0.000000000000000000, 0.000000000000000000, -1.000000000000000000 ) ) ;
#190 = MECHANICAL_DESIGN_GEOMETRIC_PRESENTATION_REPRESENTATION (  '', ( #274 ), #67 ) ;
#191 = MECHANICAL_DESIGN_GEOMETRIC_PRESENTATION_REPRESENTATION (  '', ( #145 ), #55 ) ;
#192 = UNCERTAINTY_MEASURE_WITH_UNIT (LENGTH_MEASURE( 1.000000000000000082E-05 ), #167, 'distance_accuracy_value', 'NONE');
#193 = CARTESIAN_POINT ( 'NONE',  ( 1.913510623667739463E-17, 0.000000000000000000, 0.1562500000000000000 ) ) ;
#194 = CARTESIAN_POINT ( 'NONE',  ( 0.000000000000000000, 0.000000000000000000, 0.000000000000000000 ) ) ;
#195 = CARTESIAN_POINT ( 'NONE',  ( 0.000000000000000000, 1.562500000000000000, 0.000000000000000000 ) ) ;
#196 = UNCERTAINTY_MEASURE_WITH_UNIT (LENGTH_MEASURE( 1.000000000000000082E-05 ), #164, 'distance_accuracy_value', 'NONE');
#197 = FACE_OUTER_BOUND ( 'NONE', #250, .T. ) ;
#198 = EDGE_CURVE ( 'NONE', #30, #188, #269, .T. ) ;
#199 = CARTESIAN_POINT ( 'NONE',  ( -6.123233995736772199E-17, 3.000000000000000444, 0.000000000000000000 ) ) ;
#200 = COLOUR_RGB ( '',1.000000000000000000, 0.000000000000000000, 0.000000000000000000 ) ;
#201 = PRESENTATION_STYLE_ASSIGNMENT (( #148 ) ) ;
#202 = DIRECTION ( 'NONE',  ( -0.000000000000000000, -1.000000000000000000, -0.000000000000000000 ) ) ;
#203 = LINE ( 'NONE', #129, #226 ) ;
#204 =( GEOMETRIC_REPRESENTATION_CONTEXT ( 3 ) GLOBAL_UNCERTAINTY_ASSIGNED_CONTEXT ( ( #196 ) ) GLOBAL_UNIT_ASSIGNED_CONTEXT ( ( #164, #140, #88 ) ) REPRESENTATION_CONTEXT ( 'NONE', 'WORKASPACE' ) );
#205 = DIRECTION ( 'NONE',  ( -4.259641040512536405E-17, 1.000000000000000000, -0.000000000000000000 ) ) ;
#206 = FILL_AREA_STYLE ('',( #77 ) ) ;
#207 = DIMENSIONAL_EXPONENTS ( 1.000000000000000000, 0.000000000000000000, 0.000000000000000000, 0.000000000000000000, 0.000000000000000000, 0.000000000000000000, 0.000000000000000000 ) ;
#208 =( LENGTH_UNIT ( ) NAMED_UNIT ( * ) SI_UNIT ( $, .METRE. ) );
#209 = EDGE_CURVE ( 'NONE', #276, #221, #63, .T. ) ;
#210 = DIRECTION ( 'NONE',  ( 0.000000000000000000, 0.000000000000000000, -1.000000000000000000 ) ) ;
#211 = AXIS2_PLACEMENT_3D ( 'NONE', #178, #103, #27 ) ;
#212 = DIRECTION ( 'NONE',  ( -0.000000000000000000, -1.000000000000000000, -0.000000000000000000 ) ) ;
#213 = ORIENTED_EDGE ( 'NONE', *, *, #147, .F. ) ;
#214 = CARTESIAN_POINT ( 'NONE',  ( 0.1562499999999999722, 3.000000000000000444, 1.913510623667739771E-17 ) ) ;
#215 = ADVANCED_BREP_SHAPE_REPRESENTATION ( '81557', ( #62, #174, #72 ), #41 ) ;
#216 = COLOUR_RGB ( '',1.000000000000000000, 0.000000000000000000, 0.000000000000000000 ) ;
#217 = PRESENTATION_STYLE_ASSIGNMENT (( #275 ) ) ;
#218 = SURFACE_STYLE_FILL_AREA ( #165 ) ;
#219 = CIRCLE ( 'NONE', #110, 0.1562500000000000833 ) ;
#220 = PRESENTATION_STYLE_ASSIGNMENT (( #65 ) ) ;
#221 = VERTEX_POINT ( 'NONE', #193 ) ;
#222 =( GEOMETRIC_REPRESENTATION_CONTEXT ( 3 ) GLOBAL_UNCERTAINTY_ASSIGNED_CONTEXT ( ( #243 ) ) GLOBAL_UNIT_ASSIGNED_CONTEXT ( ( #23, #100, #228 ) ) REPRESENTATION_CONTEXT ( 'NONE', 'WORKASPACE' ) );
#223 = AXIS2_PLACEMENT_3D ( 'NONE', #123, #263, #71 ) ;
#224 = ORIENTED_EDGE ( 'NONE', *, *, #147, .T. ) ;
#225 = DIRECTION ( 'NONE',  ( -4.259641040512536405E-17, 1.000000000000000000, -0.000000000000000000 ) ) ;
#226 = VECTOR ( 'NONE', #225, 39.37007874015748143 ) ;
#227 = PRESENTATION_STYLE_ASSIGNMENT (( #248 ) ) ;
#228 =( NAMED_UNIT ( * ) SI_UNIT ( $, .STERADIAN. ) SOLID_ANGLE_UNIT ( ) );
#229 = VERTEX_POINT ( 'NONE', #13 ) ;
#230 = AXIS2_PLACEMENT_3D ( 'NONE', #273, #187, #233 ) ;
#231 = ORIENTED_EDGE ( 'NONE', *, *, #137, .F. ) ;
#232 = EDGE_LOOP ( 'NONE', ( #8, #307, #78, #34 ) ) ;
#233 = DIRECTION ( 'NONE',  ( -1.000000000000000000, 0.000000000000000000, 0.000000000000000000 ) ) ;
#234 = VERTEX_POINT ( 'NONE', #58 ) ;
#235 = DIRECTION ( 'NONE',  ( 0.000000000000000000, 0.000000000000000000, 1.000000000000000000 ) ) ;
#236 = CARTESIAN_POINT ( 'NONE',  ( 0.000000000000000000, 0.000000000000000000, 0.000000000000000000 ) ) ;
#237 = PRESENTATION_STYLE_ASSIGNMENT (( #259 ) ) ;
#238 =( NAMED_UNIT ( * ) SI_UNIT ( $, .STERADIAN. ) SOLID_ANGLE_UNIT ( ) );
#239 =( NAMED_UNIT ( * ) PLANE_ANGLE_UNIT ( ) SI_UNIT ( $, .RADIAN. ) );
#240 = EDGE_CURVE ( 'NONE', #276, #229, #109, .T. ) ;
#241 = AXIS2_PLACEMENT_3D ( 'NONE', #195, #121, #91 ) ;
#242 = PRODUCT_CONTEXT ( 'NONE', #101, 'mechanical' ) ;
#243 = UNCERTAINTY_MEASURE_WITH_UNIT (LENGTH_MEASURE( 1.000000000000000082E-05 ), #23, 'distance_accuracy_value', 'NONE');
#244 = CARTESIAN_POINT ( 'NONE',  ( 0.000000000000000000, 0.000000000000000000, 0.000000000000000000 ) ) ;
#245 = EDGE_CURVE ( 'NONE', #60, #12, #45, .T. ) ;
#246 = PLANE ( 'NONE',  #211 ) ;
#247 = CIRCLE ( 'NONE', #15, 0.1562500000000000000 ) ;
#248 = SURFACE_STYLE_USAGE ( .BOTH. , #25 ) ;
#249 = DIRECTION ( 'NONE',  ( -4.259641040512536405E-17, 1.000000000000000000, -0.000000000000000000 ) ) ;
#250 = EDGE_LOOP ( 'NONE', ( #173, #44, #271, #213 ) ) ;
#251 = DIRECTION ( 'NONE',  ( 0.000000000000000000, 0.000000000000000000, -1.000000000000000000 ) ) ;
#252 = ORIENTED_EDGE ( 'NONE', *, *, #106, .F. ) ;
#253 =( NAMED_UNIT ( * ) SI_UNIT ( $, .STERADIAN. ) SOLID_ANGLE_UNIT ( ) );
#254 = CARTESIAN_POINT ( 'NONE',  ( 0.1562500000000000000, 3.000000000000000444, 1.913510623667739771E-17 ) ) ;
#255 = FILL_AREA_STYLE ('',( #119 ) ) ;
#256 = EDGE_CURVE ( 'NONE', #234, #221, #265, .T. ) ;
#257 = ORIENTED_EDGE ( 'NONE', *, *, #137, .T. ) ;
#258 = CIRCLE ( 'NONE', #144, 0.1562500000000000000 ) ;
#259 = SURFACE_STYLE_USAGE ( .BOTH. , #284 ) ;
#260 =( NAMED_UNIT ( * ) PLANE_ANGLE_UNIT ( ) SI_UNIT ( $, .RADIAN. ) );
#261 = SURFACE_SIDE_STYLE ('',( #142 ) ) ;
#262 = VECTOR ( 'NONE', #152, 39.37007874015748143 ) ;
#263 = DIRECTION ( 'NONE',  ( -4.259641040512536405E-17, 1.000000000000000000, 0.000000000000000000 ) ) ;
#264 = ORIENTED_EDGE ( 'NONE', *, *, #245, .F. ) ;
#265 = CIRCLE ( 'NONE', #16, 0.1562500000000000000 ) ;
#266 = CARTESIAN_POINT ( 'NONE',  ( 0.000000000000000000, 0.000000000000000000, 0.000000000000000000 ) ) ;
#267 = DIRECTION ( 'NONE',  ( -1.000000000000000000, 0.000000000000000000, 0.000000000000000000 ) ) ;
#268 = FILL_AREA_STYLE ('',( #131 ) ) ;
#269 = CIRCLE ( 'NONE', #81, 0.1562500000000000000 ) ;
#270 = FACE_OUTER_BOUND ( 'NONE', #298, .T. ) ;
#271 = ORIENTED_EDGE ( 'NONE', *, *, #256, .F. ) ;
#272 = PRODUCT_DEFINITION_SHAPE ( 'NONE', 'NONE',  #125 ) ;
#273 = CARTESIAN_POINT ( 'NONE',  ( -6.123233995736772199E-17, 3.000000000000000444, 0.000000000000000000 ) ) ;
#274 = STYLED_ITEM ( 'NONE', ( #237 ), #62 ) ;
#275 = SURFACE_STYLE_USAGE ( .BOTH. , #134 ) ;
#276 = VERTEX_POINT ( 'NONE', #17 ) ;
#277 = ADVANCED_FACE ( 'NONE', ( #87 ), #302, .T. ) ;
#278 = CARTESIAN_POINT ( 'NONE',  ( 0.000000000000000000, 1.562500000000000000, 0.000000000000000000 ) ) ;
#279 = CARTESIAN_POINT ( 'NONE',  ( -0.1562500000000001388, 3.000000000000000444, 0.000000000000000000 ) ) ;
#280 = CYLINDRICAL_SURFACE ( 'NONE', #68, 0.1562500000000000000 ) ;
#281 = FILL_AREA_STYLE ('',( #64 ) ) ;
#282 = LENGTH_MEASURE_WITH_UNIT ( LENGTH_MEASURE( 0.02539999999999999897 ), #94 );
#283 = AXIS2_PLACEMENT_3D ( 'NONE', #278, #82, #189 ) ;
#284 = SURFACE_SIDE_STYLE ('',( #4 ) ) ;
#285 = UNCERTAINTY_MEASURE_WITH_UNIT (LENGTH_MEASURE( 1.000000000000000082E-05 ), #155, 'distance_accuracy_value', 'NONE');
#286 = DIRECTION ( 'NONE',  ( -4.259641040512536405E-17, 1.000000000000000000, -0.000000000000000000 ) ) ;
#287 = ADVANCED_FACE ( 'NONE', ( #288 ), #40, .F. ) ;
#288 = FACE_OUTER_BOUND ( 'NONE', #133, .T. ) ;
#289 = DIRECTION ( 'NONE',  ( 0.000000000000000000, -1.000000000000000000, -0.000000000000000000 ) ) ;
#290 = PRESENTATION_LAYER_ASSIGNMENT (  '', '', ( #308 ) ) ;
#291 = EDGE_LOOP ( 'NONE', ( #186, #56 ) ) ;
#292 = SURFACE_STYLE_FILL_AREA ( #268 ) ;
#293 = CYLINDRICAL_SURFACE ( 'NONE', #29, 0.1562500000000000278 ) ;
#294 = ADVANCED_FACE ( 'NONE', ( #197 ), #280, .T. ) ;
#295 = CLOSED_SHELL ( 'NONE', ( #166, #287, #176, #95 ) ) ;
#296 = SURFACE_STYLE_FILL_AREA ( #206 ) ;
#297 = DIMENSIONAL_EXPONENTS ( 1.000000000000000000, 0.000000000000000000, 0.000000000000000000, 0.000000000000000000, 0.000000000000000000, 0.000000000000000000, 0.000000000000000000 ) ;
#298 = EDGE_LOOP ( 'NONE', ( #113, #14, #264, #252 ) ) ;
#299 = DIMENSIONAL_EXPONENTS ( 1.000000000000000000, 0.000000000000000000, 0.000000000000000000, 0.000000000000000000, 0.000000000000000000, 0.000000000000000000, 0.000000000000000000 ) ;
#300 = CARTESIAN_POINT ( 'NONE',  ( 0.000000000000000000, 1.562500000000000000, 0.000000000000000000 ) ) ;
#301 = ORIENTED_EDGE ( 'NONE', *, *, #76, .F. ) ;
#302 = PLANE ( 'NONE',  #46 ) ;
#303 = EDGE_CURVE ( 'NONE', #12, #60, #219, .T. ) ;
#304 = CARTESIAN_POINT ( 'NONE',  ( 0.1562500000000000000, 1.562500000000000000, 1.913510623667739771E-17 ) ) ;
#305 = EDGE_LOOP ( 'NONE', ( #118, #39, #224, #231 ) ) ;
#306 = APPLICATION_PROTOCOL_DEFINITION ( 'draft international standard', 'automotive_design', 1998, #101 ) ;
#307 = ORIENTED_EDGE ( 'NONE', *, *, #157, .T. ) ;
#308 = STYLED_ITEM ( 'NONE', ( #201 ), #38 ) ;
#309 = UNCERTAINTY_MEASURE_WITH_UNIT (LENGTH_MEASURE( 1.000000000000000082E-05 ), #70, 'distance_accuracy_value', 'NONE');
ENDSEC;
END-ISO-10303-21;
