ISO-10303-21;
HEADER;
FILE_DESCRIPTION (( 'STEP AP214' ),
    '1' );
FILE_NAME ('56092.STEP',
    '2023-06-30T22:05:35',
    ( '' ),
    ( '' ),
    'SwSTEP 2.0',
    'SolidWorks 2023',
    '' );
FILE_SCHEMA (( 'AUTOMOTIVE_DESIGN' ));
ENDSEC;

DATA;
#1 = VERTEX_POINT ( 'NONE', #262 ) ;
#2 = MECHANICAL_DESIGN_GEOMETRIC_PRESENTATION_REPRESENTATION (  '', ( #269 ), #146 ) ;
#3 = AXIS2_PLACEMENT_3D ( 'NONE', #211, #296, #331 ) ;
#4 = VECTOR ( 'NONE', #365, 39.37007874015748143 ) ;
#5 = DIRECTION ( 'NONE',  ( -1.000000000000000000, 0.000000000000000000, 0.000000000000000000 ) ) ;
#6 = SURFACE_STYLE_FILL_AREA ( #144 ) ;
#7 = ADVANCED_FACE ( 'NONE', ( #244 ), #186, .T. ) ;
#8 = PRESENTATION_LAYER_ASSIGNMENT (  '', '', ( #140 ) ) ;
#9 = VERTEX_POINT ( 'NONE', #95 ) ;
#10 = CARTESIAN_POINT ( 'NONE',  ( -1.148106374200644017E-17, 0.09375000000000002776, 0.000000000000000000 ) ) ;
#11 = VERTEX_POINT ( 'NONE', #247 ) ;
#12 = VECTOR ( 'NONE', #168, 39.37007874015748143 ) ;
#13 = SURFACE_SIDE_STYLE ('',( #325 ) ) ;
#14 = AXIS2_PLACEMENT_3D ( 'NONE', #102, #353, #92 ) ;
#15 =( CONVERSION_BASED_UNIT ( 'INCH', #268 ) LENGTH_UNIT ( ) NAMED_UNIT ( #192 ) );
#16 = PLANE ( 'NONE',  #78 ) ;
#17 = ORIENTED_EDGE ( 'NONE', *, *, #87, .T. ) ;
#18 =( NAMED_UNIT ( * ) SI_UNIT ( $, .STERADIAN. ) SOLID_ANGLE_UNIT ( ) );
#19 = PRODUCT ( '56092', '56092', '', ( #276 ) ) ;
#20 = SURFACE_STYLE_FILL_AREA ( #104 ) ;
#21 = CYLINDRICAL_SURFACE ( 'NONE', #84, 0.09374999999999988898 ) ;
#22 = AXIS2_PLACEMENT_3D ( 'NONE', #255, #352, #263 ) ;
#23 = DIRECTION ( 'NONE',  ( 1.000000000000000000, 0.000000000000000000, 0.000000000000000000 ) ) ;
#24 =( GEOMETRIC_REPRESENTATION_CONTEXT ( 3 ) GLOBAL_UNCERTAINTY_ASSIGNED_CONTEXT ( ( #372 ) ) GLOBAL_UNIT_ASSIGNED_CONTEXT ( ( #66, #41, #35 ) ) REPRESENTATION_CONTEXT ( 'NONE', 'WORKASPACE' ) );
#25 = FILL_AREA_STYLE ('',( #280 ) ) ;
#26 =( LENGTH_UNIT ( ) NAMED_UNIT ( * ) SI_UNIT ( $, .METRE. ) );
#27 = EDGE_LOOP ( 'NONE', ( #293, #90, #300, #152 ) ) ;
#28 = DIRECTION ( 'NONE',  ( -1.000000000000000000, 0.000000000000000000, 0.000000000000000000 ) ) ;
#29 = CYLINDRICAL_SURFACE ( 'NONE', #22, 0.09374999999999995837 ) ;
#30 = CIRCLE ( 'NONE', #3, 0.09374999999999998612 ) ;
#31 = AXIS2_PLACEMENT_3D ( 'NONE', #163, #208, #328 ) ;
#32 = CYLINDRICAL_SURFACE ( 'NONE', #64, 0.09374999999999988898 ) ;
#33 = EDGE_CURVE ( 'NONE', #175, #120, #223, .T. ) ;
#34 = FILL_AREA_STYLE ('',( #292 ) ) ;
#35 =( NAMED_UNIT ( * ) SI_UNIT ( $, .STERADIAN. ) SOLID_ANGLE_UNIT ( ) );
#36 = ORIENTED_EDGE ( 'NONE', *, *, #210, .F. ) ;
#37 =( NAMED_UNIT ( * ) SI_UNIT ( $, .STERADIAN. ) SOLID_ANGLE_UNIT ( ) );
#38 = DIMENSIONAL_EXPONENTS ( 1.000000000000000000, 0.000000000000000000, 0.000000000000000000, 0.000000000000000000, 0.000000000000000000, 0.000000000000000000, 0.000000000000000000 ) ;
#39 = AXIS2_PLACEMENT_3D ( 'NONE', #349, #65, #220 ) ;
#40 = EDGE_LOOP ( 'NONE', ( #315, #207, #73, #237 ) ) ;
#41 =( NAMED_UNIT ( * ) PLANE_ANGLE_UNIT ( ) SI_UNIT ( $, .RADIAN. ) );
#42 = VERTEX_POINT ( 'NONE', #79 ) ;
#43 = CARTESIAN_POINT ( 'NONE',  ( -6.123233995736766036E-17, 2.500000000000000000, 0.000000000000000000 ) ) ;
#44 = DIRECTION ( 'NONE',  ( -1.224646799147353207E-16, 1.000000000000000000, -0.000000000000000000 ) ) ;
#45 = ORIENTED_EDGE ( 'NONE', *, *, #33, .F. ) ;
#46 = LENGTH_MEASURE_WITH_UNIT ( LENGTH_MEASURE( 0.02539999999999999897 ), #100 );
#47 = UNCERTAINTY_MEASURE_WITH_UNIT (LENGTH_MEASURE( 1.000000000000000082E-05 ), #333, 'distance_accuracy_value', 'NONE');
#48 = MECHANICAL_DESIGN_GEOMETRIC_PRESENTATION_REPRESENTATION (  '', ( #140 ), #170 ) ;
#49 = EDGE_LOOP ( 'NONE', ( #45, #295 ) ) ;
#50 =( LENGTH_UNIT ( ) NAMED_UNIT ( * ) SI_UNIT ( $, .METRE. ) );
#51 = LENGTH_MEASURE_WITH_UNIT ( LENGTH_MEASURE( 0.02539999999999999897 ), #81 );
#52 = FACE_OUTER_BOUND ( 'NONE', #40, .T. ) ;
#53 = PRODUCT_DEFINITION_SHAPE ( 'NONE', 'NONE',  #320 ) ;
#54 = CIRCLE ( 'NONE', #14, 0.09374999999999994449 ) ;
#55 = CARTESIAN_POINT ( 'NONE',  ( -1.148106374200644017E-17, 0.09375000000000002776, 0.000000000000000000 ) ) ;
#56 = CARTESIAN_POINT ( 'NONE',  ( 0.000000000000000000, 0.000000000000000000, 0.000000000000000000 ) ) ;
#57 = COLOUR_RGB ( '',0.7921568627450980005, 0.8196078431372548767, 0.9333333333333333481 ) ;
#58 = APPLICATION_PROTOCOL_DEFINITION ( 'draft international standard', 'automotive_design', 1998, #348 ) ;
#59 = UNCERTAINTY_MEASURE_WITH_UNIT (LENGTH_MEASURE( 1.000000000000000082E-05 ), #162, 'distance_accuracy_value', 'NONE');
#60 = VERTEX_POINT ( 'NONE', #340 ) ;
#61 = DIMENSIONAL_EXPONENTS ( 1.000000000000000000, 0.000000000000000000, 0.000000000000000000, 0.000000000000000000, 0.000000000000000000, 0.000000000000000000, 0.000000000000000000 ) ;
#62 =( LENGTH_UNIT ( ) NAMED_UNIT ( * ) SI_UNIT ( $, .METRE. ) );
#63 = DIMENSIONAL_EXPONENTS ( 1.000000000000000000, 0.000000000000000000, 0.000000000000000000, 0.000000000000000000, 0.000000000000000000, 0.000000000000000000, 0.000000000000000000 ) ;
#64 = AXIS2_PLACEMENT_3D ( 'NONE', #258, #150, #236 ) ;
#65 = DIRECTION ( 'NONE',  ( 0.000000000000000000, 0.000000000000000000, 1.000000000000000000 ) ) ;
#66 =( CONVERSION_BASED_UNIT ( 'INCH', #97 ) LENGTH_UNIT ( ) NAMED_UNIT ( #235 ) );
#67 = ORIENTED_EDGE ( 'NONE', *, *, #165, .F. ) ;
#68 =( CONVERSION_BASED_UNIT ( 'INCH', #172 ) LENGTH_UNIT ( ) NAMED_UNIT ( #221 ) );
#69 = AXIS2_PLACEMENT_3D ( 'NONE', #106, #277, #364 ) ;
#70 = AXIS2_PLACEMENT_3D ( 'NONE', #10, #121, #291 ) ;
#71 = ORIENTED_EDGE ( 'NONE', *, *, #189, .T. ) ;
#72 = SURFACE_SIDE_STYLE ('',( #130 ) ) ;
#73 = ORIENTED_EDGE ( 'NONE', *, *, #256, .F. ) ;
#74 = FILL_AREA_STYLE ('',( #271 ) ) ;
#75 = FILL_AREA_STYLE ('',( #174 ) ) ;
#76 = DIRECTION ( 'NONE',  ( 0.000000000000000000, -0.000000000000000000, 1.000000000000000000 ) ) ;
#77 = ADVANCED_FACE ( 'NONE', ( #307 ), #139, .T. ) ;
#78 = AXIS2_PLACEMENT_3D ( 'NONE', #94, #179, #240 ) ;
#79 = CARTESIAN_POINT ( 'NONE',  ( 0.09374999999999995837, 0.6250000000000000000, 1.148106374200643092E-17 ) ) ;
#80 = CARTESIAN_POINT ( 'NONE',  ( 0.000000000000000000, 0.6250000000000000000, -0.09374999999999994449 ) ) ;
#81 =( LENGTH_UNIT ( ) NAMED_UNIT ( * ) SI_UNIT ( $, .METRE. ) );
#82 = APPLICATION_CONTEXT ( 'automotive_design' ) ;
#83 = SURFACE_STYLE_USAGE ( .BOTH. , #341 ) ;
#84 = AXIS2_PLACEMENT_3D ( 'NONE', #185, #274, #242 ) ;
#85 = FILL_AREA_STYLE_COLOUR ( '', #191 ) ;
#86 = CARTESIAN_POINT ( 'NONE',  ( 0.000000000000000000, 0.000000000000000000, -0.09374999999999995837 ) ) ;
#87 = EDGE_CURVE ( 'NONE', #175, #355, #148, .T. ) ;
#88 = DIRECTION ( 'NONE',  ( -0.000000000000000000, -1.000000000000000000, -0.000000000000000000 ) ) ;
#89 = AXIS2_PLACEMENT_3D ( 'NONE', #196, #257, #28 ) ;
#90 = ORIENTED_EDGE ( 'NONE', *, *, #173, .T. ) ;
#91 = EDGE_CURVE ( 'NONE', #60, #103, #238, .T. ) ;
#92 = DIRECTION ( 'NONE',  ( 0.000000000000000000, 0.000000000000000000, -1.000000000000000000 ) ) ;
#93 = PRESENTATION_STYLE_ASSIGNMENT (( #119 ) ) ;
#94 = CARTESIAN_POINT ( 'NONE',  ( 0.09374999999999994449, 2.500000000000000000, 0.000000000000000000 ) ) ;
#95 = CARTESIAN_POINT ( 'NONE',  ( -0.09375000000000002776, 0.09375000000000004163, 1.148106374200643555E-17 ) ) ;
#96 = CARTESIAN_POINT ( 'NONE',  ( 0.000000000000000000, 0.09375000000000004163, -0.09374999999999998612 ) ) ;
#97 = LENGTH_MEASURE_WITH_UNIT ( LENGTH_MEASURE( 0.02539999999999999897 ), #329 );
#98 = ORIENTED_EDGE ( 'NONE', *, *, #199, .T. ) ;
#99 = PLANE ( 'NONE',  #112 ) ;
#100 =( LENGTH_UNIT ( ) NAMED_UNIT ( * ) SI_UNIT ( $, .METRE. ) );
#101 =( NAMED_UNIT ( * ) PLANE_ANGLE_UNIT ( ) SI_UNIT ( $, .RADIAN. ) );
#102 = CARTESIAN_POINT ( 'NONE',  ( 0.000000000000000000, 0.6250000000000000000, 0.000000000000000000 ) ) ;
#103 = VERTEX_POINT ( 'NONE', #259 ) ;
#104 = FILL_AREA_STYLE ('',( #275 ) ) ;
#105 = STYLED_ITEM ( 'NONE', ( #93 ), #188 ) ;
#106 = CARTESIAN_POINT ( 'NONE',  ( 0.000000000000000000, 0.6250000000000000000, 0.000000000000000000 ) ) ;
#107 = DIRECTION ( 'NONE',  ( 0.000000000000000000, 0.000000000000000000, 1.000000000000000000 ) ) ;
#108 = DIRECTION ( 'NONE',  ( 1.000000000000000000, 0.000000000000000000, -1.224646799147353207E-16 ) ) ;
#109 = DIRECTION ( 'NONE',  ( 0.000000000000000000, 0.000000000000000000, -1.000000000000000000 ) ) ;
#110 = ORIENTED_EDGE ( 'NONE', *, *, #173, .F. ) ;
#111 = EDGE_CURVE ( 'NONE', #324, #42, #370, .T. ) ;
#112 = AXIS2_PLACEMENT_3D ( 'NONE', #245, #265, #76 ) ;
#113 = CARTESIAN_POINT ( 'NONE',  ( 1.683889348827610752E-16, 0.6250000000000000000, 0.000000000000000000 ) ) ;
#114 = SURFACE_STYLE_USAGE ( .BOTH. , #226 ) ;
#115 =( NAMED_UNIT ( * ) PLANE_ANGLE_UNIT ( ) SI_UNIT ( $, .RADIAN. ) );
#116 = ORIENTED_EDGE ( 'NONE', *, *, #145, .F. ) ;
#117 =( GEOMETRIC_REPRESENTATION_CONTEXT ( 3 ) GLOBAL_UNCERTAINTY_ASSIGNED_CONTEXT ( ( #47 ) ) GLOBAL_UNIT_ASSIGNED_CONTEXT ( ( #333, #303, #231 ) ) REPRESENTATION_CONTEXT ( 'NONE', 'WORKASPACE' ) );
#118 = MECHANICAL_DESIGN_GEOMETRIC_PRESENTATION_REPRESENTATION (  '', ( #261 ), #24 ) ;
#119 = SURFACE_STYLE_USAGE ( .BOTH. , #286 ) ;
#120 = VERTEX_POINT ( 'NONE', #312 ) ;
#121 = DIRECTION ( 'NONE',  ( 0.000000000000000000, 0.000000000000000000, -1.000000000000000000 ) ) ;
#122 = CARTESIAN_POINT ( 'NONE',  ( 1.683889348827610506E-16, 0.6250000000000000000, 0.000000000000000000 ) ) ;
#123 = ADVANCED_FACE ( 'NONE', ( #314 ), #227, .T. ) ;
#124 = DIRECTION ( 'NONE',  ( -0.000000000000000000, -1.000000000000000000, -0.000000000000000000 ) ) ;
#125 = PRESENTATION_LAYER_ASSIGNMENT (  '', '', ( #187 ) ) ;
#126 = CIRCLE ( 'NONE', #70, 0.09375000000000002776 ) ;
#127 = PRESENTATION_STYLE_ASSIGNMENT (( #264 ) ) ;
#128 =( NAMED_UNIT ( * ) SI_UNIT ( $, .STERADIAN. ) SOLID_ANGLE_UNIT ( ) );
#129 = ORIENTED_EDGE ( 'NONE', *, *, #256, .T. ) ;
#130 = SURFACE_STYLE_FILL_AREA ( #74 ) ;
#131 = CARTESIAN_POINT ( 'NONE',  ( -0.09374999999999961142, 0.6250000000000000000, 0.000000000000000000 ) ) ;
#132 = SURFACE_STYLE_USAGE ( .BOTH. , #248 ) ;
#133 = UNCERTAINTY_MEASURE_WITH_UNIT (LENGTH_MEASURE( 1.000000000000000082E-05 ), #343, 'distance_accuracy_value', 'NONE');
#134 = COLOUR_RGB ( '',0.7921568627450980005, 0.8196078431372548767, 0.9333333333333333481 ) ;
#135 = AXIS2_PLACEMENT_3D ( 'NONE', #122, #182, #301 ) ;
#136 = MANIFOLD_SOLID_BREP ( 'Revolve - Tool Body (Straight Shanked)', #350 ) ;
#137 = MANIFOLD_SOLID_BREP ( 'Revolve - Cutting Edge', #310 ) ;
#138 = UNCERTAINTY_MEASURE_WITH_UNIT (LENGTH_MEASURE( 1.000000000000000082E-05 ), #68, 'distance_accuracy_value', 'NONE');
#139 = CYLINDRICAL_SURFACE ( 'NONE', #157, 0.09374999999999995837 ) ;
#140 = STYLED_ITEM ( 'NONE', ( #282 ), #136 ) ;
#141 = SURFACE_STYLE_FILL_AREA ( #25 ) ;
#142 = UNCERTAINTY_MEASURE_WITH_UNIT (LENGTH_MEASURE( 1.000000000000000082E-05 ), #317, 'distance_accuracy_value', 'NONE');
#143 = EDGE_CURVE ( 'NONE', #120, #175, #54, .T. ) ;
#144 = FILL_AREA_STYLE ('',( #85 ) ) ;
#145 = EDGE_CURVE ( 'NONE', #42, #60, #294, .T. ) ;
#146 =( GEOMETRIC_REPRESENTATION_CONTEXT ( 3 ) GLOBAL_UNCERTAINTY_ASSIGNED_CONTEXT ( ( #59 ) ) GLOBAL_UNIT_ASSIGNED_CONTEXT ( ( #162, #367, #169 ) ) REPRESENTATION_CONTEXT ( 'NONE', 'WORKASPACE' ) );
#147 = AXIS2_PLACEMENT_3D ( 'NONE', #43, #161, #153 ) ;
#148 = LINE ( 'NONE', #86, #12 ) ;
#149 = ADVANCED_FACE ( 'NONE', ( #158 ), #16, .F. ) ;
#150 = DIRECTION ( 'NONE',  ( -1.224646799147353207E-16, 1.000000000000000000, -0.000000000000000000 ) ) ;
#151 = ORIENTED_EDGE ( 'NONE', *, *, #373, .T. ) ;
#152 = ORIENTED_EDGE ( 'NONE', *, *, #210, .T. ) ;
#153 = DIRECTION ( 'NONE',  ( -1.000000000000000000, 0.000000000000000000, 0.000000000000000000 ) ) ;
#154 = EDGE_CURVE ( 'NONE', #324, #103, #243, .T. ) ;
#155 = ORIENTED_EDGE ( 'NONE', *, *, #232, .F. ) ;
#156 =( CONVERSION_BASED_UNIT ( 'INCH', #306 ) LENGTH_UNIT ( ) NAMED_UNIT ( #61 ) );
#157 = AXIS2_PLACEMENT_3D ( 'NONE', #251, #345, #109 ) ;
#158 = FACE_OUTER_BOUND ( 'NONE', #313, .T. ) ;
#159 = CIRCLE ( 'NONE', #335, 0.09374999999999998612 ) ;
#160 = ORIENTED_EDGE ( 'NONE', *, *, #299, .T. ) ;
#161 = DIRECTION ( 'NONE',  ( -1.224646799147353207E-16, 1.000000000000000000, -0.000000000000000000 ) ) ;
#162 =( CONVERSION_BASED_UNIT ( 'INCH', #51 ) LENGTH_UNIT ( ) NAMED_UNIT ( #201 ) );
#163 = CARTESIAN_POINT ( 'NONE',  ( 0.000000000000000000, 0.09375000000000004163, 0.000000000000000000 ) ) ;
#164 = DIRECTION ( 'NONE',  ( 0.000000000000000000, 0.000000000000000000, 1.000000000000000000 ) ) ;
#165 = EDGE_CURVE ( 'NONE', #1, #9, #253, .T. ) ;
#166 = CIRCLE ( 'NONE', #147, 0.09375000000000001388 ) ;
#167 = PRODUCT_RELATED_PRODUCT_CATEGORY ( 'part', '', ( #19 ) ) ;
#168 = DIRECTION ( 'NONE',  ( -0.000000000000000000, -1.000000000000000000, -0.000000000000000000 ) ) ;
#169 =( NAMED_UNIT ( * ) SI_UNIT ( $, .STERADIAN. ) SOLID_ANGLE_UNIT ( ) );
#170 =( GEOMETRIC_REPRESENTATION_CONTEXT ( 3 ) GLOBAL_UNCERTAINTY_ASSIGNED_CONTEXT ( ( #133 ) ) GLOBAL_UNIT_ASSIGNED_CONTEXT ( ( #343, #206, #128 ) ) REPRESENTATION_CONTEXT ( 'NONE', 'WORKASPACE' ) );
#171 = PRODUCT_DEFINITION_FORMATION_WITH_SPECIFIED_SOURCE ( 'ANY', '', #19, .NOT_KNOWN. ) ;
#172 = LENGTH_MEASURE_WITH_UNIT ( LENGTH_MEASURE( 0.02539999999999999897 ), #198 );
#173 = EDGE_CURVE ( 'NONE', #9, #11, #195, .T. ) ;
#174 = FILL_AREA_STYLE_COLOUR ( '', #57 ) ;
#175 = VERTEX_POINT ( 'NONE', #80 ) ;
#176 = STYLED_ITEM ( 'NONE', ( #127 ), #7 ) ;
#177 = ORIENTED_EDGE ( 'NONE', *, *, #91, .F. ) ;
#178 = FACE_OUTER_BOUND ( 'NONE', #49, .T. ) ;
#179 = DIRECTION ( 'NONE',  ( 1.224646799147353207E-16, -1.000000000000000000, 0.000000000000000000 ) ) ;
#180 = ORIENTED_EDGE ( 'NONE', *, *, #33, .T. ) ;
#181 = PRESENTATION_STYLE_ASSIGNMENT (( #304 ) ) ;
#182 = DIRECTION ( 'NONE',  ( -1.224646799147353207E-16, 1.000000000000000000, 0.000000000000000000 ) ) ;
#183 = PRESENTATION_LAYER_ASSIGNMENT (  '', '', ( #176 ) ) ;
#184 = STYLED_ITEM ( 'NONE', ( #347 ), #123 ) ;
#185 = CARTESIAN_POINT ( 'NONE',  ( -6.123233995736766036E-17, 2.500000000000000000, 0.000000000000000000 ) ) ;
#186 = SPHERICAL_SURFACE ( 'NONE', #215, 0.09375000000000002776 ) ;
#187 = STYLED_ITEM ( 'NONE', ( #181 ), #283 ) ;
#188 = ADVANCED_FACE ( 'NONE', ( #230 ), #29, .T. ) ;
#189 = EDGE_CURVE ( 'NONE', #234, #11, #126, .T. ) ;
#190 = ORIENTED_EDGE ( 'NONE', *, *, #87, .F. ) ;
#191 = COLOUR_RGB ( '',1.000000000000000000, 0.000000000000000000, 0.000000000000000000 ) ;
#192 = DIMENSIONAL_EXPONENTS ( 1.000000000000000000, 0.000000000000000000, 0.000000000000000000, 0.000000000000000000, 0.000000000000000000, 0.000000000000000000, 0.000000000000000000 ) ;
#193 = DIRECTION ( 'NONE',  ( 0.000000000000000000, 0.000000000000000000, -1.000000000000000000 ) ) ;
#194 = DIRECTION ( 'NONE',  ( -1.000000000000000000, 0.000000000000000000, 0.000000000000000000 ) ) ;
#195 = CIRCLE ( 'NONE', #224, 0.09375000000000002776 ) ;
#196 = CARTESIAN_POINT ( 'NONE',  ( 1.683889348827610752E-16, 0.6250000000000000000, 0.000000000000000000 ) ) ;
#197 = ORIENTED_EDGE ( 'NONE', *, *, #232, .T. ) ;
#198 =( LENGTH_UNIT ( ) NAMED_UNIT ( * ) SI_UNIT ( $, .METRE. ) );
#199 = EDGE_CURVE ( 'NONE', #42, #324, #308, .T. ) ;
#200 = DIRECTION ( 'NONE',  ( -1.224646799147353207E-16, 1.000000000000000000, -0.000000000000000000 ) ) ;
#201 = DIMENSIONAL_EXPONENTS ( 1.000000000000000000, 0.000000000000000000, 0.000000000000000000, 0.000000000000000000, 0.000000000000000000, 0.000000000000000000, 0.000000000000000000 ) ;
#202 = EDGE_LOOP ( 'NONE', ( #180, #151, #36, #241, #190 ) ) ;
#203 =( LENGTH_UNIT ( ) NAMED_UNIT ( * ) SI_UNIT ( $, .METRE. ) );
#204 = COLOUR_RGB ( '',1.000000000000000000, 0.000000000000000000, 0.000000000000000000 ) ;
#205 =( GEOMETRIC_REPRESENTATION_CONTEXT ( 3 ) GLOBAL_UNCERTAINTY_ASSIGNED_CONTEXT ( ( #142 ) ) GLOBAL_UNIT_ASSIGNED_CONTEXT ( ( #317, #115, #321 ) ) REPRESENTATION_CONTEXT ( 'NONE', 'WORKASPACE' ) );
#206 =( NAMED_UNIT ( * ) PLANE_ANGLE_UNIT ( ) SI_UNIT ( $, .RADIAN. ) );
#207 = ORIENTED_EDGE ( 'NONE', *, *, #145, .T. ) ;
#208 = DIRECTION ( 'NONE',  ( -0.000000000000000000, -1.000000000000000000, -0.000000000000000000 ) ) ;
#209 = ORIENTED_EDGE ( 'NONE', *, *, #373, .F. ) ;
#210 = EDGE_CURVE ( 'NONE', #234, #1, #159, .T. ) ;
#211 = CARTESIAN_POINT ( 'NONE',  ( 0.000000000000000000, 0.09375000000000004163, 0.000000000000000000 ) ) ;
#212 = CARTESIAN_POINT ( 'NONE',  ( 0.000000000000000000, 0.09375000000000004163, 0.000000000000000000 ) ) ;
#213 = ORIENTED_EDGE ( 'NONE', *, *, #199, .F. ) ;
#214 = PLANE ( 'NONE',  #135 ) ;
#215 = AXIS2_PLACEMENT_3D ( 'NONE', #368, #107, #338 ) ;
#216 = ADVANCED_FACE ( 'NONE', ( #290 ), #32, .T. ) ;
#217 = AXIS2_PLACEMENT_3D ( 'NONE', #285, #316, #194 ) ;
#218 = AXIS2_PLACEMENT_3D ( 'NONE', #212, #124, #359 ) ;
#219 = PRODUCT_DEFINITION_CONTEXT ( 'detailed design', #82, 'design' ) ;
#220 = DIRECTION ( 'NONE',  ( 1.000000000000000000, 0.000000000000000000, 0.000000000000000000 ) ) ;
#221 = DIMENSIONAL_EXPONENTS ( 1.000000000000000000, 0.000000000000000000, 0.000000000000000000, 0.000000000000000000, 0.000000000000000000, 0.000000000000000000, 0.000000000000000000 ) ;
#222 = LENGTH_MEASURE_WITH_UNIT ( LENGTH_MEASURE( 0.02539999999999999897 ), #26 );
#223 = CIRCLE ( 'NONE', #69, 0.09374999999999994449 ) ;
#224 = AXIS2_PLACEMENT_3D ( 'NONE', #55, #363, #108 ) ;
#225 = CARTESIAN_POINT ( 'NONE',  ( 0.000000000000000000, 0.09375000000000004163, 0.000000000000000000 ) ) ;
#226 = SURFACE_SIDE_STYLE ('',( #6 ) ) ;
#227 = SPHERICAL_SURFACE ( 'NONE', #39, 0.09375000000000002776 ) ;
#228 = ORIENTED_EDGE ( 'NONE', *, *, #91, .T. ) ;
#229 =( GEOMETRIC_REPRESENTATION_CONTEXT ( 3 ) GLOBAL_UNCERTAINTY_ASSIGNED_CONTEXT ( ( #138 ) ) GLOBAL_UNIT_ASSIGNED_CONTEXT ( ( #68, #323, #37 ) ) REPRESENTATION_CONTEXT ( 'NONE', 'WORKASPACE' ) );
#230 = FACE_OUTER_BOUND ( 'NONE', #202, .T. ) ;
#231 =( NAMED_UNIT ( * ) SI_UNIT ( $, .STERADIAN. ) SOLID_ANGLE_UNIT ( ) );
#232 = EDGE_CURVE ( 'NONE', #9, #355, #30, .T. ) ;
#233 = SURFACE_STYLE_USAGE ( .BOTH. , #361 ) ;
#234 = VERTEX_POINT ( 'NONE', #358 ) ;
#235 = DIMENSIONAL_EXPONENTS ( 1.000000000000000000, 0.000000000000000000, 0.000000000000000000, 0.000000000000000000, 0.000000000000000000, 0.000000000000000000, 0.000000000000000000 ) ;
#236 = DIRECTION ( 'NONE',  ( -1.000000000000000000, 0.000000000000000000, 0.000000000000000000 ) ) ;
#237 = ORIENTED_EDGE ( 'NONE', *, *, #154, .F. ) ;
#238 = CIRCLE ( 'NONE', #217, 0.09375000000000001388 ) ;
#239 = MECHANICAL_DESIGN_GEOMETRIC_PRESENTATION_REPRESENTATION (  '', ( #184 ), #205 ) ;
#240 = DIRECTION ( 'NONE',  ( 1.000000000000000000, 1.224646799147353207E-16, 0.000000000000000000 ) ) ;
#241 = ORIENTED_EDGE ( 'NONE', *, *, #299, .F. ) ;
#242 = DIRECTION ( 'NONE',  ( -1.000000000000000000, 0.000000000000000000, 0.000000000000000000 ) ) ;
#243 = LINE ( 'NONE', #297, #302 ) ;
#244 = FACE_OUTER_BOUND ( 'NONE', #27, .T. ) ;
#245 = CARTESIAN_POINT ( 'NONE',  ( 0.000000000000000000, 0.6250000000000000000, 0.000000000000000000 ) ) ;
#246 = COLOUR_RGB ( '',1.000000000000000000, 0.000000000000000000, 0.000000000000000000 ) ;
#247 = CARTESIAN_POINT ( 'NONE',  ( -5.740531871003220085E-18, 0.000000000000000000, 0.000000000000000000 ) ) ;
#248 = SURFACE_SIDE_STYLE ('',( #20 ) ) ;
#249 =( NAMED_UNIT ( * ) SI_UNIT ( $, .STERADIAN. ) SOLID_ANGLE_UNIT ( ) );
#250 = SHAPE_DEFINITION_REPRESENTATION ( #53, #278 ) ;
#251 = CARTESIAN_POINT ( 'NONE',  ( 0.000000000000000000, 0.000000000000000000, 0.000000000000000000 ) ) ;
#252 = COLOUR_RGB ( '',1.000000000000000000, 0.000000000000000000, 0.000000000000000000 ) ;
#253 = CIRCLE ( 'NONE', #218, 0.09374999999999998612 ) ;
#254 =( GEOMETRIC_REPRESENTATION_CONTEXT ( 3 ) GLOBAL_UNCERTAINTY_ASSIGNED_CONTEXT ( ( #309 ) ) GLOBAL_UNIT_ASSIGNED_CONTEXT ( ( #156, #337, #18 ) ) REPRESENTATION_CONTEXT ( 'NONE', 'WORKASPACE' ) );
#255 = CARTESIAN_POINT ( 'NONE',  ( 0.000000000000000000, 0.000000000000000000, 0.000000000000000000 ) ) ;
#256 = EDGE_CURVE ( 'NONE', #103, #60, #166, .T. ) ;
#257 = DIRECTION ( 'NONE',  ( -1.224646799147353207E-16, 1.000000000000000000, -0.000000000000000000 ) ) ;
#258 = CARTESIAN_POINT ( 'NONE',  ( -6.123233995736766036E-17, 2.500000000000000000, 0.000000000000000000 ) ) ;
#259 = CARTESIAN_POINT ( 'NONE',  ( -0.09375000000000006939, 2.500000000000000000, 0.000000000000000000 ) ) ;
#260 = SURFACE_STYLE_FILL_AREA ( #75 ) ;
#261 = STYLED_ITEM ( 'NONE', ( #332 ), #137 ) ;
#262 = CARTESIAN_POINT ( 'NONE',  ( 1.148106374200643555E-17, 0.09375000000000004163, 0.09374999999999998612 ) ) ;
#263 = DIRECTION ( 'NONE',  ( 0.000000000000000000, 0.000000000000000000, -1.000000000000000000 ) ) ;
#264 = SURFACE_STYLE_USAGE ( .BOTH. , #13 ) ;
#265 = DIRECTION ( 'NONE',  ( 0.000000000000000000, 1.000000000000000000, 0.000000000000000000 ) ) ;
#266 = CARTESIAN_POINT ( 'NONE',  ( 0.09374999999999981959, 2.500000000000000000, 1.148106374200642322E-17 ) ) ;
#267 = FILL_AREA_STYLE_COLOUR ( '', #252 ) ;
#268 = LENGTH_MEASURE_WITH_UNIT ( LENGTH_MEASURE( 0.02539999999999999897 ), #203 );
#269 = STYLED_ITEM ( 'NONE', ( #371 ), #77 ) ;
#270 = ORIENTED_EDGE ( 'NONE', *, *, #111, .F. ) ;
#271 = FILL_AREA_STYLE_COLOUR ( '', #311 ) ;
#272 = EDGE_LOOP ( 'NONE', ( #209, #322, #17, #155, #67 ) ) ;
#273 = LINE ( 'NONE', #334, #4 ) ;
#274 = DIRECTION ( 'NONE',  ( -1.224646799147353207E-16, 1.000000000000000000, -0.000000000000000000 ) ) ;
#275 = FILL_AREA_STYLE_COLOUR ( '', #204 ) ;
#276 = PRODUCT_CONTEXT ( 'NONE', #348, 'mechanical' ) ;
#277 = DIRECTION ( 'NONE',  ( -0.000000000000000000, -1.000000000000000000, -0.000000000000000000 ) ) ;
#278 = ADVANCED_BREP_SHAPE_REPRESENTATION ( '56092', ( #137, #136, #336 ), #319 ) ;
#279 = MECHANICAL_DESIGN_GEOMETRIC_PRESENTATION_REPRESENTATION (  '', ( #176 ), #117 ) ;
#280 = FILL_AREA_STYLE_COLOUR ( '', #134 ) ;
#281 = CIRCLE ( 'NONE', #31, 0.09374999999999998612 ) ;
#282 = PRESENTATION_STYLE_ASSIGNMENT (( #83 ) ) ;
#283 = ADVANCED_FACE ( 'NONE', ( #178 ), #99, .T. ) ;
#284 = DIMENSIONAL_EXPONENTS ( 1.000000000000000000, 0.000000000000000000, 0.000000000000000000, 0.000000000000000000, 0.000000000000000000, 0.000000000000000000, 0.000000000000000000 ) ;
#285 = CARTESIAN_POINT ( 'NONE',  ( -6.123233995736766036E-17, 2.500000000000000000, 0.000000000000000000 ) ) ;
#286 = SURFACE_SIDE_STYLE ('',( #346 ) ) ;
#287 = LENGTH_MEASURE_WITH_UNIT ( LENGTH_MEASURE( 0.02539999999999999897 ), #62 );
#288 = PRESENTATION_LAYER_ASSIGNMENT (  '', '', ( #261 ) ) ;
#289 = AXIS2_PLACEMENT_3D ( 'NONE', #113, #344, #5 ) ;
#290 = FACE_OUTER_BOUND ( 'NONE', #330, .T. ) ;
#291 = DIRECTION ( 'NONE',  ( -1.000000000000000000, 0.000000000000000000, 0.000000000000000000 ) ) ;
#292 = FILL_AREA_STYLE_COLOUR ( '', #246 ) ;
#293 = ORIENTED_EDGE ( 'NONE', *, *, #165, .T. ) ;
#294 = LINE ( 'NONE', #266, #327 ) ;
#295 = ORIENTED_EDGE ( 'NONE', *, *, #143, .F. ) ;
#296 = DIRECTION ( 'NONE',  ( -0.000000000000000000, -1.000000000000000000, -0.000000000000000000 ) ) ;
#297 = CARTESIAN_POINT ( 'NONE',  ( -0.09374999999999995837, 2.500000000000000000, 0.000000000000000000 ) ) ;
#298 = EDGE_LOOP ( 'NONE', ( #270, #213 ) ) ;
#299 = EDGE_CURVE ( 'NONE', #355, #234, #281, .T. ) ;
#300 = ORIENTED_EDGE ( 'NONE', *, *, #189, .F. ) ;
#301 = DIRECTION ( 'NONE',  ( -1.000000000000000000, -1.224646799147353207E-16, 0.000000000000000000 ) ) ;
#302 = VECTOR ( 'NONE', #44, 39.37007874015748143 ) ;
#303 =( NAMED_UNIT ( * ) PLANE_ANGLE_UNIT ( ) SI_UNIT ( $, .RADIAN. ) );
#304 = SURFACE_STYLE_USAGE ( .BOTH. , #72 ) ;
#305 = ADVANCED_FACE ( 'NONE', ( #52 ), #21, .T. ) ;
#306 = LENGTH_MEASURE_WITH_UNIT ( LENGTH_MEASURE( 0.02539999999999999897 ), #50 );
#307 = FACE_OUTER_BOUND ( 'NONE', #272, .T. ) ;
#308 = CIRCLE ( 'NONE', #289, 0.09374999999999979183 ) ;
#309 = UNCERTAINTY_MEASURE_WITH_UNIT (LENGTH_MEASURE( 1.000000000000000082E-05 ), #156, 'distance_accuracy_value', 'NONE');
#310 = CLOSED_SHELL ( 'NONE', ( #7, #188, #283, #77, #123 ) ) ;
#311 = COLOUR_RGB ( '',1.000000000000000000, 0.000000000000000000, 0.000000000000000000 ) ;
#312 = CARTESIAN_POINT ( 'NONE',  ( 1.148106374200642938E-17, 0.6250000000000000000, 0.09374999999999994449 ) ) ;
#313 = EDGE_LOOP ( 'NONE', ( #129, #228 ) ) ;
#314 = FACE_OUTER_BOUND ( 'NONE', #360, .T. ) ;
#315 = ORIENTED_EDGE ( 'NONE', *, *, #111, .T. ) ;
#316 = DIRECTION ( 'NONE',  ( -1.224646799147353207E-16, 1.000000000000000000, -0.000000000000000000 ) ) ;
#317 =( CONVERSION_BASED_UNIT ( 'INCH', #287 ) LENGTH_UNIT ( ) NAMED_UNIT ( #284 ) );
#318 = PRESENTATION_LAYER_ASSIGNMENT (  '', '', ( #184 ) ) ;
#319 =( GEOMETRIC_REPRESENTATION_CONTEXT ( 3 ) GLOBAL_UNCERTAINTY_ASSIGNED_CONTEXT ( ( #369 ) ) GLOBAL_UNIT_ASSIGNED_CONTEXT ( ( #15, #101, #249 ) ) REPRESENTATION_CONTEXT ( 'NONE', 'WORKASPACE' ) );
#320 = PRODUCT_DEFINITION ( 'UNKNOWN', '', #171, #219 ) ;
#321 =( NAMED_UNIT ( * ) SI_UNIT ( $, .STERADIAN. ) SOLID_ANGLE_UNIT ( ) );
#322 = ORIENTED_EDGE ( 'NONE', *, *, #143, .T. ) ;
#323 =( NAMED_UNIT ( * ) PLANE_ANGLE_UNIT ( ) SI_UNIT ( $, .RADIAN. ) );
#324 = VERTEX_POINT ( 'NONE', #131 ) ;
#325 = SURFACE_STYLE_FILL_AREA ( #362 ) ;
#326 = PRESENTATION_LAYER_ASSIGNMENT (  '', '', ( #269 ) ) ;
#327 = VECTOR ( 'NONE', #200, 39.37007874015748143 ) ;
#328 = DIRECTION ( 'NONE',  ( 0.000000000000000000, 0.000000000000000000, -1.000000000000000000 ) ) ;
#329 =( LENGTH_UNIT ( ) NAMED_UNIT ( * ) SI_UNIT ( $, .METRE. ) );
#330 = EDGE_LOOP ( 'NONE', ( #116, #98, #357, #177 ) ) ;
#331 = DIRECTION ( 'NONE',  ( 0.000000000000000000, 0.000000000000000000, -1.000000000000000000 ) ) ;
#332 = PRESENTATION_STYLE_ASSIGNMENT (( #233 ) ) ;
#333 =( CONVERSION_BASED_UNIT ( 'INCH', #46 ) LENGTH_UNIT ( ) NAMED_UNIT ( #38 ) );
#334 = CARTESIAN_POINT ( 'NONE',  ( 1.148106374200643092E-17, 0.000000000000000000, 0.09374999999999995837 ) ) ;
#335 = AXIS2_PLACEMENT_3D ( 'NONE', #225, #88, #193 ) ;
#336 = AXIS2_PLACEMENT_3D ( 'NONE', #56, #164, #23 ) ;
#337 =( NAMED_UNIT ( * ) PLANE_ANGLE_UNIT ( ) SI_UNIT ( $, .RADIAN. ) );
#338 = DIRECTION ( 'NONE',  ( 1.000000000000000000, 0.000000000000000000, 0.000000000000000000 ) ) ;
#339 = APPLICATION_PROTOCOL_DEFINITION ( 'draft international standard', 'automotive_design', 1998, #82 ) ;
#340 = CARTESIAN_POINT ( 'NONE',  ( 0.09374999999999991673, 2.500000000000000000, 1.148106374200642938E-17 ) ) ;
#341 = SURFACE_SIDE_STYLE ('',( #141 ) ) ;
#342 = PRESENTATION_LAYER_ASSIGNMENT (  '', '', ( #105 ) ) ;
#343 =( CONVERSION_BASED_UNIT ( 'INCH', #222 ) LENGTH_UNIT ( ) NAMED_UNIT ( #63 ) );
#344 = DIRECTION ( 'NONE',  ( -1.224646799147353207E-16, 1.000000000000000000, -0.000000000000000000 ) ) ;
#345 = DIRECTION ( 'NONE',  ( -0.000000000000000000, -1.000000000000000000, -0.000000000000000000 ) ) ;
#346 = SURFACE_STYLE_FILL_AREA ( #34 ) ;
#347 = PRESENTATION_STYLE_ASSIGNMENT (( #114 ) ) ;
#348 = APPLICATION_CONTEXT ( 'automotive_design' ) ;
#349 = CARTESIAN_POINT ( 'NONE',  ( -1.148106374200644017E-17, 0.09375000000000002776, 0.000000000000000000 ) ) ;
#350 = CLOSED_SHELL ( 'NONE', ( #305, #354, #216, #149 ) ) ;
#351 = MECHANICAL_DESIGN_GEOMETRIC_PRESENTATION_REPRESENTATION (  '', ( #105 ), #229 ) ;
#352 = DIRECTION ( 'NONE',  ( -0.000000000000000000, -1.000000000000000000, -0.000000000000000000 ) ) ;
#353 = DIRECTION ( 'NONE',  ( -0.000000000000000000, -1.000000000000000000, -0.000000000000000000 ) ) ;
#354 = ADVANCED_FACE ( 'NONE', ( #356 ), #214, .F. ) ;
#355 = VERTEX_POINT ( 'NONE', #96 ) ;
#356 = FACE_OUTER_BOUND ( 'NONE', #298, .T. ) ;
#357 = ORIENTED_EDGE ( 'NONE', *, *, #154, .T. ) ;
#358 = CARTESIAN_POINT ( 'NONE',  ( 0.09374999999999998612, 0.09375000000000004163, 0.000000000000000000 ) ) ;
#359 = DIRECTION ( 'NONE',  ( 0.000000000000000000, 0.000000000000000000, -1.000000000000000000 ) ) ;
#360 = EDGE_LOOP ( 'NONE', ( #110, #197, #160, #71 ) ) ;
#361 = SURFACE_SIDE_STYLE ('',( #260 ) ) ;
#362 = FILL_AREA_STYLE ('',( #267 ) ) ;
#363 = DIRECTION ( 'NONE',  ( 1.224646799147353207E-16, -0.000000000000000000, 1.000000000000000000 ) ) ;
#364 = DIRECTION ( 'NONE',  ( 0.000000000000000000, 0.000000000000000000, -1.000000000000000000 ) ) ;
#365 = DIRECTION ( 'NONE',  ( -0.000000000000000000, -1.000000000000000000, -0.000000000000000000 ) ) ;
#366 = MECHANICAL_DESIGN_GEOMETRIC_PRESENTATION_REPRESENTATION (  '', ( #187 ), #254 ) ;
#367 =( NAMED_UNIT ( * ) PLANE_ANGLE_UNIT ( ) SI_UNIT ( $, .RADIAN. ) );
#368 = CARTESIAN_POINT ( 'NONE',  ( -1.148106374200644017E-17, 0.09375000000000002776, 0.000000000000000000 ) ) ;
#369 = UNCERTAINTY_MEASURE_WITH_UNIT (LENGTH_MEASURE( 1.000000000000000082E-05 ), #15, 'distance_accuracy_value', 'NONE');
#370 = CIRCLE ( 'NONE', #89, 0.09374999999999979183 ) ;
#371 = PRESENTATION_STYLE_ASSIGNMENT (( #132 ) ) ;
#372 = UNCERTAINTY_MEASURE_WITH_UNIT (LENGTH_MEASURE( 1.000000000000000082E-05 ), #66, 'distance_accuracy_value', 'NONE');
#373 = EDGE_CURVE ( 'NONE', #120, #1, #273, .T. ) ;
ENDSEC;
END-ISO-10303-21;
